  0
SECTION
  2
HEADER
  9
$ACADVER
  1
AC1027
  9
$DWGCODEPAGE
  3
ANSI_932
  9
$TITLE
  1
ＲＪ４０Ｈ１４Ｗ０１　ガイケイ
  9
$COMMENTS
  1
ロータリジョイント
  9
$LTSCALE
 40
20.0
  9
$FILLMODE
 70
     1
  9
$CLAYER
  8
0
  9
$PDMODE
 70
     0
  9
$SPLFRAME
 70
     0
  9
$SPLINETYPE
 70
     6
  9
$SPLINESEGS
 70
     8
  9
$DIMASZ
 40
2.000000
  9
$DIMEXE
 40
2.000000
  9
$DIMEXO
 40
0.800000
  9
$DIMTAD
 70
     1
  9
$DIMTIH
 70
     0
  9
$DIMTOH
 70
     0
  9
$DIMTVP
 40
0.500000
  9
$DIMTXT
 40
3.100000
  9
$EXTMIN
 10
0.000000
 20
0.000000
 30
0.000000
  9
$EXTMAX
 10
297.000000
 20
420.000000
 30
0.000000
  9
$MEASUREMENT
 70
  1
  9
$LIMMIN
 10
0.000000
 20
0.000000
  9
$LIMMAX
 10
297.000000
 20
420.000000
  9
$HANDSEED
  5
663
  9
$LWDISPLAY
290
     0
  9
$DIMBLK
  1
_OPEN
  9
$DIMDEC
 70
     3
  9
$DIMADEC
 70
     4
  9
$DIMAUNIT
 70
     1
  9
$DIMZIN
 70
     8
  9
$DIMAZIN
 70
     2
  9
$DIMTOFL
 70
     1
  9
$CMLSTYLE
  2
STANDARD
  0
ENDSEC
  0
SECTION
  2
CLASSES
  0
CLASS
  1
MLEADERSTYLE
  2
AcDbMLeaderStyle
  3
ACDB_MLEADERSTYLE_CLASS
 90
     4095
 91
        2
280
     0
281
     0
  0
CLASS
  1
MULTILEADER
  2
AcDbMLeader
  3
ACDB_MLEADER_CLASS
 90
     1025
 91
        2
280
     0
281
     1
  0
ENDSEC
  0
SECTION
  2
TABLES
  0
TABLE
  2
VPORT
  5
62C
100
AcDbSymbolTable
 70
     1
  0
VPORT
  5
62D
100
AcDbSymbolTableRecord
100
AcDbViewportTableRecord
  2
*ACTIVE
 70
     0
 12
404.122589
 22
285.128419
 40
570.256839
 41
1.417335
  0
ENDTAB
  0
TABLE
  2
LTYPE
  5
62E
100
AcDbSymbolTable
 70
     4
  0
LTYPE
  5
62F
100
AcDbSymbolTableRecord
100
AcDbLinetypeTableRecord
  2
BYBLOCK
 70
     0
  3

 72
    65
 73
     0
 40
0.0
  0
LTYPE
  5
630
100
AcDbSymbolTableRecord
100
AcDbLinetypeTableRecord
  2
BYLAYER
 70
     0
  3

 72
    65
 73
     0
 40
0.0
  0
LTYPE
  5
68
100
AcDbSymbolTableRecord
100
AcDbLinetypeTableRecord
  2
CONTINUOUS
 70
     0
  3
Solid line (NEC CAE2D for Win R14.2 : 2025.07.16)
 72
    65
 73
     0
 40
0.0
  0
LTYPE
  5
631
100
AcDbSymbolTableRecord
100
AcDbLinetypeTableRecord
  2
HIDDEN
 70
     0
  3
__ __ __ __ __ __ __ __ __ __ __ __ __ __
 72
    65
 73
     2
 40
0.375
 49
0.25
 74
     0
 49
-0.125
 74
     0
  0
LTYPE
  5
632
100
AcDbSymbolTableRecord
100
AcDbLinetypeTableRecord
  2
CENTER
 70
     0
  3
____ _ ____ _ ____ _ ____ _ ____ _ ____
 72
    65
 73
     4
 40
2.0
 49
1.25
 74
     0
 49
-0.25
 74
     0
 49
0.25
 74
     0
 49
-0.25
 74
     0
  0
LTYPE
  5
633
100
AcDbSymbolTableRecord
100
AcDbLinetypeTableRecord
  2
PHANTOM
 70
     0
  3
______  __  __  ______  __  __  ______ 
 72
    65
 73
     6
 40
2.5
 49
1.25
 74
     0
 49
-0.25
 74
     0
 49
0.25
 74
     0
 49
-0.25
 74
     0
 49
0.25
 74
     0
 49
-0.25
 74
     0
  0
ENDTAB
  0
TABLE
  2
LAYER
  5
634
100
AcDbSymbolTable
 70
    11
  0
LAYER
  5
635
100
AcDbSymbolTableRecord
100
AcDbLayerTableRecord
  2
0
 70
     0
 62
     7
  6
CONTINUOUS
370
    -3
390

  0
LAYER
  5
636
100
AcDbSymbolTableRecord
100
AcDbLayerTableRecord
  2
MAIN0
 70
     0
 62
     7
  6
CONTINUOUS
370
    -3
390

  0
LAYER
  5
637
100
AcDbSymbolTableRecord
100
AcDbLayerTableRecord
  2
MAIN10
 70
     0
 62
     7
  6
CONTINUOUS
370
    -3
390

  0
LAYER
  5
638
100
AcDbSymbolTableRecord
100
AcDbLayerTableRecord
  2
MAIN1023
 70
     0
 62
    16
  6
CONTINUOUS
370
    -3
390

  0
LAYER
  5
639
100
AcDbSymbolTableRecord
100
AcDbLayerTableRecord
  2
A0
 70
     0
 62
     7
  6
CONTINUOUS
370
    -3
390

  0
LAYER
  5
63A
100
AcDbSymbolTableRecord
100
AcDbLayerTableRecord
  2
A1
 70
     0
 62
     7
  6
CONTINUOUS
370
    -3
390

  0
LAYER
  5
63B
100
AcDbSymbolTableRecord
100
AcDbLayerTableRecord
  2
A30
 70
     0
 62
     7
  6
CONTINUOUS
370
    -3
390

  0
LAYER
  5
63C
100
AcDbSymbolTableRecord
100
AcDbLayerTableRecord
  2
A1023
 70
     0
 62
    16
  6
CONTINUOUS
370
    -3
390

  0
LAYER
  5
63D
100
AcDbSymbolTableRecord
100
AcDbLayerTableRecord
  2
WAKU0
 70
     0
 62
     7
  6
CONTINUOUS
370
    -3
390

  0
LAYER
  5
63E
100
AcDbSymbolTableRecord
100
AcDbLayerTableRecord
  2
WAKU1
 70
     0
 62
     7
  6
CONTINUOUS
370
    -3
390

  0
LAYER
  5
63F
100
AcDbSymbolTableRecord
100
AcDbLayerTableRecord
  2
WAKU1023
 70
     0
 62
    16
  6
CONTINUOUS
370
    -3
390

  0
ENDTAB
  0
TABLE
  2
STYLE
  5
640
100
AcDbSymbolTable
 70
     4
  0
STYLE
  5
641
100
AcDbSymbolTableRecord
100
AcDbTextStyleTableRecord
  2
STANDARD
 70
    64
 40
0.0
 41
1.0
 50
0.0
 71
     0
 42
3.100000381469727
  3
TXT
  4

  0
STYLE
  5
642
100
AcDbSymbolTableRecord
100
AcDbTextStyleTableRecord
  2
ANKTATE
 70
    68
 40
0.0
 41
1.0
 50
0.0
 71
     0
 42
3.100000381469727
  3
TXT
  4

  0
STYLE
  5
69
100
AcDbSymbolTableRecord
100
AcDbTextStyleTableRecord
  2
KNJYOKO
 70
    64
 40
0.0
 41
1.0
 50
0.0
 71
     0
 42
3.100000381469727
  3
TXT
  4
BIGFONT
  0
STYLE
  5
643
100
AcDbSymbolTableRecord
100
AcDbTextStyleTableRecord
  2
KNJTATE
 70
    68
 40
0.0
 41
1.0
 50
0.0
 71
     0
 42
3.100000381469727
  3
TXT
  4
BIGFONT
  0
ENDTAB
  0
TABLE
  2
VIEW
  5
644
100
AcDbSymbolTable
 70
     0
  0
ENDTAB
  0
TABLE
  2
UCS
  5
645
100
AcDbSymbolTable
 70
     0
  0
ENDTAB
  0
TABLE
  2
APPID
  5
646
100
AcDbSymbolTable
 70
     1
  0
APPID
  5
647
100
AcDbSymbolTableRecord
100
AcDbRegAppTableRecord
  2
ACAD
 70
     0
  0
ENDTAB
  0
TABLE
  2
DIMSTYLE
  5
648
100
AcDbSymbolTable
 70
     1
100
AcDbDimStyleTable
  0
DIMSTYLE
105
649
100
AcDbSymbolTableRecord
100
AcDbDimStyleTableRecord
  2
STANDARD
 70
     0
 41
2.000000
 44
2.000000
 42
0.800000
145
0.661290
140
3.100000
144
1.000000
146
0.903226
340
641
  0
DIMSTYLE
105
64A
100
AcDbSymbolTableRecord
100
AcDbDimStyleTableRecord
  2
MAIN001
 70
     0
 41
4.000000
 44
4.000000
 42
1.600000
145
0.580645
140
6.200000
144
1.000000
146
0.903226
 77
     1
 73
     0
 74
     0
271
     3
179
     4
275
     1
 78
     8
 79
     2
172
     1
340
641
  0
DIMSTYLE
105
64B
100
AcDbSymbolTableRecord
100
AcDbDimStyleTableRecord
  2
A002
 70
     0
 41
2.000000
 44
2.000000
 42
0.800000
145
0.661290
140
3.100000
144
1.000000
146
0.903226
 77
     1
 73
     0
 74
     0
271
     3
179
     4
275
     1
 78
     8
 79
     2
172
     1
340
641
  0
DIMSTYLE
105
64C
100
AcDbSymbolTableRecord
100
AcDbDimStyleTableRecord
  2
WAKU003
 70
     0
 41
2.000000
 44
2.000000
 42
0.800000
145
0.661290
140
3.100000
144
1.000000
146
0.903226
 77
     1
 73
     0
 74
     0
271
     3
179
     4
275
     1
 78
     8
 79
     2
172
     1
340
641
  0
ENDTAB
  0
TABLE
  2
BLOCK_RECORD
  5
64D
100
AcDbSymbolTable
 70
    15
  0
BLOCK_RECORD
  5
64E
100
AcDbSymbolTableRecord
100
AcDbBlockTableRecord
  2
*MODEL_SPACE
  0
BLOCK_RECORD
  5
64F
100
AcDbSymbolTableRecord
100
AcDbBlockTableRecord
  2
*PAPER_SPACE
  0
BLOCK_RECORD
  5
650
100
AcDbSymbolTableRecord
100
AcDbBlockTableRecord
  2
*PAPER_SPACE0
  0
BLOCK_RECORD
  5
1
100
AcDbSymbolTableRecord
100
AcDbBlockTableRecord
  2
_NONE
  0
BLOCK_RECORD
  5
4
100
AcDbSymbolTableRecord
100
AcDbBlockTableRecord
  2
_CLOSED
  0
BLOCK_RECORD
  5
B
100
AcDbSymbolTableRecord
100
AcDbBlockTableRecord
  2
_DOT
  0
BLOCK_RECORD
  5
13
100
AcDbSymbolTableRecord
100
AcDbBlockTableRecord
  2
_OPEN
  0
BLOCK_RECORD
  5
19
100
AcDbSymbolTableRecord
100
AcDbBlockTableRecord
  2
_ORIGIN
  0
BLOCK_RECORD
  5
1E
100
AcDbSymbolTableRecord
100
AcDbBlockTableRecord
  2
_OPEN30
  0
BLOCK_RECORD
  5
24
100
AcDbSymbolTableRecord
100
AcDbBlockTableRecord
  2
_BOXFILLED
  0
BLOCK_RECORD
  5
29
100
AcDbSymbolTableRecord
100
AcDbBlockTableRecord
  2
_BOXBLANK
  0
BLOCK_RECORD
  5
31
100
AcDbSymbolTableRecord
100
AcDbBlockTableRecord
  2
_OBLIQUE
  0
BLOCK_RECORD
  5
35
100
AcDbSymbolTableRecord
100
AcDbBlockTableRecord
  2
_OPEN90
  0
BLOCK_RECORD
  5
3B
100
AcDbSymbolTableRecord
100
AcDbBlockTableRecord
  2
_CLOSEDBLANK
  0
BLOCK_RECORD
  5
41
100
AcDbSymbolTableRecord
100
AcDbBlockTableRecord
  2
_DOTBLANK
  0
BLOCK_RECORD
  5
651
100
AcDbSymbolTableRecord
100
AcDbBlockTableRecord
  2
M0
  0
BLOCK_RECORD
  5
652
100
AcDbSymbolTableRecord
100
AcDbBlockTableRecord
  2
M1
  0
BLOCK_RECORD
  5
653
100
AcDbSymbolTableRecord
100
AcDbBlockTableRecord
  2
M2
  0
ENDTAB
  0
ENDSEC
  0
SECTION
  2
BLOCKS
  0
BLOCK
  5
654
100
AcDbEntity
  8
0
100
AcDbBlockBegin
  2
*MODEL_SPACE
 70
     0
 10
0.0
 20
0.0
 30
0.0
  3
*MODEL_SPACE
  1

  0
ENDBLK
  5
655
100
AcDbEntity
  8
0
100
AcDbBlockEnd
  0
BLOCK
  5
656
100
AcDbEntity
  8
0
100
AcDbBlockBegin
  2
*PAPER_SPACE
 70
     0
 10
0.0
 20
0.0
 30
0.0
  3
*PAPER_SPACE
  1

  0
ENDBLK
  5
657
100
AcDbEntity
  8
0
100
AcDbBlockEnd
  0
BLOCK
  5
658
100
AcDbEntity
  8
0
100
AcDbBlockBegin
  2
*PAPER_SPACE0
 70
     0
 10
0.0
 20
0.0
 30
0.0
  3
*PAPER_SPACE0
  1

  0
ENDBLK
  5
659
100
AcDbEntity
  8
0
100
AcDbBlockEnd
  0
BLOCK
  5
2
330
1
100
AcDbEntity
  8
0
100
AcDbBlockBegin
  2
_NONE
 70
     0
 10
0.0
 20
0.0
 30
0.0
  3
_NONE
  1

  0
ENDBLK
  5
3
330
1
100
AcDbEntity
  8
0
100
AcDbBlockEnd
  0
BLOCK
  5
5
330
4
100
AcDbEntity
  8
0
100
AcDbBlockBegin
  2
_CLOSED
 70
     0
 10
0.0
 20
0.0
 30
0.0
  3
_CLOSED
  1

  0
LINE
  5
6
330
4
100
AcDbEntity
  8
0
  6
BYBLOCK
 62
     0
370
    -2
100
AcDbLine
 10
-1.0
 20
0.166667
 30
0.0
 11
0.0
 21
0.0
 31
0.0
  0
LINE
  5
7
330
4
100
AcDbEntity
  8
0
  6
BYBLOCK
 62
     0
370
    -2
100
AcDbLine
 10
0.0
 20
0.0
 30
0.0
 11
-1.0
 21
-0.166667
 31
0.0
  0
LINE
  5
8
330
4
100
AcDbEntity
  8
0
  6
BYBLOCK
 62
     0
370
    -2
100
AcDbLine
 10
-1.0
 20
0.166667
 30
0.0
 11
-1.0
 21
-0.166667
 31
0.0
  0
LINE
  5
9
330
4
100
AcDbEntity
  8
0
  6
BYBLOCK
 62
     0
370
    -2
100
AcDbLine
 10
0.0
 20
0.0
 30
0.0
 11
-1.0
 21
0.0
 31
0.0
  0
ENDBLK
  5
A
330
4
100
AcDbEntity
  8
0
100
AcDbBlockEnd
  0
BLOCK
  5
C
330
B
100
AcDbEntity
  8
0
100
AcDbBlockBegin
  2
_DOT
 70
     0
 10
0.0
 20
0.0
 30
0.0
  3
_DOT
  1

  0
POLYLINE
  5
D
330
B
100
AcDbEntity
  8
0
  6
BYBLOCK
 62
     0
370
    -2
100
AcDb2dPolyline
 66
     1
 10
0.0
 20
0.0
 30
0.0
 70
     1
 40
0.5
 41
0.5
  0
VERTEX
  5
E
330
B
100
AcDbEntity
  8
0
  6
BYBLOCK
 62
     0
370
    -2
100
AcDbVertex
100
AcDb2dVertex
 10
-0.25
 20
0.0
 30
0.0
 42
1.0
  0
VERTEX
  5
F
330
B
100
AcDbEntity
  8
0
  6
BYBLOCK
 62
     0
370
    -2
100
AcDbVertex
100
AcDb2dVertex
 10
0.25
 20
0.0
 30
0.0
 42
1.0
  0
SEQEND
  5
10
330
B
100
AcDbEntity
  8
0
  6
BYBLOCK
 62
     0
370
    -2
  0
LINE
  5
11
330
B
100
AcDbEntity
  8
0
  6
BYBLOCK
 62
     0
370
    -2
100
AcDbLine
 10
-0.5
 20
0.0
 30
0.0
 11
-1.0
 21
0.0
 31
0.0
  0
ENDBLK
  5
12
330
B
100
AcDbEntity
  8
0
100
AcDbBlockEnd
  0
BLOCK
  5
14
330
13
100
AcDbEntity
  8
0
100
AcDbBlockBegin
  2
_OPEN
 70
     0
 10
0.0
 20
0.0
 30
0.0
  3
_OPEN
  1

  0
LINE
  5
15
330
13
100
AcDbEntity
  8
0
  6
BYBLOCK
 62
     0
370
    -2
100
AcDbLine
 10
-1.0
 20
0.166667
 30
0.0
 11
0.0
 21
0.0
 31
0.0
  0
LINE
  5
16
330
13
100
AcDbEntity
  8
0
  6
BYBLOCK
 62
     0
370
    -2
100
AcDbLine
 10
0.0
 20
0.0
 30
0.0
 11
-1.0
 21
-0.166667
 31
0.0
  0
LINE
  5
17
330
13
100
AcDbEntity
  8
0
  6
BYBLOCK
 62
     0
370
    -2
100
AcDbLine
 10
0.0
 20
0.0
 30
0.0
 11
-1.0
 21
0.0
 31
0.0
  0
ENDBLK
  5
18
330
13
100
AcDbEntity
  8
0
100
AcDbBlockEnd
  0
BLOCK
  5
1A
330
19
100
AcDbEntity
  8
0
100
AcDbBlockBegin
  2
_ORIGIN
 70
     0
 10
0.0
 20
0.0
 30
0.0
  3
_ORIGIN
  1

  0
CIRCLE
  5
1B
330
19
100
AcDbEntity
  8
0
  6
BYBLOCK
 62
     0
370
    -2
100
AcDbCircle
 10
0.0
 20
0.0
 30
0.0
 40
0.5
  0
LINE
  5
1C
330
19
100
AcDbEntity
  8
0
  6
BYBLOCK
 62
     0
370
    -2
100
AcDbLine
 10
0.0
 20
0.0
 30
0.0
 11
-1.0
 21
0.0
 31
0.0
  0
ENDBLK
  5
1D
330
19
100
AcDbEntity
  8
0
100
AcDbBlockEnd
  0
BLOCK
  5
1F
330
1E
100
AcDbEntity
  8
0
100
AcDbBlockBegin
  2
_OPEN30
 70
     0
 10
0.0
 20
0.0
 30
0.0
  3
_OPEN30
  1

  0
LINE
  5
20
330
1E
100
AcDbEntity
  8
0
  6
BYBLOCK
 62
     0
370
    -2
100
AcDbLine
 10
-1.0
 20
0.267949
 30
0.0
 11
0.0
 21
0.0
 31
0.0
  0
LINE
  5
21
330
1E
100
AcDbEntity
  8
0
  6
BYBLOCK
 62
     0
370
    -2
100
AcDbLine
 10
0.0
 20
0.0
 30
0.0
 11
-1.0
 21
-0.267949
 31
0.0
  0
LINE
  5
22
330
1E
100
AcDbEntity
  8
0
  6
BYBLOCK
 62
     0
370
    -2
100
AcDbLine
 10
0.0
 20
0.0
 30
0.0
 11
-1.0
 21
0.0
 31
0.0
  0
ENDBLK
  5
23
330
1E
100
AcDbEntity
  8
0
100
AcDbBlockEnd
  0
BLOCK
  5
25
330
24
100
AcDbEntity
  8
0
100
AcDbBlockBegin
  2
_BOXFILLED
 70
     0
 10
0.0
 20
0.0
 30
0.0
  3
_BOXFILLED
  1

  0
SOLID
  5
26
330
24
100
AcDbEntity
  8
0
  6
BYBLOCK
 62
     0
370
    -2
100
AcDbTrace
 10
-0.5
 20
0.5
 30
0.0
 11
0.5
 21
0.5
 31
0.0
 12
-0.5
 22
-0.5
 32
0.0
 13
0.5
 23
-0.5
 33
0.0
  0
LINE
  5
27
330
24
100
AcDbEntity
  8
0
  6
BYBLOCK
 62
     0
370
    -2
100
AcDbLine
 10
-0.5
 20
0.0
 30
0.0
 11
-1.0
 21
0.0
 31
0.0
  0
ENDBLK
  5
28
330
24
100
AcDbEntity
  8
0
100
AcDbBlockEnd
  0
BLOCK
  5
2A
330
29
100
AcDbEntity
  8
0
100
AcDbBlockBegin
  2
_BOXBLANK
 70
     0
 10
0.0
 20
0.0
 30
0.0
  3
_BOXBLANK
  1

  0
LINE
  5
2B
330
29
100
AcDbEntity
  8
0
  6
BYBLOCK
 62
     0
370
    -2
100
AcDbLine
 10
-0.5
 20
-0.5
 30
0.0
 11
0.5
 21
-0.5
 31
0.0
  0
LINE
  5
2C
330
29
100
AcDbEntity
  8
0
  6
BYBLOCK
 62
     0
370
    -2
100
AcDbLine
 10
0.5
 20
-0.5
 30
0.0
 11
0.5
 21
0.5
 31
0.0
  0
LINE
  5
2D
330
29
100
AcDbEntity
  8
0
  6
BYBLOCK
 62
     0
370
    -2
100
AcDbLine
 10
0.5
 20
0.5
 30
0.0
 11
-0.5
 21
0.5
 31
0.0
  0
LINE
  5
2E
330
29
100
AcDbEntity
  8
0
  6
BYBLOCK
 62
     0
370
    -2
100
AcDbLine
 10
-0.5
 20
0.5
 30
0.0
 11
-0.5
 21
-0.5
 31
0.0
  0
LINE
  5
2F
330
29
100
AcDbEntity
  8
0
  6
BYBLOCK
 62
     0
370
    -2
100
AcDbLine
 10
-0.5
 20
0.0
 30
0.0
 11
-1.0
 21
0.0
 31
0.0
  0
ENDBLK
  5
30
330
29
100
AcDbEntity
  8
0
100
AcDbBlockEnd
  0
BLOCK
  5
32
330
31
100
AcDbEntity
  8
0
100
AcDbBlockBegin
  2
_OBLIQUE
 70
     0
 10
0.0
 20
0.0
 30
0.0
  3
_OBLIQUE
  1

  0
LINE
  5
33
330
31
100
AcDbEntity
  8
0
  6
BYBLOCK
 62
     0
370
    -2
100
AcDbLine
 10
-0.5
 20
-0.5
 30
0.0
 11
0.5
 21
0.5
 31
0.0
  0
ENDBLK
  5
34
330
31
100
AcDbEntity
  8
0
100
AcDbBlockEnd
  0
BLOCK
  5
36
330
35
100
AcDbEntity
  8
0
100
AcDbBlockBegin
  2
_OPEN90
 70
     0
 10
0.0
 20
0.0
 30
0.0
  3
_OPEN90
  1

  0
LINE
  5
37
330
35
100
AcDbEntity
  8
0
  6
BYBLOCK
 62
     0
370
    -2
100
AcDbLine
 10
-0.5
 20
0.5
 30
0.0
 11
0.0
 21
0.0
 31
0.0
  0
LINE
  5
38
330
35
100
AcDbEntity
  8
0
  6
BYBLOCK
 62
     0
370
    -2
100
AcDbLine
 10
0.0
 20
0.0
 30
0.0
 11
-0.5
 21
-0.5
 31
0.0
  0
LINE
  5
39
330
35
100
AcDbEntity
  8
0
  6
BYBLOCK
 62
     0
370
    -2
100
AcDbLine
 10
0.0
 20
0.0
 30
0.0
 11
-1.0
 21
0.0
 31
0.0
  0
ENDBLK
  5
3A
330
35
100
AcDbEntity
  8
0
100
AcDbBlockEnd
  0
BLOCK
  5
3C
330
3B
100
AcDbEntity
  8
0
100
AcDbBlockBegin
  2
_CLOSEDBLANK
 70
     0
 10
0.0
 20
0.0
 30
0.0
  3
_CLOSEDBLANK
  1

  0
LINE
  5
3D
330
3B
100
AcDbEntity
  8
0
  6
BYBLOCK
 62
     0
370
    -2
100
AcDbLine
 10
-1.0
 20
0.1666666666666666
 30
0.0
 11
0.0
 21
0.0
 31
0.0
  0
LINE
  5
3E
330
3B
100
AcDbEntity
  8
0
  6
BYBLOCK
 62
     0
370
    -2
100
AcDbLine
 10
0.0
 20
0.0
 30
0.0
 11
-1.0
 21
-0.1666666666666666
 31
0.0
  0
LINE
  5
3F
330
3B
100
AcDbEntity
  8
0
  6
BYBLOCK
 62
     0
370
    -2
100
AcDbLine
 10
-1.0
 20
0.1666666666666666
 30
0.0
 11
-1.0
 21
-0.1666666666666666
 31
0.0
  0
ENDBLK
  5
40
330
3B
100
AcDbEntity
  8
0
100
AcDbBlockEnd
  0
BLOCK
  5
42
330
41
100
AcDbEntity
  8
0
100
AcDbBlockBegin
  2
_DOTBLANK
 70
     0
 10
0.0
 20
0.0
 30
0.0
  3
_DOTBLANK
  1

  0
CIRCLE
  5
43
330
41
100
AcDbEntity
  8
0
  6
BYBLOCK
 62
     0
370
    -2
100
AcDbCircle
 10
0.0
 20
0.0
 30
0.0
 40
0.5
  0
LINE
  5
44
330
41
100
AcDbEntity
  8
0
  6
BYBLOCK
 62
     0
370
    -2
100
AcDbLine
 10
-0.5
 20
0.0
 30
0.0
 11
-1.0
 21
0.0
 31
0.0
  0
ENDBLK
  5
45
330
41
100
AcDbEntity
  8
0
100
AcDbBlockEnd
  0
BLOCK
  5
5F
100
AcDbEntity
  8
MAIN0
  6
BYBLOCK
 62
5
100
AcDbBlockBegin
  2
M0
 70
    64
 10
0.0
 20
0.0
 30
0.0
  0
POINT
  5
60
100
AcDbEntity
  8
MAIN0
  6
BYBLOCK
 62
0
370
    -2
100
AcDbPoint
 10
60.35773981243381
 20
559.4568388670265
 30
0.0000000000000000
  0
LINE
  5
61
100
AcDbEntity
  8
MAIN0
  6
BYBLOCK
 62
0
370
    -2
100
AcDbLine
 10
60.35773981243381
 20
559.4568388670265
 30
0.0000000000000000
 11
118.6244094831747
 21
559.4568388670265
 31
0.0000000000000000
  0
LINE
  5
62
100
AcDbEntity
  8
MAIN0
  6
BYBLOCK
 62
0
370
    -2
100
AcDbLine
 10
118.6244094831747
 20
570.2568388193428
 30
0.0000000000000000
 11
60.35773981243381
 21
570.2568388193428
 31
0.0000000000000000
  0
LINE
  5
63
100
AcDbEntity
  8
MAIN0
  6
BYBLOCK
 62
0
370
    -2
100
AcDbLine
 10
60.35773981243381
 20
570.2568388193428
 30
0.0000000000000000
 11
60.35773981243381
 21
559.4568388670265
 31
0.0000000000000000
  0
MTEXT
  5
64
100
AcDbEntity
  8
MAIN0
  6
BYBLOCK
 62
0
370
    -2
100
AcDbMText
 10
61.75773978859240
 20
568.8568388431859
 30
0.0000000000000000
 40
8.000000000000000
 41
0.0000000000000000
 44
0.6720000028610229
 71
     1
 72
     1
  1
{\H0.91x;注記 NOTE}
 11
1.000000000000000
 21
0.0000000000000000
 31
0.0000000000000000
  7
KNJYOKO
  0
ENDBLK
  5
65
100
AcDbEntity
  8
MAIN0
  6
BYBLOCK
 62
5
100
AcDbBlockEnd
  0
BLOCK
  5
A6
100
AcDbEntity
  8
MAIN0
  6
BYBLOCK
 62
4
100
AcDbBlockBegin
  2
M1
 70
    64
 10
0.0
 20
0.0
 30
0.0
  0
MTEXT
  5
A7
100
AcDbEntity
  8
MAIN0
  6
BYBLOCK
 62
0
370
    -2
100
AcDbMText
 10
62.16353517567575
 20
556.6388763659882
 30
0.0000000000000000
 40
6.200000762939453
 41
0.0000000000000000
 44
0.6719999870792528
 71
     1
 72
     1
  1
{\H0.88x;1)}
 11
1.000000000000000
 21
0.0000000000000000
 31
0.0000000000000000
  7
STANDARD
  0
MTEXT
  5
A8
100
AcDbEntity
  8
MAIN0
  6
BYBLOCK
 62
0
370
    -2
100
AcDbMText
 10
62.16353517567575
 20
540.6388763659882
 30
0.0000000000000000
 40
6.200000762939453
 41
0.0000000000000000
 44
0.6719999870792528
 71
     1
 72
     1
  1
{\H0.88x;2)}
 11
1.000000000000000
 21
0.0000000000000000
 31
0.0000000000000000
  7
STANDARD
  0
ENDBLK
  5
A9
100
AcDbEntity
  8
MAIN0
  6
BYBLOCK
 62
4
100
AcDbBlockEnd
  0
BLOCK
  5
5E7
100
AcDbEntity
  8
WAKU0
  6
BYBLOCK
 62
2
100
AcDbBlockBegin
  2
M2
 70
    64
 10
0.0
 20
0.0
 30
0.0
  0
LINE
  5
5E8
100
AcDbEntity
  8
WAKU0
  6
BYBLOCK
 62
0
370
    -2
100
AcDbLine
 10
20.00000000000364
 20
12.00000000000010
 30
0.0000000000000000
 11
410.0000000000001
 21
12.00000000000000
 31
0.0000000000000000
  0
LINE
  5
5E9
100
AcDbEntity
  8
WAKU0
  6
BYBLOCK
 62
0
370
    -2
100
AcDbLine
 10
20.00000000000370
 20
286.9999999999964
 30
0.0000000000000000
 11
410.0000000000000
 21
286.9999999999964
 31
0.0000000000000000
  0
LINE
  5
5EA
100
AcDbEntity
  8
WAKU0
  6
BYBLOCK
 62
0
370
    -2
100
AcDbLine
 10
20.00000000000364
 20
12.00000000000010
 30
0.0000000000000000
 11
20.00000000000370
 21
286.9999999999964
 31
0.0000000000000000
  0
LINE
  5
5EB
100
AcDbEntity
  8
WAKU0
  6
BYBLOCK
 62
0
370
    -2
100
AcDbLine
 10
210.0000000000001
 20
-3.552713678800501e-015
 30
0.0000000000000000
 11
210.0000000000001
 21
12.00000000000013
 31
0.0000000000000000
  0
LINE
  5
5EC
100
AcDbEntity
  8
WAKU0
  6
BYBLOCK
 62
0
370
    -2
100
AcDbLine
 10
210.0000000000001
 20
286.9999999999964
 30
0.0000000000000000
 11
210.0000000000002
 21
296.9999999999964
 31
0.0000000000000000
  0
LINE
  5
5ED
100
AcDbEntity
  8
WAKU0
  6
BYBLOCK
 62
0
370
    -2
100
AcDbLine
 10
3.637978807091713e-012
 20
148.4999999999999
 30
0.0000000000000000
 11
20.00000000000364
 21
148.4999999999999
 31
0.0000000000000000
  0
LINE
  5
5EE
100
AcDbEntity
  8
WAKU0
  6
BYBLOCK
 62
0
370
    -2
100
AcDbLine
 10
410.0000000000000
 20
148.5000000000000
 30
0.0000000000000000
 11
420.0000000000001
 21
148.5000000000000
 31
0.0000000000000000
  0
LINE
  5
5EF
100
AcDbEntity
  8
WAKU0
  6
BYBLOCK
 62
0
370
    -2
100
AcDbLine
 10
160.0000000000002
 20
6.999999999999995
 30
0.0000000000000000
 11
260.0000000000000
 21
6.999999999999996
 31
0.0000000000000000
  0
LINE
  5
5F0
100
AcDbEntity
  8
WAKU0
  6
BYBLOCK
 62
0
370
    -2
100
AcDbLine
 10
160.0000000000002
 20
7.000000000000007
 30
0.0000000000000000
 11
160.0000000000002
 21
12.00000000000016
 31
0.0000000000000000
  0
LINE
  5
5F1
100
AcDbEntity
  8
WAKU0
  6
BYBLOCK
 62
0
370
    -2
100
AcDbLine
 10
170.0000000000002
 20
10.00000000000003
 30
0.0000000000000000
 11
170.0000000000002
 21
7.000000000000025
 31
0.0000000000000000
  0
LINE
  5
5F2
100
AcDbEntity
  8
WAKU0
  6
BYBLOCK
 62
0
370
    -2
100
AcDbLine
 10
260.0000000000001
 20
7.000000000000007
 30
0.0000000000000000
 11
260.0000000000001
 21
12.00000000000011
 31
0.0000000000000000
  0
LINE
  5
5F3
100
AcDbEntity
  8
WAKU0
  6
BYBLOCK
 62
0
370
    -2
100
AcDbLine
 10
180.0000000000002
 20
10.00000000000003
 30
0.0000000000000000
 11
180.0000000000002
 21
7.000000000000025
 31
0.0000000000000000
  0
LINE
  5
5F4
100
AcDbEntity
  8
WAKU0
  6
BYBLOCK
 62
0
370
    -2
100
AcDbLine
 10
190.0000000000002
 20
10.00000000000003
 30
0.0000000000000000
 11
190.0000000000002
 21
7.000000000000025
 31
0.0000000000000000
  0
LINE
  5
5F5
100
AcDbEntity
  8
WAKU0
  6
BYBLOCK
 62
0
370
    -2
100
AcDbLine
 10
200.0000000000002
 20
10.00000000000003
 30
0.0000000000000000
 11
200.0000000000002
 21
7.000000000000025
 31
0.0000000000000000
  0
LINE
  5
5F6
100
AcDbEntity
  8
WAKU0
  6
BYBLOCK
 62
0
370
    -2
100
AcDbLine
 10
220.0000000000002
 20
10.00000000000003
 30
0.0000000000000000
 11
220.0000000000002
 21
7.000000000000025
 31
0.0000000000000000
  0
LINE
  5
5F7
100
AcDbEntity
  8
WAKU0
  6
BYBLOCK
 62
0
370
    -2
100
AcDbLine
 10
230.0000000000002
 20
10.00000000000003
 30
0.0000000000000000
 11
230.0000000000002
 21
7.000000000000025
 31
0.0000000000000000
  0
LINE
  5
5F8
100
AcDbEntity
  8
WAKU0
  6
BYBLOCK
 62
0
370
    -2
100
AcDbLine
 10
240.0000000000002
 20
10.00000000000003
 30
0.0000000000000000
 11
240.0000000000002
 21
7.000000000000025
 31
0.0000000000000000
  0
LINE
  5
5F9
100
AcDbEntity
  8
WAKU0
  6
BYBLOCK
 62
0
370
    -2
100
AcDbLine
 10
250.0000000000002
 20
10.00000000000003
 30
0.0000000000000000
 11
250.0000000000002
 21
7.000000000000025
 31
0.0000000000000000
  0
LINE
  5
5FA
100
AcDbEntity
  8
WAKU0
  6
BYBLOCK
 62
0
370
    -2
100
AcDbLine
 10
80.00000000000364
 20
286.9999999999964
 30
0.0000000000000000
 11
80.00000000000364
 21
290.9999999999964
 31
0.0000000000000000
  0
LINE
  5
5FB
100
AcDbEntity
  8
WAKU0
  6
BYBLOCK
 62
0
370
    -2
100
AcDbLine
 10
145.0000000000036
 20
286.9999999999964
 30
0.0000000000000000
 11
145.0000000000036
 21
290.9999999999964
 31
0.0000000000000000
  0
LINE
  5
5FC
100
AcDbEntity
  8
WAKU0
  6
BYBLOCK
 62
0
370
    -2
100
AcDbLine
 10
275.0000000000000
 20
286.9999999999964
 30
0.0000000000000000
 11
275.0000000000000
 21
290.9999999999964
 31
0.0000000000000000
  0
LINE
  5
5FD
100
AcDbEntity
  8
WAKU0
  6
BYBLOCK
 62
0
370
    -2
100
AcDbLine
 10
339.9999999999999
 20
286.9999999999964
 30
0.0000000000000000
 11
339.9999999999999
 21
290.9999999999964
 31
0.0000000000000000
  0
LINE
  5
5FE
100
AcDbEntity
  8
WAKU0
  6
BYBLOCK
 62
0
370
    -2
100
AcDbLine
 10
274.9824199069989
 20
7.999999999999996
 30
0.0000000000000000
 11
274.9824199069989
 21
12.00000000000015
 31
0.0000000000000000
  0
LINE
  5
5FF
100
AcDbEntity
  8
WAKU0
  6
BYBLOCK
 62
0
370
    -2
100
AcDbLine
 10
340.0873184256148
 20
7.999999999999996
 30
0.0000000000000000
 11
340.0873184256148
 21
12.00000000000010
 31
0.0000000000000000
  0
LINE
  5
600
100
AcDbEntity
  8
WAKU0
  6
BYBLOCK
 62
0
370
    -2
100
AcDbLine
 10
145.0000000000036
 20
7.999999999999996
 30
0.0000000000000000
 11
145.0000000000036
 21
12.00000000000015
 31
0.0000000000000000
  0
LINE
  5
601
100
AcDbEntity
  8
WAKU0
  6
BYBLOCK
 62
0
370
    -2
100
AcDbLine
 10
80.00000000000364
 20
7.999999999999996
 30
0.0000000000000000
 11
80.00000000000364
 21
12.00000000000015
 31
0.0000000000000000
  0
LINE
  5
602
100
AcDbEntity
  8
WAKU0
  6
BYBLOCK
 62
0
370
    -2
100
AcDbLine
 10
16.00000000000381
 20
218.4999999999999
 30
0.0000000000000000
 11
20.00000000000381
 21
218.4999999999999
 31
0.0000000000000000
  0
LINE
  5
603
100
AcDbEntity
  8
WAKU0
  6
BYBLOCK
 62
0
370
    -2
100
AcDbLine
 10
410.0000000000000
 20
218.5000000000000
 30
0.0000000000000000
 11
413.9999999999999
 21
218.5000000000000
 31
0.0000000000000000
  0
LINE
  5
604
100
AcDbEntity
  8
WAKU0
  6
BYBLOCK
 62
0
370
    -2
100
AcDbLine
 10
16.00000000000370
 20
78.49999999999994
 30
0.0000000000000000
 11
20.00000000000370
 21
78.49999999999993
 31
0.0000000000000000
  0
LINE
  5
605
100
AcDbEntity
  8
WAKU0
  6
BYBLOCK
 62
0
370
    -2
100
AcDbLine
 10
410.0000000000000
 20
78.49999999999994
 30
0.0000000000000000
 11
413.9999999999999
 21
78.49999999999994
 31
0.0000000000000000
  0
LINE
  5
606
100
AcDbEntity
  8
WAKU0
  6
BYBLOCK
 62
0
370
    -2
100
AcDbLine
 10
418.0000000000001
 20
1.999999999999998
 30
0.0000000000000000
 11
418.0000000000001
 21
7.999999999999987
 31
0.0000000000000000
  0
LINE
  5
607
100
AcDbEntity
  8
WAKU0
  6
BYBLOCK
 62
0
370
    -2
100
AcDbLine
 10
417.9999999999999
 20
288.9999999999963
 30
0.0000000000000000
 11
418.0000000000000
 21
294.9999999999963
 31
0.0000000000000000
  0
LINE
  5
608
100
AcDbEntity
  8
WAKU0
  6
BYBLOCK
 62
0
370
    -2
100
AcDbLine
 10
2.000000000003638
 20
2.000000000000037
 30
0.0000000000000000
 11
2.000000000003638
 21
8.000000000000050
 31
0.0000000000000000
  0
LINE
  5
609
100
AcDbEntity
  8
WAKU0
  6
BYBLOCK
 62
0
370
    -2
100
AcDbLine
 10
2.000000000003638
 20
288.9999999999964
 30
0.0000000000000000
 11
2.000000000003638
 21
294.9999999999964
 31
0.0000000000000000
  0
LINE
  5
60A
100
AcDbEntity
  8
WAKU0
  6
BYBLOCK
 62
0
370
    -2
100
AcDbLine
 10
2.000000000002672
 20
294.9999999999966
 30
0.0000000000000000
 11
8.000000000002672
 21
294.9999999999965
 31
0.0000000000000000
  0
LINE
  5
60B
100
AcDbEntity
  8
WAKU0
  6
BYBLOCK
 62
0
370
    -2
100
AcDbLine
 10
411.9999999999999
 20
294.9999999999963
 30
0.0000000000000000
 11
418.0000000000000
 21
294.9999999999964
 31
0.0000000000000000
  0
LINE
  5
60C
100
AcDbEntity
  8
WAKU0
  6
BYBLOCK
 62
0
370
    -2
100
AcDbLine
 10
2.000000000003638
 20
2.000000000000037
 30
0.0000000000000000
 11
8.000000000003638
 21
2.000000000000036
 31
0.0000000000000000
  0
LINE
  5
60D
100
AcDbEntity
  8
WAKU0
  6
BYBLOCK
 62
0
370
    -2
100
AcDbLine
 10
412.0000000000001
 20
1.999999999999998
 30
0.0000000000000000
 11
418.0000000000001
 21
1.999999999999998
 31
0.0000000000000000
  0
LINE
  5
60E
100
AcDbEntity
  8
WAKU0
  6
BYBLOCK
 62
0
370
    -2
100
AcDbLine
 10
420.2411645794610
 20
53.79556398365287
 30
0.0000000000000000
 11
420.2411645794610
 21
46.79556398365287
 31
0.0000000000000000
  0
LINE
  5
60F
100
AcDbEntity
  8
WAKU0
  6
BYBLOCK
 62
0
370
    -2
100
AcDbLine
 10
410.0000000000001
 20
12.00000000000011
 30
0.0000000000000000
 11
410.0000000000001
 21
286.9999999999964
 31
0.0000000000000000
  0
MTEXT
  5
610
100
AcDbEntity
  8
WAKU0
  6
BYBLOCK
 62
0
370
    -2
100
AcDbMText
 10
52.00000000000364
 20
292.1000003814661
 30
0.0000000000000000
 40
3.100000381469727
 41
0.0000000000000000
 44
0.6719999870792528
 71
     1
 72
     1
  1
{\H0.81x;1}
 11
1.000000000000000
 21
0.0000000000000000
 31
0.0000000000000000
  7
STANDARD
  0
MTEXT
  5
611
100
AcDbEntity
  8
WAKU0
  6
BYBLOCK
 62
0
370
    -2
100
AcDbMText
 10
112.0000000000036
 20
292.1000003814661
 30
0.0000000000000000
 40
3.100000381469727
 41
0.0000000000000000
 44
0.6719999870792528
 71
     1
 72
     1
  1
{\H0.81x;2}
 11
1.000000000000000
 21
0.0000000000000000
 31
0.0000000000000000
  7
STANDARD
  0
MTEXT
  5
612
100
AcDbEntity
  8
WAKU0
  6
BYBLOCK
 62
0
370
    -2
100
AcDbMText
 10
177.0000000000002
 20
292.1000003814661
 30
0.0000000000000000
 40
3.100000381469727
 41
0.0000000000000000
 44
0.6719999870792528
 71
     1
 72
     1
  1
{\H0.81x;3}
 11
1.000000000000000
 21
0.0000000000000000
 31
0.0000000000000000
  7
STANDARD
  0
MTEXT
  5
613
100
AcDbEntity
  8
WAKU0
  6
BYBLOCK
 62
0
370
    -2
100
AcDbMText
 10
242.0000000000002
 20
292.1000003814661
 30
0.0000000000000000
 40
3.100000381469727
 41
0.0000000000000000
 44
0.6719999870792528
 71
     1
 72
     1
  1
{\H0.81x;4}
 11
1.000000000000000
 21
0.0000000000000000
 31
0.0000000000000000
  7
STANDARD
  0
MTEXT
  5
614
100
AcDbEntity
  8
WAKU0
  6
BYBLOCK
 62
0
370
    -2
100
AcDbMText
 10
307.0000000000002
 20
292.1000003814661
 30
0.0000000000000000
 40
3.100000381469727
 41
0.0000000000000000
 44
0.6719999870792528
 71
     1
 72
     1
  1
{\H0.81x;5}
 11
1.000000000000000
 21
0.0000000000000000
 31
0.0000000000000000
  7
STANDARD
  0
MTEXT
  5
615
100
AcDbEntity
  8
WAKU0
  6
BYBLOCK
 62
0
370
    -2
100
AcDbMText
 10
377.0000000000001
 20
292.1000003814661
 30
0.0000000000000000
 40
3.100000381469727
 41
0.0000000000000000
 44
0.6719999870792528
 71
     1
 72
     1
  1
{\H0.81x;6}
 11
1.000000000000000
 21
0.0000000000000000
 31
0.0000000000000000
  7
STANDARD
  0
MTEXT
  5
616
100
AcDbEntity
  8
WAKU0
  6
BYBLOCK
 62
0
370
    -2
100
AcDbMText
 10
52.00000000000364
 20
11.10000038146984
 30
0.0000000000000000
 40
3.100000381469727
 41
0.0000000000000000
 44
0.6719999870792528
 71
     1
 72
     1
  1
{\H0.81x;1}
 11
1.000000000000000
 21
0.0000000000000000
 31
0.0000000000000000
  7
STANDARD
  0
MTEXT
  5
617
100
AcDbEntity
  8
WAKU0
  6
BYBLOCK
 62
0
370
    -2
100
AcDbMText
 10
112.0000000000036
 20
11.10000038146984
 30
0.0000000000000000
 40
3.100000381469727
 41
0.0000000000000000
 44
0.6719999870792528
 71
     1
 72
     1
  1
{\H0.81x;2}
 11
1.000000000000000
 21
0.0000000000000000
 31
0.0000000000000000
  7
STANDARD
  0
MTEXT
  5
618
100
AcDbEntity
  8
WAKU0
  6
BYBLOCK
 62
0
370
    -2
100
AcDbMText
 10
307.0000000000001
 20
11.10000038146984
 30
0.0000000000000000
 40
3.100000381469727
 41
0.0000000000000000
 44
0.6719999870792528
 71
     1
 72
     1
  1
{\H0.81x;5}
 11
1.000000000000000
 21
0.0000000000000000
 31
0.0000000000000000
  7
STANDARD
  0
MTEXT
  5
619
100
AcDbEntity
  8
WAKU0
  6
BYBLOCK
 62
0
370
    -2
100
AcDbMText
 10
377.0000000000001
 20
11.10000038146984
 30
0.0000000000000000
 40
3.100000381469727
 41
0.0000000000000000
 44
0.6719999870792528
 71
     1
 72
     1
  1
{\H0.81x;6}
 11
1.000000000000000
 21
0.0000000000000000
 31
0.0000000000000000
  7
STANDARD
  0
MTEXT
  5
61A
100
AcDbEntity
  8
WAKU0
  6
BYBLOCK
 62
0
370
    -2
100
AcDbMText
 10
17.00000000000364
 20
255.1000003814696
 30
0.0000000000000000
 40
3.100000381469727
 41
0.0000000000000000
 44
0.6719999870792528
 71
     1
 72
     1
  1
{\H0.81x;A}
 11
1.000000000000000
 21
0.0000000000000000
 31
0.0000000000000000
  7
STANDARD
  0
MTEXT
  5
61B
100
AcDbEntity
  8
WAKU0
  6
BYBLOCK
 62
0
370
    -2
100
AcDbMText
 10
17.00000000000364
 20
187.1000003814696
 30
0.0000000000000000
 40
3.100000381469727
 41
0.0000000000000000
 44
0.6719999870792528
 71
     1
 72
     1
  1
{\H0.81x;B}
 11
1.000000000000000
 21
0.0000000000000000
 31
0.0000000000000000
  7
STANDARD
  0
MTEXT
  5
61C
100
AcDbEntity
  8
WAKU0
  6
BYBLOCK
 62
0
370
    -2
100
AcDbMText
 10
17.00000000000364
 20
117.1000003814696
 30
0.0000000000000000
 40
3.100000381469727
 41
0.0000000000000000
 44
0.6719999870792528
 71
     1
 72
     1
  1
{\H0.81x;C}
 11
1.000000000000000
 21
0.0000000000000000
 31
0.0000000000000000
  7
STANDARD
  0
MTEXT
  5
61D
100
AcDbEntity
  8
WAKU0
  6
BYBLOCK
 62
0
370
    -2
100
AcDbMText
 10
17.00000000000364
 20
49.10000038146950
 30
0.0000000000000000
 40
3.100000381469727
 41
0.0000000000000000
 44
0.6719999870792528
 71
     1
 72
     1
  1
{\H0.81x;D}
 11
1.000000000000000
 21
0.0000000000000000
 31
0.0000000000000000
  7
STANDARD
  0
MTEXT
  5
61E
100
AcDbEntity
  8
WAKU0
  6
BYBLOCK
 62
0
370
    -2
100
AcDbMText
 10
412.0000000000000
 20
255.1000003814694
 30
0.0000000000000000
 40
3.100000381469727
 41
0.0000000000000000
 44
0.6719999870792528
 71
     1
 72
     1
  1
{\H0.81x;A}
 11
1.000000000000000
 21
0.0000000000000000
 31
0.0000000000000000
  7
STANDARD
  0
MTEXT
  5
61F
100
AcDbEntity
  8
WAKU0
  6
BYBLOCK
 62
0
370
    -2
100
AcDbMText
 10
412.0000000000000
 20
187.1000003814694
 30
0.0000000000000000
 40
3.100000381469727
 41
0.0000000000000000
 44
0.6719999870792528
 71
     1
 72
     1
  1
{\H0.81x;B}
 11
1.000000000000000
 21
0.0000000000000000
 31
0.0000000000000000
  7
STANDARD
  0
MTEXT
  5
620
100
AcDbEntity
  8
WAKU0
  6
BYBLOCK
 62
0
370
    -2
100
AcDbMText
 10
412.0000000000000
 20
117.1000003814694
 30
0.0000000000000000
 40
3.100000381469727
 41
0.0000000000000000
 44
0.6719999870792528
 71
     1
 72
     1
  1
{\H0.81x;C}
 11
1.000000000000000
 21
0.0000000000000000
 31
0.0000000000000000
  7
STANDARD
  0
MTEXT
  5
621
100
AcDbEntity
  8
WAKU0
  6
BYBLOCK
 62
0
370
    -2
100
AcDbMText
 10
412.0000000000000
 20
49.10000038146939
 30
0.0000000000000000
 40
3.100000381469727
 41
0.0000000000000000
 44
0.6719999870792528
 71
     1
 72
     1
  1
{\H0.81x;D}
 11
1.000000000000000
 21
0.0000000000000000
 31
0.0000000000000000
  7
STANDARD
  0
ENDBLK
  5
622
100
AcDbEntity
  8
WAKU0
  6
BYBLOCK
 62
2
100
AcDbBlockEnd
  0
ENDSEC
  0
SECTION
  2
ENTITIES
  0
LINE
  5
46
100
AcDbEntity
  8
MAIN0
  6
CENTER
 62
4
100
AcDbLine
 10
476.3359117518649
 20
117.3128768489456
 30
0.0000000000000000
 11
476.3359117518649
 21
138.1568036054888
 31
0.0000000000000000
  0
LINE
  5
47
100
AcDbEntity
  8
MAIN0
  6
CENTER
 62
4
100
AcDbLine
 10
436.3359117518651
 20
117.3128768489456
 30
0.0000000000000000
 11
436.3359117518651
 21
138.1568036054888
 31
0.0000000000000000
  0
CIRCLE
  5
48
100
AcDbEntity
  8
MAIN0
  6
PHANTOM
 62
4
100
AcDbCircle
 10
660.2742896582391
 20
285.4013201865476
 30
0.0000000000000000
 40
5.000000000000000
  0
CIRCLE
  5
49
100
AcDbEntity
  8
MAIN0
  6
PHANTOM
 62
4
100
AcDbCircle
 10
633.7577853637436
 20
274.4178244810432
 30
0.0000000000000000
 40
5.000000000000000
  0
CIRCLE
  5
4A
100
AcDbEntity
  8
MAIN0
  6
PHANTOM
 62
4
100
AcDbCircle
 10
622.7742896582390
 20
247.9013201865473
 30
0.0000000000000000
 40
5.000000000000000
  0
CIRCLE
  5
4B
100
AcDbEntity
  8
MAIN0
  6
PHANTOM
 62
4
100
AcDbCircle
 10
633.7577853637439
 20
221.3848158920516
 30
0.0000000000000000
 40
5.000000000000000
  0
CIRCLE
  5
4C
100
AcDbEntity
  8
MAIN0
  6
PHANTOM
 62
4
100
AcDbCircle
 10
660.2742896582390
 20
210.4013201865473
 30
0.0000000000000000
 40
5.000000000000000
  0
CIRCLE
  5
4D
100
AcDbEntity
  8
MAIN0
  6
PHANTOM
 62
4
100
AcDbCircle
 10
686.7907939527343
 20
221.3848158920519
 30
0.0000000000000000
 40
5.000000000000000
  0
CIRCLE
  5
4E
100
AcDbEntity
  8
MAIN0
  6
PHANTOM
 62
4
100
AcDbCircle
 10
697.7742896582387
 20
247.9013201865473
 30
0.0000000000000000
 40
5.000000000000000
  0
CIRCLE
  5
4F
100
AcDbEntity
  8
MAIN0
  6
PHANTOM
 62
4
100
AcDbCircle
 10
686.7907939527341
 20
274.4178244810431
 30
0.0000000000000000
 40
5.000000000000000
  0
LINE
  5
50
100
AcDbEntity
  8
MAIN0
  6
PHANTOM
 62
4
100
AcDbLine
 10
422.3359100829641
 20
321.9013169059272
 30
0.0000000000000000
 11
479.3359090994651
 21
321.9013169060536
 31
0.0000000000000000
  0
SPLINE
  5
51
100
AcDbEntity
  8
MAIN0
  6
CONTINUOUS
 62
4
100
AcDbSpline
210
0.0000000000000000
220
0.0000000000000000
230
1.000000000000000
 70
     8
 71
     3
 72
    13
 73
     9
 74
     0
 42
1.000000000000000e-007
 43
1.000000000000000e-007
 12
0.2340568044680680
 22
-0.1007374417253715
 32
0.0000000000000000
 13
0.9426132166266541
 23
0.4324130258197414
 33
0.0000000000000000
 40
0.0000000000000000
 40
0.0000000000000000
 40
0.0000000000000000
 40
0.0000000000000000
 40
11.15329715576473
 40
22.71600028835808
 40
47.19228176736081
 40
67.95316644070786
 40
80.11393210650411
 40
90.12433153050618
 40
90.12433153050618
 40
90.12433153050618
 40
90.12433153050618
 10
412.3359100829624
 20
285.3143340549647
 30
0.0000000000000000
 10
413.2060784468160
 20
284.9398158475398
 30
0.0000000000000000
 10
417.6377354349531
 20
283.4921203114589
 30
0.0000000000000000
 10
431.3524514361742
 20
287.1586409503841
 30
0.0000000000000000
 10
447.8436557177008
 20
269.9811605588045
 30
0.0000000000000000
 10
467.0184235575480
 20
283.1428057933238
 30
0.0000000000000000
 10
481.1784271537994
 20
276.4960320570879
 30
0.0000000000000000
 10
488.1906001330145
 20
278.8132772139899
 30
0.0000000000000000
 10
491.3359117332733
 20
280.2561529155222
 30
0.0000000000000000
  0
SPLINE
  5
52
100
AcDbEntity
  8
MAIN0
  6
CONTINUOUS
 62
4
100
AcDbSpline
210
0.0000000000000000
220
0.0000000000000000
230
1.000000000000000
 70
     8
 71
     3
 72
    13
 73
     9
 74
     0
 42
1.000000000000000e-007
 43
1.000000000000000e-007
 12
0.2340568044683806
 22
0.1007374417245828
 32
0.0000000000000000
 13
0.9426132166252899
 23
-0.4324130258226830
 33
0.0000000000000000
 40
0.0000000000000000
 40
0.0000000000000000
 40
0.0000000000000000
 40
0.0000000000000000
 40
11.15329715576473
 40
22.71600028835808
 40
47.19228176736081
 40
67.95316644070786
 40
80.11393210650411
 40
90.12433153050618
 40
90.12433153050618
 40
90.12433153050618
 40
90.12433153050618
 10
412.3359100828452
 20
210.4883063180108
 30
0.0000000000000000
 10
413.2060784467000
 20
210.8628245254328
 30
0.0000000000000000
 10
417.6377354348416
 20
212.3105200614999
 30
0.0000000000000000
 10
431.3524514360512
 20
208.6439994225317
 30
0.0000000000000000
 10
447.8436557176316
 20
225.8214798140596
 30
0.0000000000000000
 10
467.0184235574375
 20
212.6598345794802
 30
0.0000000000000000
 10
481.1784271537098
 20
219.3066083156717
 30
0.0000000000000000
 10
488.1906001329176
 20
216.9893631587478
 30
0.0000000000000000
 10
491.3359117331719
 20
215.5464874572057
 30
0.0000000000000000
  0
POINT
  5
53
100
AcDbEntity
  8
MAIN0
  6
CONTINUOUS
 62
5
100
AcDbPoint
 10
660.2742896582391
 20
247.9013201865475
 30
0.0000000000000000
  0
LINE
  5
54
100
AcDbEntity
  8
MAIN0
  6
CONTINUOUS
 62
3
100
AcDbLine
 10
354.3359144800865
 20
286.9013201866388
 30
0.0000000000000000
 11
364.3359144800865
 21
286.9013201866075
 31
0.0000000000000000
  0
LINE
  5
55
100
AcDbEntity
  8
MAIN0
  6
CENTER
 62
4
100
AcDbLine
 10
396.3265857264505
 20
342.2255567134088
 30
0.0000000000000000
 11
410.0859100830490
 21
342.2255567133618
 31
0.0000000000000000
  0
LINE
  5
56
100
AcDbEntity
  8
MAIN0
  6
CONTINUOUS
 62
4
100
AcDbLine
 10
118.6244094831747
 20
559.4568388670264
 30
0.0000000000000000
 11
118.6244094831747
 21
570.2568388193427
 31
0.0000000000000000
  0
MTEXT
  5
57
100
AcDbEntity
  8
MAIN0
  6
CONTINUOUS
 62
4
100
AcDbMText
 10
62.16353517567575
 20
476.6388754123138
 30
0.0000000000000000
 40
6.199999809265137
 41
0.0000000000000000
 44
0.6677419652551825
 71
     1
 72
     1
  1
{\H0.88x;{5)}}
 11
1.000000000000000
 21
0.0000000000000000
 31
0.0000000000000000
  7
STANDARD
  0
MTEXT
  5
58
100
AcDbEntity
  8
MAIN0
  6
CONTINUOUS
 62
4
100
AcDbMText
 10
76.16353517567575
 20
476.4388756030487
 30
0.0000000000000000
 40
6.000000000000000
 41
0.0000000000000000
 44
0.8000000000000000
 71
     1
 72
     1
  1
{\H0.59x;{ブロックは９０゜毎に向きを変えて取付けできます。}}
 11
1.000000000000000
 21
0.0000000000000000
 31
0.0000000000000000
  7
KNJYOKO
  0
MTEXT
  5
59
100
AcDbEntity
  8
MAIN0
  6
CONTINUOUS
 62
4
100
AcDbMText
 10
76.16353517567575
 20
468.4388756030487
 30
0.0000000000000000
 40
6.000000000000000
 41
0.0000000000000000
 44
0.8000000000000000
 71
     1
 72
     1
  1
{\H0.62x;{BLOCK CAN BE CONNECTED FROM ALL (90゜)DIRECTIONS.}}
 11
1.000000000000000
 21
0.0000000000000000
 31
0.0000000000000000
  7
KNJYOKO
  0
MTEXT
  5
5A
100
AcDbEntity
  8
MAIN0
  6
CONTINUOUS
 62
4
100
AcDbMText
 10
592.1572051141685
 20
137.0635752209271
 30
0.0000000000000000
 40
5.599999904632568
 41
0.0000000000000000
 44
0.6728571767952983
 71
     1
 72
     1
  1
{\H0.93x;{テールスピンドル\PTAILSPINDLE\PTSRC**\PMSRC**}}
 11
1.000000000000000
 21
0.0000000000000000
 31
0.0000000000000000
  7
KNJYOKO
  0
LINE
  5
5B
100
AcDbEntity
  8
MAIN0
  6
CENTER
 62
4
100
AcDbLine
 10
660.2742896582394
 20
266.0513201865472
 30
0.0000000000000000
 11
660.2742896582394
 21
256.7513201865472
 31
0.0000000000000000
  0
LINE
  5
5C
100
AcDbEntity
  8
MAIN0
  6
CENTER
 62
4
100
AcDbLine
 10
642.1242896582580
 20
247.9013201865474
 30
0.0000000000000000
 11
651.4242896582581
 21
247.9013201865474
 31
0.0000000000000000
  0
LINE
  5
5D
100
AcDbEntity
  8
MAIN0
  6
CENTER
 62
4
100
AcDbLine
 10
660.2742896582392
 20
229.7513201865474
 30
0.0000000000000000
 11
660.2742896582392
 21
239.0513201865473
 31
0.0000000000000000
  0
MTEXT
  5
5E
100
AcDbEntity
  8
MAIN0
  6
CONTINUOUS
 62
4
100
AcDbMText
 10
496.3599469219799
 20
205.1581369261847
 30
0.0000000000000000
 40
6.000000000000000
 41
0.0000000000000000
 44
0.8000000000000000
 71
     1
 72
     1
  1
{\H0.62x;{（スプリングピン）\P(SPRINGPIN)}}
 11
1.000000000000000
 21
0.0000000000000000
 31
0.0000000000000000
  7
KNJYOKO
  0
INSERT
  5
66
100
AcDbEntity
  8
MAIN0
  6
CONTINUOUS
 62
5
100
AcDbBlockReference
  2
M0
 10
0.0000000000000000
 20
0.0000000000000000
 30
0.0000000000000000
 50
0.0000000000000000
  0
MULTILEADER
  5
6A
100
AcDbEntity
  8
MAIN0
  6
CONTINUOUS
 62
4
100
AcDbMLeader
270
     2
300
CONTEXT_DATA{
 10
772.2451770157768
 20
279.0182524251282
 30
0.0000000000000000
 41
6.000000000000000
140
2.000000000000000
145
0.01000000000000000
174
     6
175
     6
290
     1
304
{\H0.63x;{ポート接続部\PCONNECT \PWITH PORTS}}
 11
0.0000000000000000
 21
0.0000000000000000
 31
1.000000000000000
340
69
 12
772.2451770157768
 22
286.0182524251282
 32
0.0000000000000000
 13
1.000000000000000
 23
0.0000000000000000
 33
0.0000000000000000
 42
0.0000000000000000
 43
0.0000000000000000
 44
0.0000000000000000
 45
1.000000000000000
170
     1
 90
-1023410171
171
     1
172
     1
 91
-1073741824
141
0.0000000000000000
 92
     0
291
     0
292
     0
173
     0
293
     0
142
0.0000000000000000
143
0.0000000000000000
294
     0
295
     0
296
     0
110
679.0201150254186
120
679.0201150254186
130
0.0000000000000000
111
1.000000000000000
121
0.0000000000000000
131
0.0000000000000000
112
6.123233995736766e-017
122
1.000000000000000
132
0.0000000000000000
302
LEADER{
290
1
 10
768.8851770157768
 20
279.0182524251282
 30
0.0000000000000000
 11
1.000000000000000
 21
0.0000000000000000
 31
0.0000000000000000
 90
0
 40
3.360000000000000
304
LEADER_LINE{
 10
679.0201150254186
 20
253.2719841402132
 30
0.0000000000000000
 91
0
305
}
271
0
303
}
301
}
340
67
170
     1
 91
-1023410172
341
68
171
    -1
290
     1
291
     1
 41
0.0000000000000000
342
13
 42
2.000000000000000
172
     2
174
     1
  0
LEADER
  5
6B
100
AcDbEntity
  8
MAIN0
  6
CONTINUOUS
 62
4
100
AcDbLeader
  3
MAIN001
 73
     0
 75
     1
 40
6.000000000000000
 41
37.79899935626986
 76
     3
 10
387.8144415867819
 20
297.0027657581870
 30
0.0000000000000000
 10
345.6778570429352
 20
335.4644733321426
 30
0.0000000000000000
 10
342.3168570429352
 20
335.4644733321426
 30
0.0000000000000000
340
6C
213
0.0000000000000000
223
-1.000000000000000
233
0.0000000000000000
1001
ACAD
1000
DSTYLE
1002
{
1070
   147
1040
0.0
1070
    77
1070
     1
1070
   341
1005
13
1070
    41
1040
2.000000
1002
}
  0
MTEXT
  5
6C
102
{ACAD_REACTORS
330
6B
102
}
100
AcDbEntity
  8
MAIN0
  6
CONTINUOUS
 62
4
100
AcDbMText
 10
304.5178576866654
 20
342.4644733321426
 30
0.0000000000000000
 40
6.000000000000000
 41
0.0000000000000000
 44
0.8000000000000000
 71
     1
 72
     1
  1
{\H0.59x;{回り止めブラケット\PBRACKET}}
 11
1.000000000000000
 21
0.0000000000000000
 31
0.0000000000000000
  7
KNJYOKO
  0
LEADER
  5
6D
100
AcDbEntity
  8
MAIN0
  6
CONTINUOUS
 62
4
100
AcDbLeader
  3
MAIN001
 73
     0
 75
     1
 40
6.000000000000000
 41
17.99899952316287
 76
     3
 10
366.5866813812083
 20
236.9071219764339
 30
0.0000000000000000
 10
348.0514211795615
 20
197.5083637970061
 30
0.0000000000000000
 10
344.6904211795616
 20
197.5083637970061
 30
0.0000000000000000
340
6E
213
0.0000000000000000
223
-1.000000000000000
233
0.0000000000000000
1001
ACAD
1000
DSTYLE
1002
{
1070
   147
1040
0.0
1070
    77
1070
     1
1070
   341
1005
B
1070
    41
1040
1.000000
1002
}
  0
MTEXT
  5
6E
102
{ACAD_REACTORS
330
6D
102
}
100
AcDbEntity
  8
MAIN0
  6
CONTINUOUS
 62
4
100
AcDbMText
 10
326.6914216563987
 20
204.5083637970061
 30
0.0000000000000000
 40
6.000000000000000
 41
0.0000000000000000
 44
0.8000000000000000
 71
     1
 72
     1
  1
{\H0.63x;{ブロック\PBLOCK}}
 11
1.000000000000000
 21
0.0000000000000000
 31
0.0000000000000000
  7
KNJYOKO
  0
LINE
  5
6F
100
AcDbEntity
  8
MAIN0
  6
CENTER
 62
4
100
AcDbLine
 10
678.4242896582200
 20
247.9013201865474
 30
0.0000000000000000
 11
669.1242896582199
 21
247.9013201865474
 31
0.0000000000000000
  0
LINE
  5
70
100
AcDbEntity
  8
MAIN0
  6
CONTINUOUS
 62
4
100
AcDbLine
 10
440.3359144799216
 20
267.4013201860811
 30
0.0000000000000000
 11
440.3359144799216
 21
228.4013201862515
 31
0.0000000000000000
  0
LINE
  5
71
100
AcDbEntity
  8
MAIN0
  6
CONTINUOUS
 62
4
100
AcDbLine
 10
441.5359145276053
 20
263.4013201860811
 30
0.0000000000000000
 11
440.3359144799216
 21
267.4013201860811
 31
0.0000000000000000
  0
LINE
  5
72
100
AcDbEntity
  8
MAIN0
  6
CONTINUOUS
 62
4
100
AcDbLine
 10
440.3359144799216
 20
267.4013201860811
 30
0.0000000000000000
 11
439.1359144322379
 21
263.4013201860811
 31
0.0000000000000000
  0
LINE
  5
73
100
AcDbEntity
  8
MAIN0
  6
CONTINUOUS
 62
4
100
AcDbLine
 10
441.5359145276053
 20
232.4013201862515
 30
0.0000000000000000
 11
440.3359144799216
 21
228.4013201862515
 31
0.0000000000000000
  0
LINE
  5
74
100
AcDbEntity
  8
MAIN0
  6
CONTINUOUS
 62
4
100
AcDbLine
 10
440.3359144799216
 20
228.4013201862515
 30
0.0000000000000000
 11
439.1359144322379
 21
232.4013201862515
 31
0.0000000000000000
  0
MTEXT
  5
75
100
AcDbEntity
  8
MAIN0
  6
CONTINUOUS
 62
4
100
AcDbMText
 10
439.8359144799216
 20
247.9013201861663
 30
0.0000000000000000
 40
6.199999809265137
 41
0.0000000000000000
 44
0.7741935722041460
 71
     8
 72
     1
  1
{\U+220539}
 11
6.123233995736766e-017
 21
1.000000000000000
 31
0.0000000000000000
  7
STANDARD
  0
LINE
  5
76
100
AcDbEntity
  8
MAIN0
  6
CENTER
 62
4
100
AcDbLine
 10
480.3359117499062
 20
253.9576526780564
 30
0.0000000000000000
 11
492.3359117499058
 21
253.9576526780568
 31
0.0000000000000000
  0
LINE
  5
77
100
AcDbEntity
  8
MAIN0
  6
CONTINUOUS
 62
4
100
AcDbLine
 10
486.3359117499686
 20
228.7013201625149
 30
0.0000000000000000
 11
486.3359117498077
 21
203.2477584305760
 31
0.0000000000000000
  0
LINE
  5
78
100
AcDbEntity
  8
MAIN0
  6
CONTINUOUS
 62
4
100
AcDbLine
 10
480.3359117498329
 20
207.2477584305760
 30
0.0000000000000000
 11
502.4638786307041
 21
207.2477584305760
 31
0.0000000000000000
  0
LINE
  5
79
100
AcDbEntity
  8
MAIN0
  6
CONTINUOUS
 62
4
100
AcDbLine
 10
482.3359117498329
 20
208.4477584782597
 30
0.0000000000000000
 11
486.3359117498329
 21
207.2477584305760
 31
0.0000000000000000
  0
LINE
  5
7A
100
AcDbEntity
  8
MAIN0
  6
CONTINUOUS
 62
4
100
AcDbLine
 10
486.3359117498329
 20
207.2477584305760
 30
0.0000000000000000
 11
482.3359117498329
 21
206.0477583828923
 31
0.0000000000000000
  0
LINE
  5
7B
100
AcDbEntity
  8
MAIN0
  6
CONTINUOUS
 62
4
100
AcDbLine
 10
495.3359117499058
 20
208.4477584782597
 30
0.0000000000000000
 11
491.3359117499058
 21
207.2477584305760
 31
0.0000000000000000
  0
LINE
  5
7C
100
AcDbEntity
  8
MAIN0
  6
CONTINUOUS
 62
4
100
AcDbLine
 10
491.3359117499058
 20
207.2477584305760
 30
0.0000000000000000
 11
495.3359117499058
 21
206.0477583828923
 31
0.0000000000000000
  0
MTEXT
  5
7D
100
AcDbEntity
  8
MAIN0
  6
CONTINUOUS
 62
4
100
AcDbMText
 10
501.4138784598499
 20
208.2477584305760
 30
0.0000000000000000
 40
6.199999809265137
 41
0.0000000000000000
 44
0.7741935722041460
 71
     8
 72
     1
  1
{\H0.67x;{5}}
 11
1.000000000000000
 21
0.0000000000000000
 31
0.0000000000000000
  7
STANDARD
  0
LINE
  5
7E
100
AcDbEntity
  8
MAIN0
  6
CONTINUOUS
 62
4
100
AcDbLine
 10
491.3359117499058
 20
251.2576526542205
 30
0.0000000000000000
 11
491.3359117499058
 21
203.2477584305760
 31
0.0000000000000000
  0
LINE
  5
7F
100
AcDbEntity
  8
MAIN0
  6
CONTINUOUS
 62
4
100
AcDbLine
 10
487.5359117736732
 20
265.9013201863548
 30
0.0000000000000000
 11
510.6282267892934
 21
265.9013201863548
 31
0.0000000000000000
  0
LINE
  5
80
100
AcDbEntity
  8
MAIN0
  6
CONTINUOUS
 62
4
100
AcDbLine
 10
506.6282267892934
 20
265.9013201863548
 30
0.0000000000000000
 11
506.6282267892934
 21
229.9013201863551
 31
0.0000000000000000
  0
LINE
  5
81
100
AcDbEntity
  8
MAIN0
  6
CONTINUOUS
 62
4
100
AcDbLine
 10
507.8282268369771
 20
261.9013201863548
 30
0.0000000000000000
 11
506.6282267892934
 21
265.9013201863548
 31
0.0000000000000000
  0
LINE
  5
82
100
AcDbEntity
  8
MAIN0
  6
CONTINUOUS
 62
4
100
AcDbLine
 10
506.6282267892934
 20
265.9013201863548
 30
0.0000000000000000
 11
505.4282267416097
 21
261.9013201863548
 31
0.0000000000000000
  0
LINE
  5
83
100
AcDbEntity
  8
MAIN0
  6
CONTINUOUS
 62
4
100
AcDbLine
 10
507.8282268369771
 20
233.9013201863551
 30
0.0000000000000000
 11
506.6282267892934
 21
229.9013201863551
 31
0.0000000000000000
  0
LINE
  5
84
100
AcDbEntity
  8
MAIN0
  6
CONTINUOUS
 62
4
100
AcDbLine
 10
506.6282267892934
 20
229.9013201863551
 30
0.0000000000000000
 11
505.4282267416097
 21
233.9013201863551
 31
0.0000000000000000
  0
MTEXT
  5
85
100
AcDbEntity
  8
MAIN0
  6
CONTINUOUS
 62
4
100
AcDbMText
 10
506.1282267892934
 20
247.9013201863550
 30
0.0000000000000000
 40
6.199999809265137
 41
0.0000000000000000
 44
0.7741935722041460
 71
     8
 72
     1
  1
{\U+220536}
 11
6.123233995736766e-017
 21
1.000000000000000
 31
0.0000000000000000
  7
STANDARD
  0
LINE
  5
86
100
AcDbEntity
  8
MAIN0
  6
CONTINUOUS
 62
4
100
AcDbLine
 10
487.5359117738223
 20
229.9013201863551
 30
0.0000000000000000
 11
510.6282267892934
 21
229.9013201863551
 31
0.0000000000000000
  0
LINE
  5
87
100
AcDbEntity
  8
MAIN0
  6
CONTINUOUS
 62
4
100
AcDbLine
 10
59.76546464813225
 20
509.4388756030487
 30
0.0000000000000000
 11
295.1252538418709
 21
509.4388756030487
 31
0.0000000000000000
  0
POINT
  5
88
100
AcDbEntity
  8
MAIN0
  6
CONTINUOUS
 62
5
100
AcDbPoint
 10
76.16353517567575
 20
510.4388756030487
 30
0.0000000000000000
  0
POINT
  5
89
100
AcDbEntity
  8
MAIN0
  6
CONTINUOUS
 62
5
100
AcDbPoint
 10
62.16353517567575
 20
510.4388756030487
 30
0.0000000000000000
  0
POINT
  5
8A
100
AcDbEntity
  8
MAIN0
  6
CONTINUOUS
 62
5
100
AcDbPoint
 10
62.16353517567575
 20
502.4388756030487
 30
0.0000000000000000
  0
POINT
  5
8B
100
AcDbEntity
  8
MAIN0
  6
CONTINUOUS
 62
5
100
AcDbPoint
 10
76.16353517567575
 20
502.4388756030487
 30
0.0000000000000000
  0
LINE
  5
8C
100
AcDbEntity
  8
MAIN0
  6
CONTINUOUS
 62
4
100
AcDbLine
 10
59.76546464813225
 20
501.4388756030487
 30
0.0000000000000000
 11
295.1252538418709
 21
501.4388756030487
 31
0.0000000000000000
  0
POINT
  5
8D
100
AcDbEntity
  8
MAIN0
  6
CONTINUOUS
 62
5
100
AcDbPoint
 10
62.16353517567575
 20
486.4388756030487
 30
0.0000000000000000
  0
POINT
  5
8E
100
AcDbEntity
  8
MAIN0
  6
CONTINUOUS
 62
5
100
AcDbPoint
 10
76.16353517567575
 20
486.4388756030487
 30
0.0000000000000000
  0
POINT
  5
8F
100
AcDbEntity
  8
MAIN0
  6
CONTINUOUS
 62
5
100
AcDbPoint
 10
62.16353517567575
 20
470.4388756030487
 30
0.0000000000000000
  0
LINE
  5
90
100
AcDbEntity
  8
MAIN0
  6
CONTINUOUS
 62
4
100
AcDbLine
 10
59.76546464813225
 20
469.4388756030487
 30
0.0000000000000000
 11
295.1252538418709
 21
469.4388756030487
 31
0.0000000000000000
  0
POINT
  5
91
100
AcDbEntity
  8
MAIN0
  6
CONTINUOUS
 62
5
100
AcDbPoint
 10
76.16353517567575
 20
470.4388756030487
 30
0.0000000000000000
  0
POINT
  5
92
100
AcDbEntity
  8
MAIN0
  6
CONTINUOUS
 62
5
100
AcDbPoint
 10
62.16353517567575
 20
518.4388756030487
 30
0.0000000000000000
  0
POINT
  5
93
100
AcDbEntity
  8
MAIN0
  6
CONTINUOUS
 62
5
100
AcDbPoint
 10
76.16353517567575
 20
518.4388756030487
 30
0.0000000000000000
  0
LINE
  5
94
100
AcDbEntity
  8
MAIN0
  6
CONTINUOUS
 62
4
100
AcDbLine
 10
59.76546464813225
 20
517.4388756030487
 30
0.0000000000000000
 11
295.1252538418709
 21
517.4388756030487
 31
0.0000000000000000
  0
POINT
  5
95
100
AcDbEntity
  8
MAIN0
  6
CONTINUOUS
 62
5
100
AcDbPoint
 10
76.16353517567575
 20
486.4388756030487
 30
0.0000000000000000
  0
POINT
  5
96
100
AcDbEntity
  8
MAIN0
  6
CONTINUOUS
 62
5
100
AcDbPoint
 10
62.16353517567575
 20
486.4388756030487
 30
0.0000000000000000
  0
POINT
  5
97
100
AcDbEntity
  8
MAIN0
  6
CONTINUOUS
 62
5
100
AcDbPoint
 10
62.16353517567575
 20
494.4388756030487
 30
0.0000000000000000
  0
LINE
  5
98
100
AcDbEntity
  8
MAIN0
  6
CONTINUOUS
 62
4
100
AcDbLine
 10
59.76546464813225
 20
493.4388756030487
 30
0.0000000000000000
 11
295.1252538418709
 21
493.4388756030487
 31
0.0000000000000000
  0
POINT
  5
99
100
AcDbEntity
  8
MAIN0
  6
CONTINUOUS
 62
5
100
AcDbPoint
 10
76.16353517567575
 20
494.4388756030487
 30
0.0000000000000000
  0
MTEXT
  5
9A
100
AcDbEntity
  8
MAIN0
  6
CONTINUOUS
 62
4
100
AcDbMText
 10
76.16353517567575
 20
532.4388756030487
 30
0.0000000000000000
 40
6.000000000000000
 41
0.0000000000000000
 44
0.8000000000000000
 71
     1
 72
     1
  1
{\H0.59x;{ロータリジョイントは，テールスピンドルに固定されていませんので、4-M5ネジを利用して治具に固定願います。\PROTARY JOINT UNIT IS NOT FIXED WITH THE TAILSPINDLE, \PHAVE TO BE ASSEMBLED WITH THE FIXTURE BY 4-M5 TAPPED HOLE.}}
 11
1.000000000000000
 21
0.0000000000000000
 31
0.0000000000000000
  7
KNJYOKO
  0
POINT
  5
9B
100
AcDbEntity
  8
MAIN0
  6
CONTINUOUS
 62
5
100
AcDbPoint
 10
62.16353517567575
 20
462.4388756030487
 30
0.0000000000000000
  0
POINT
  5
9C
100
AcDbEntity
  8
MAIN0
  6
CONTINUOUS
 62
5
100
AcDbPoint
 10
76.16353517567575
 20
462.4388756030487
 30
0.0000000000000000
  0
LINE
  5
9D
100
AcDbEntity
  8
MAIN0
  6
CONTINUOUS
 62
4
100
AcDbLine
 10
59.76546464813225
 20
461.4388756030487
 30
0.0000000000000000
 11
295.1252538418709
 21
461.4388756030487
 31
0.0000000000000000
  0
POINT
  5
9E
100
AcDbEntity
  8
MAIN0
  6
CONTINUOUS
 62
5
100
AcDbPoint
 10
62.16353517567575
 20
454.4388756030487
 30
0.0000000000000000
  0
POINT
  5
9F
100
AcDbEntity
  8
MAIN0
  6
CONTINUOUS
 62
5
100
AcDbPoint
 10
76.16353517567575
 20
454.4388756030487
 30
0.0000000000000000
  0
LINE
  5
A0
100
AcDbEntity
  8
MAIN0
  6
CONTINUOUS
 62
4
100
AcDbLine
 10
59.76546464813225
 20
453.4388756030487
 30
0.0000000000000000
 11
295.1252538418709
 21
453.4388756030487
 31
0.0000000000000000
  0
LINE
  5
A1
100
AcDbEntity
  8
MAIN0
  6
CONTINUOUS
 62
4
100
AcDbLine
 10
59.76546464813225
 20
485.4388756030487
 30
0.0000000000000000
 11
295.1252538418709
 21
485.4388756030487
 31
0.0000000000000000
  0
MTEXT
  5
A2
100
AcDbEntity
  8
MAIN0
  6
CONTINUOUS
 62
4
100
AcDbMText
 10
62.16353517567575
 20
532.6388754123138
 30
0.0000000000000000
 40
6.199999809265137
 41
0.0000000000000000
 44
0.6677419652551825
 71
     1
 72
     1
  1
{\H0.88x;{3)}}
 11
1.000000000000000
 21
0.0000000000000000
 31
0.0000000000000000
  7
STANDARD
  0
POINT
  5
A3
100
AcDbEntity
  8
MAIN0
  6
CONTINUOUS
 62
5
100
AcDbPoint
 10
76.16353517567575
 20
478.4388756030487
 30
0.0000000000000000
  0
LINE
  5
A4
100
AcDbEntity
  8
MAIN0
  6
CONTINUOUS
 62
4
100
AcDbLine
 10
59.76546464813225
 20
477.4388756030487
 30
0.0000000000000000
 11
295.1252538418709
 21
477.4388756030487
 31
0.0000000000000000
  0
POINT
  5
A5
100
AcDbEntity
  8
MAIN0
  6
CONTINUOUS
 62
5
100
AcDbPoint
 10
62.16353517567575
 20
478.4388756030487
 30
0.0000000000000000
  0
INSERT
  5
AA
100
AcDbEntity
  8
MAIN0
  6
CONTINUOUS
 62
4
100
AcDbBlockReference
  2
M1
 10
0.0000000000000000
 20
0.0000000000000000
 30
0.0000000000000000
 50
0.0000000000000000
  0
LINE
  5
AB
100
AcDbEntity
  8
MAIN0
  6
CONTINUOUS
 62
4
100
AcDbLine
 10
59.76546464813225
 20
525.4388756030487
 30
0.0000000000000000
 11
295.1252538418709
 21
525.4388756030487
 31
0.0000000000000000
  0
POINT
  5
AC
100
AcDbEntity
  8
MAIN0
  6
CONTINUOUS
 62
5
100
AcDbPoint
 10
76.16353517567575
 20
526.4388756030487
 30
0.0000000000000000
  0
POINT
  5
AD
100
AcDbEntity
  8
MAIN0
  6
CONTINUOUS
 62
5
100
AcDbPoint
 10
62.16353517567575
 20
526.4388756030487
 30
0.0000000000000000
  0
LINE
  5
AE
100
AcDbEntity
  8
MAIN0
  6
CONTINUOUS
 62
4
100
AcDbLine
 10
59.76546464813225
 20
533.4388756030487
 30
0.0000000000000000
 11
295.1252538418709
 21
533.4388756030487
 31
0.0000000000000000
  0
POINT
  5
AF
100
AcDbEntity
  8
MAIN0
  6
CONTINUOUS
 62
5
100
AcDbPoint
 10
76.16353517567575
 20
534.4388756030487
 30
0.0000000000000000
  0
POINT
  5
B0
100
AcDbEntity
  8
MAIN0
  6
CONTINUOUS
 62
5
100
AcDbPoint
 10
62.16353517567575
 20
534.4388756030487
 30
0.0000000000000000
  0
LINE
  5
B1
100
AcDbEntity
  8
MAIN0
  6
CONTINUOUS
 62
4
100
AcDbLine
 10
59.76546464813225
 20
541.4388756030487
 30
0.0000000000000000
 11
295.1252538418709
 21
541.4388756030487
 31
0.0000000000000000
  0
POINT
  5
B2
100
AcDbEntity
  8
MAIN0
  6
CONTINUOUS
 62
5
100
AcDbPoint
 10
76.16353517567575
 20
542.4388756030487
 30
0.0000000000000000
  0
POINT
  5
B3
100
AcDbEntity
  8
MAIN0
  6
CONTINUOUS
 62
5
100
AcDbPoint
 10
62.16353517567575
 20
542.4388756030487
 30
0.0000000000000000
  0
LINE
  5
B4
100
AcDbEntity
  8
MAIN0
  6
CONTINUOUS
 62
4
100
AcDbLine
 10
59.76546464813225
 20
549.4388756030487
 30
0.0000000000000000
 11
295.1252538418709
 21
549.4388756030487
 31
0.0000000000000000
  0
POINT
  5
B5
100
AcDbEntity
  8
MAIN0
  6
CONTINUOUS
 62
5
100
AcDbPoint
 10
76.16353517567575
 20
550.4388756030487
 30
0.0000000000000000
  0
POINT
  5
B6
100
AcDbEntity
  8
MAIN0
  6
CONTINUOUS
 62
5
100
AcDbPoint
 10
62.16353517567575
 20
550.4388756030487
 30
0.0000000000000000
  0
MTEXT
  5
B7
100
AcDbEntity
  8
MAIN0
  6
CONTINUOUS
 62
4
100
AcDbMText
 10
62.16353517567575
 20
508.6388754123138
 30
0.0000000000000000
 40
6.199999809265137
 41
0.0000000000000000
 44
0.6677419652551825
 71
     1
 72
     1
  1
{\H0.88x;{4)}}
 11
1.000000000000000
 21
0.0000000000000000
 31
0.0000000000000000
  7
STANDARD
  0
LINE
  5
B8
100
AcDbEntity
  8
MAIN0
  6
CENTER
 62
4
100
AcDbLine
 10
359.3359144799019
 20
267.1907640855652
 30
0.0000000000000000
 11
359.3359144799674
 21
295.0323086556409
 31
0.0000000000000000
  0
LINE
  5
B9
100
AcDbEntity
  8
MAIN0
  6
PHANTOM
 62
4
100
AcDbLine
 10
336.4881590198414
 20
530.4670642425676
 30
0.0000000000000000
 11
375.0881590197380
 21
530.4670642425980
 31
0.0000000000000000
  0
LINE
  5
BA
100
AcDbEntity
  8
MAIN0
  6
PHANTOM
 62
4
100
AcDbLine
 10
336.4881590198409
 20
517.1337309092344
 30
0.0000000000000000
 11
336.4881590198421
 21
530.4670642425676
 31
0.0000000000000000
  0
MTEXT
  5
BB
100
AcDbEntity
  8
MAIN0
  6
CONTINUOUS
 62
4
100
AcDbMText
 10
342.8764909554380
 20
522.0711919277970
 30
0.0000000000000000
 40
4.000000000000000
 41
0.0000000000000000
 44
0.6720000028610229
 71
     1
 72
     1
  1
{\H0.93x;{C A B D }}
 11
1.000000000000000
 21
0.0000000000000000
 31
0.0000000000000000
  7
STANDARD
  0
LINE
  5
BC
100
AcDbEntity
  8
MAIN0
  6
PHANTOM
 62
4
100
AcDbLine
 10
336.4881590198406
 20
517.1337309092343
 30
0.0000000000000000
 11
375.0881590197381
 21
517.1337309092645
 31
0.0000000000000000
  0
LINE
  5
BD
100
AcDbEntity
  8
MAIN0
  6
CONTINUOUS
 62
4
100
AcDbLine
 10
344.2214923531867
 20
475.1608604206743
 30
0.0000000000000000
 11
344.2214923531891
 21
517.1337309092405
 31
0.0000000000000000
  0
LINE
  5
BE
100
AcDbEntity
  8
MAIN0
  6
CONTINUOUS
 62
4
100
AcDbLine
 10
351.6881590198531
 20
475.1608604206739
 30
0.0000000000000000
 11
351.6881590198555
 21
517.1337309092460
 31
0.0000000000000000
  0
CIRCLE
  5
BF
100
AcDbEntity
  8
MAIN0
  6
CONTINUOUS
 62
4
100
AcDbCircle
 10
355.4381590198449
 20
496.1383697029982
 30
0.0000000000000000
 40
17.06666666666667
  0
LINE
  5
C0
100
AcDbEntity
  8
MAIN0
  6
CONTINUOUS
 62
4
100
AcDbLine
 10
359.1548256865200
 20
475.1608604206735
 30
0.0000000000000000
 11
359.1548256865224
 21
517.1337309092456
 31
0.0000000000000000
  0
LINE
  5
C1
100
AcDbEntity
  8
MAIN0
  6
CONTINUOUS
 62
4
100
AcDbLine
 10
366.6214923531866
 20
475.1608604206622
 30
0.0000000000000000
 11
366.6214923531890
 21
517.1337309092389
 31
0.0000000000000000
  0
LINE
  5
C2
100
AcDbEntity
  8
MAIN0
  6
PHANTOM
 62
4
100
AcDbLine
 10
375.0881590197381
 20
517.1337309092669
 30
0.0000000000000000
 11
375.0881590197381
 21
530.4670642426003
 31
0.0000000000000000
  0
LINE
  5
C3
100
AcDbEntity
  8
MAIN0
  6
CONTINUOUS
 62
4
100
AcDbLine
 10
341.4579641306462
 20
505.9274075500549
 30
0.0000000000000000
 11
340.5729504919534
 21
500.8608483322649
 31
0.0000000000000000
  0
LINE
  5
C4
100
AcDbEntity
  8
MAIN0
  6
CONTINUOUS
 62
4
100
AcDbLine
 10
369.4183539090716
 20
505.9274075500504
 30
0.0000000000000000
 11
370.3033675477637
 21
500.8608483322603
 31
0.0000000000000000
  0
LINE
  5
C5
100
AcDbEntity
  8
MAIN0
  6
CONTINUOUS
 62
4
100
AcDbLine
 10
369.4183539090720
 20
505.9274075500505
 30
0.0000000000000000
 11
373.3077786159433
 21
502.2339979915042
 31
0.0000000000000000
  0
LINE
  5
C6
100
AcDbEntity
  8
MAIN0
  6
CONTINUOUS
 62
4
100
AcDbLine
 10
341.4579641306463
 20
505.9274075500545
 30
0.0000000000000000
 11
337.5685394237735
 21
502.2339979915082
 31
0.0000000000000000
  0
LINE
  5
C7
100
AcDbEntity
  8
MAIN0
  6
PHANTOM
 62
4
100
AcDbLine
 10
336.4881590198312
 20
475.1608604206858
 30
0.0000000000000000
 11
375.0881590197319
 21
475.1608604206556
 31
0.0000000000000000
  0
MTEXT
  5
C8
100
AcDbEntity
  8
MAIN0
  6
CONTINUOUS
 62
4
100
AcDbMText
 10
343.1330661802256
 20
474.3483860792412
 30
0.0000000000000000
 40
4.000000000000000
 41
0.0000000000000000
 44
0.6720000028610229
 71
     1
 72
     1
  1
{\H0.93x;{C A B D }}
 11
1.000000000000000
 21
0.0000000000000000
 31
0.0000000000000000
  7
STANDARD
  0
LINE
  5
C9
100
AcDbEntity
  8
MAIN0
  6
PHANTOM
 62
4
100
AcDbLine
 10
336.4881590198311
 20
461.8275270873525
 30
0.0000000000000000
 11
336.4881590198323
 21
475.1608604206859
 31
0.0000000000000000
  0
LINE
  5
CA
100
AcDbEntity
  8
MAIN0
  6
PHANTOM
 62
4
100
AcDbLine
 10
375.0881590197756
 20
461.8275270873434
 30
0.0000000000000000
 11
375.0881590197774
 21
475.1608604206766
 31
0.0000000000000000
  0
LINE
  5
CB
100
AcDbEntity
  8
MAIN0
  6
PHANTOM
 62
4
100
AcDbLine
 10
336.4881590198750
 20
461.8275270873736
 30
0.0000000000000000
 11
375.0881590197756
 21
461.8275270873434
 31
0.0000000000000000
  0
MULTILEADER
  5
CC
100
AcDbEntity
  8
MAIN0
  6
CONTINUOUS
 62
4
100
AcDbMLeader
270
     2
300
CONTEXT_DATA{
 10
393.5859528693454
 20
485.8856453367033
 30
0.0000000000000000
 41
6.000000000000000
140
2.000000000000000
145
0.01000000000000000
174
     6
175
     6
290
     1
304
{\H0.63x;{ロータリジョイント\PROTARY JOINT}}
 11
0.0000000000000000
 21
0.0000000000000000
 31
1.000000000000000
340
69
 12
393.5859528693454
 22
492.8856453367033
 32
0.0000000000000000
 13
1.000000000000000
 23
0.0000000000000000
 33
0.0000000000000000
 42
0.0000000000000000
 43
0.0000000000000000
 44
0.0000000000000000
 45
1.000000000000000
170
     1
 90
-1023410171
171
     1
172
     1
 91
-1073741824
141
0.0000000000000000
 92
     0
291
     0
292
     0
173
     0
293
     0
142
0.0000000000000000
143
0.0000000000000000
294
     0
295
     0
296
     0
110
371.8334513274276
120
371.8334513274276
130
0.0000000000000000
111
1.000000000000000
121
0.0000000000000000
131
0.0000000000000000
112
6.123233995736766e-017
122
1.000000000000000
132
0.0000000000000000
302
LEADER{
290
1
 10
390.2259528693454
 20
485.8856453367033
 30
0.0000000000000000
 11
1.000000000000000
 21
0.0000000000000000
 31
0.0000000000000000
 90
0
 40
3.360000000000000
304
LEADER_LINE{
 10
371.8334513274276
 20
491.3985910942412
 30
0.0000000000000000
 91
0
305
}
271
0
303
}
301
}
340
67
170
     1
 91
-1023410172
341
68
171
    -1
290
     1
291
     1
 41
0.0000000000000000
342
13
 42
2.000000000000000
172
     2
174
     1
  0
MULTILEADER
  5
CD
100
AcDbEntity
  8
MAIN0
  6
CONTINUOUS
 62
4
100
AcDbMLeader
270
     2
300
CONTEXT_DATA{
 10
385.1192041272809
 20
454.4679066636047
 30
0.0000000000000000
 41
6.000000000000000
140
2.000000000000000
145
0.01000000000000000
174
     6
175
     6
290
     1
304
{\H0.60x;{ソレノイドバルブ(客先手配) \PSOLENOID VALVE\P(CUSTOMER \P MUST PREPARE)}}
 11
0.0000000000000000
 21
0.0000000000000000
 31
1.000000000000000
340
69
 12
385.1192041272809
 22
461.4679066636047
 32
0.0000000000000000
 13
1.000000000000000
 23
0.0000000000000000
 33
0.0000000000000000
 42
0.0000000000000000
 43
0.0000000000000000
 44
0.0000000000000000
 45
1.000000000000000
170
     1
 90
-1023410171
171
     1
172
     1
 91
-1073741824
141
0.0000000000000000
 92
     0
291
     0
292
     0
173
     0
293
     0
142
0.0000000000000000
143
0.0000000000000000
294
     0
295
     0
296
     0
110
363.9144454723863
120
363.9144454723863
130
0.0000000000000000
111
1.000000000000000
121
0.0000000000000000
131
0.0000000000000000
112
6.123233995736766e-017
122
1.000000000000000
132
0.0000000000000000
302
LEADER{
290
1
 10
381.7592041272808
 20
454.4679066636047
 30
0.0000000000000000
 11
1.000000000000000
 21
0.0000000000000000
 31
0.0000000000000000
 90
0
 40
3.360000000000000
304
LEADER_LINE{
 10
363.9144454723863
 20
461.8275270873311
 30
0.0000000000000000
 91
0
305
}
271
0
303
}
301
}
340
67
170
     1
 91
-1023410172
341
68
171
    -1
290
     1
291
     1
 41
0.0000000000000000
342
13
 42
2.000000000000000
172
     2
174
     1
  0
LINE
  5
CE
100
AcDbEntity
  8
MAIN0
  6
CONTINUOUS
 62
4
100
AcDbLine
 10
353.3359144798326
 20
269.9013202096936
 30
0.0000000000000000
 11
353.3359144798326
 21
366.8925768381544
 31
0.0000000000000000
  0
LINE
  5
CF
100
AcDbEntity
  8
MAIN0
  6
CONTINUOUS
 62
4
100
AcDbLine
 10
353.3359144798326
 20
362.8925768381544
 30
0.0000000000000000
 11
380.3359144797484
 21
362.8925768381544
 31
0.0000000000000000
  0
LINE
  5
D0
100
AcDbEntity
  8
MAIN0
  6
CONTINUOUS
 62
4
100
AcDbLine
 10
357.3359144798326
 20
364.0925768858381
 30
0.0000000000000000
 11
353.3359144798326
 21
362.8925768381544
 31
0.0000000000000000
  0
LINE
  5
D1
100
AcDbEntity
  8
MAIN0
  6
CONTINUOUS
 62
4
100
AcDbLine
 10
353.3359144798326
 20
362.8925768381544
 30
0.0000000000000000
 11
357.3359144798326
 21
361.6925767904706
 31
0.0000000000000000
  0
LINE
  5
D2
100
AcDbEntity
  8
MAIN0
  6
CONTINUOUS
 62
4
100
AcDbLine
 10
376.3359144797484
 20
364.0925768858381
 30
0.0000000000000000
 11
380.3359144797484
 21
362.8925768381544
 31
0.0000000000000000
  0
LINE
  5
D3
100
AcDbEntity
  8
MAIN0
  6
CONTINUOUS
 62
4
100
AcDbLine
 10
380.3359144797484
 20
362.8925768381544
 30
0.0000000000000000
 11
376.3359144797484
 21
361.6925767904706
 31
0.0000000000000000
  0
MTEXT
  5
D4
100
AcDbEntity
  8
MAIN0
  6
CONTINUOUS
 62
4
100
AcDbMText
 10
366.8359144797905
 20
363.3925768381544
 30
0.0000000000000000
 40
6.199999809265137
 41
0.0000000000000000
 44
0.7741935722041460
 71
     8
 72
     1
  1
{\H0.69x;{27}}
 11
1.000000000000000
 21
0.0000000000000000
 31
0.0000000000000000
  7
STANDARD
  0
LINE
  5
D5
100
AcDbEntity
  8
MAIN0
  6
CONTINUOUS
 62
4
100
AcDbLine
 10
380.3359144797484
 20
269.9013202098056
 30
0.0000000000000000
 11
380.3359144797484
 21
366.8925768381544
 31
0.0000000000000000
  0
LINE
  5
D6
100
AcDbEntity
  8
MAIN0
  6
CONTINUOUS
 62
4
100
AcDbLine
 10
380.3359144797484
 20
362.8925768381544
 30
0.0000000000000000
 11
412.3359100829586
 21
362.8925768381544
 31
0.0000000000000000
  0
LINE
  5
D7
100
AcDbEntity
  8
MAIN0
  6
CONTINUOUS
 62
4
100
AcDbLine
 10
384.3359144797484
 20
364.0925768858381
 30
0.0000000000000000
 11
380.3359144797484
 21
362.8925768381544
 31
0.0000000000000000
  0
LINE
  5
D8
100
AcDbEntity
  8
MAIN0
  6
CONTINUOUS
 62
4
100
AcDbLine
 10
380.3359144797484
 20
362.8925768381544
 30
0.0000000000000000
 11
384.3359144797484
 21
361.6925767904706
 31
0.0000000000000000
  0
LINE
  5
D9
100
AcDbEntity
  8
MAIN0
  6
CONTINUOUS
 62
4
100
AcDbLine
 10
408.3359100829586
 20
364.0925768858381
 30
0.0000000000000000
 11
412.3359100829586
 21
362.8925768381544
 31
0.0000000000000000
  0
LINE
  5
DA
100
AcDbEntity
  8
MAIN0
  6
CONTINUOUS
 62
4
100
AcDbLine
 10
412.3359100829586
 20
362.8925768381544
 30
0.0000000000000000
 11
408.3359100829586
 21
361.6925767904706
 31
0.0000000000000000
  0
MTEXT
  5
DB
100
AcDbEntity
  8
MAIN0
  6
CONTINUOUS
 62
4
100
AcDbMText
 10
396.3359122813535
 20
363.3925768381544
 30
0.0000000000000000
 40
6.199999809265137
 41
0.0000000000000000
 44
0.7741935722041460
 71
     8
 72
     1
  1
{\H0.69x;{32}}
 11
1.000000000000000
 21
0.0000000000000000
 31
0.0000000000000000
  7
STANDARD
  0
LINE
  5
DC
100
AcDbEntity
  8
MAIN0
  6
CONTINUOUS
 62
4
100
AcDbLine
 10
412.3359100829742
 20
352.6013202074578
 30
0.0000000000000000
 11
412.3359100829525
 21
366.8925768381543
 31
0.0000000000000000
  0
LINE
  5
DD
100
AcDbEntity
  8
MAIN0
  6
CONTINUOUS
 62
4
100
AcDbLine
 10
412.3359100829586
 20
362.8925768381544
 30
0.0000000000000000
 11
486.3359117498329
 21
362.8925768381544
 31
0.0000000000000000
  0
LINE
  5
DE
100
AcDbEntity
  8
MAIN0
  6
CONTINUOUS
 62
4
100
AcDbLine
 10
416.3359100829586
 20
364.0925768858381
 30
0.0000000000000000
 11
412.3359100829586
 21
362.8925768381544
 31
0.0000000000000000
  0
LINE
  5
DF
100
AcDbEntity
  8
MAIN0
  6
CONTINUOUS
 62
4
100
AcDbLine
 10
412.3359100829586
 20
362.8925768381544
 30
0.0000000000000000
 11
416.3359100829586
 21
361.6925767904706
 31
0.0000000000000000
  0
LINE
  5
E0
100
AcDbEntity
  8
MAIN0
  6
CONTINUOUS
 62
4
100
AcDbLine
 10
482.3359117498329
 20
364.0925768858381
 30
0.0000000000000000
 11
486.3359117498329
 21
362.8925768381544
 31
0.0000000000000000
  0
LINE
  5
E1
100
AcDbEntity
  8
MAIN0
  6
CONTINUOUS
 62
4
100
AcDbLine
 10
486.3359117498329
 20
362.8925768381544
 30
0.0000000000000000
 11
482.3359117498329
 21
361.6925767904706
 31
0.0000000000000000
  0
MTEXT
  5
E2
100
AcDbEntity
  8
MAIN0
  6
CONTINUOUS
 62
4
100
AcDbMText
 10
449.3359109163957
 20
363.3925768381544
 30
0.0000000000000000
 40
6.199999809265137
 41
0.0000000000000000
 44
0.7741935722041460
 71
     8
 72
     1
  1
{\H0.69x;{74}}
 11
1.000000000000000
 21
0.0000000000000000
 31
0.0000000000000000
  7
STANDARD
  0
LINE
  5
E3
100
AcDbEntity
  8
MAIN0
  6
CONTINUOUS
 62
4
100
AcDbLine
 10
486.3359117498329
 20
267.1013202101984
 30
0.0000000000000000
 11
486.3359117498329
 21
366.8925768381544
 31
0.0000000000000000
  0
LINE
  5
E4
100
AcDbEntity
  8
MAIN0
  6
CONTINUOUS
 62
4
100
AcDbLine
 10
480.3359117498329
 20
362.8925768381544
 30
0.0000000000000000
 11
501.4266357413000
 21
362.8925768381544
 31
0.0000000000000000
  0
LINE
  5
E5
100
AcDbEntity
  8
MAIN0
  6
CONTINUOUS
 62
4
100
AcDbLine
 10
482.3359117498329
 20
364.0925768858381
 30
0.0000000000000000
 11
486.3359117498329
 21
362.8925768381544
 31
0.0000000000000000
  0
LINE
  5
E6
100
AcDbEntity
  8
MAIN0
  6
CONTINUOUS
 62
4
100
AcDbLine
 10
486.3359117498329
 20
362.8925768381544
 30
0.0000000000000000
 11
482.3359117498329
 21
361.6925767904706
 31
0.0000000000000000
  0
LINE
  5
E7
100
AcDbEntity
  8
MAIN0
  6
CONTINUOUS
 62
4
100
AcDbLine
 10
495.3359117499059
 20
364.0925768858381
 30
0.0000000000000000
 11
491.3359117499059
 21
362.8925768381544
 31
0.0000000000000000
  0
LINE
  5
E8
100
AcDbEntity
  8
MAIN0
  6
CONTINUOUS
 62
4
100
AcDbLine
 10
491.3359117499059
 20
362.8925768381544
 30
0.0000000000000000
 11
495.3359117499059
 21
361.6925767904706
 31
0.0000000000000000
  0
MTEXT
  5
E9
100
AcDbEntity
  8
MAIN0
  6
CONTINUOUS
 62
4
100
AcDbMText
 10
500.3766353073115
 20
363.8925768381544
 30
0.0000000000000000
 40
6.199999809265137
 41
0.0000000000000000
 44
0.7741935722041460
 71
     8
 72
     1
  1
{\H0.67x;{5}}
 11
1.000000000000000
 21
0.0000000000000000
 31
0.0000000000000000
  7
STANDARD
  0
LINE
  5
EA
100
AcDbEntity
  8
MAIN0
  6
CONTINUOUS
 62
4
100
AcDbLine
 10
491.3359117499059
 20
306.0775597790135
 30
0.0000000000000000
 11
491.3359117499059
 21
366.8925768381544
 31
0.0000000000000000
  0
LINE
  5
EB
100
AcDbEntity
  8
MAIN0
  6
CONTINUOUS
 62
4
100
AcDbLine
 10
351.3359144802840
 20
285.3255567374030
 30
0.0000000000000000
 11
351.3359144802696
 21
393.0647485617325
 31
0.0000000000000000
  0
LINE
  5
EC
100
AcDbEntity
  8
MAIN0
  6
CONTINUOUS
 62
4
100
AcDbLine
 10
351.3359144802702
 20
389.0647485617325
 30
0.0000000000000000
 11
491.3359117499059
 21
389.0647485617325
 31
0.0000000000000000
  0
LINE
  5
ED
100
AcDbEntity
  8
MAIN0
  6
CONTINUOUS
 62
4
100
AcDbLine
 10
355.3359144802702
 20
390.2647486094162
 30
0.0000000000000000
 11
351.3359144802702
 21
389.0647485617325
 31
0.0000000000000000
  0
LINE
  5
EE
100
AcDbEntity
  8
MAIN0
  6
CONTINUOUS
 62
4
100
AcDbLine
 10
351.3359144802702
 20
389.0647485617325
 30
0.0000000000000000
 11
355.3359144802702
 21
387.8647485140488
 31
0.0000000000000000
  0
LINE
  5
EF
100
AcDbEntity
  8
MAIN0
  6
CONTINUOUS
 62
4
100
AcDbLine
 10
487.3359117499059
 20
390.2647486094162
 30
0.0000000000000000
 11
491.3359117499059
 21
389.0647485617325
 31
0.0000000000000000
  0
LINE
  5
F0
100
AcDbEntity
  8
MAIN0
  6
CONTINUOUS
 62
4
100
AcDbLine
 10
491.3359117499059
 20
389.0647485617325
 30
0.0000000000000000
 11
487.3359117499059
 21
387.8647485140488
 31
0.0000000000000000
  0
MTEXT
  5
F1
100
AcDbEntity
  8
MAIN0
  6
CONTINUOUS
 62
4
100
AcDbMText
 10
421.3359131150880
 20
389.5647485617325
 30
0.0000000000000000
 40
6.199999809265137
 41
0.0000000000000000
 44
0.7741935722041460
 71
     8
 72
     1
  1
{\H0.70x;{140}}
 11
1.000000000000000
 21
0.0000000000000000
 31
0.0000000000000000
  7
STANDARD
  0
LINE
  5
F2
100
AcDbEntity
  8
MAIN0
  6
CONTINUOUS
 62
4
100
AcDbLine
 10
491.3359117499059
 20
306.0775597790135
 30
0.0000000000000000
 11
491.3359117499059
 21
393.0647485617325
 31
0.0000000000000000
  0
LINE
  5
F3
100
AcDbEntity
  8
MAIN0
  6
CONTINUOUS
 62
4
100
AcDbLine
 10
491.3359117499059
 20
306.0775597790135
 30
0.0000000000000000
 11
491.3359117499059
 21
382.4917416014939
 31
0.0000000000000000
  0
LINE
  5
F4
100
AcDbEntity
  8
MAIN0
  6
CONTINUOUS
 62
4
100
AcDbLine
 10
491.3359117499059
 20
378.4917416014939
 30
0.0000000000000000
 11
412.3359100829767
 21
378.4917416014939
 31
0.0000000000000000
  0
LINE
  5
F5
100
AcDbEntity
  8
MAIN0
  6
CONTINUOUS
 62
4
100
AcDbLine
 10
487.3359117499059
 20
377.2917415538102
 30
0.0000000000000000
 11
491.3359117499059
 21
378.4917416014939
 31
0.0000000000000000
  0
LINE
  5
F6
100
AcDbEntity
  8
MAIN0
  6
CONTINUOUS
 62
4
100
AcDbLine
 10
491.3359117499059
 20
378.4917416014939
 30
0.0000000000000000
 11
487.3359117499059
 21
379.6917416491776
 31
0.0000000000000000
  0
LINE
  5
F7
100
AcDbEntity
  8
MAIN0
  6
CONTINUOUS
 62
4
100
AcDbLine
 10
416.3359100829767
 20
377.2917415538102
 30
0.0000000000000000
 11
412.3359100829767
 21
378.4917416014939
 31
0.0000000000000000
  0
LINE
  5
F8
100
AcDbEntity
  8
MAIN0
  6
CONTINUOUS
 62
4
100
AcDbLine
 10
412.3359100829767
 20
378.4917416014939
 30
0.0000000000000000
 11
416.3359100829767
 21
379.6917416491776
 31
0.0000000000000000
  0
MTEXT
  5
F9
100
AcDbEntity
  8
MAIN0
  6
CONTINUOUS
 62
4
100
AcDbMText
 10
451.8359109164413
 20
378.9917416014939
 30
0.0000000000000000
 40
6.199999809265137
 41
0.0000000000000000
 44
0.7741935722041460
 71
     8
 72
     1
  1
{\H0.69x;{79}}
 11
1.000000000000000
 21
0.0000000000000000
 31
0.0000000000000000
  7
STANDARD
  0
LINE
  5
FA
100
AcDbEntity
  8
MAIN0
  6
CONTINUOUS
 62
4
100
AcDbLine
 10
412.3359100829767
 20
352.6013202074579
 30
0.0000000000000000
 11
412.3359100829767
 21
382.4917416014939
 31
0.0000000000000000
  0
LINE
  5
FB
100
AcDbEntity
  8
MAIN0
  6
CONTINUOUS
 62
4
100
AcDbLine
 10
412.3359100829767
 20
378.4917416014939
 30
0.0000000000000000
 11
351.3359144802702
 21
378.4917416014939
 31
0.0000000000000000
  0
LINE
  5
FC
100
AcDbEntity
  8
MAIN0
  6
CONTINUOUS
 62
4
100
AcDbLine
 10
408.3359100829767
 20
377.2917415538102
 30
0.0000000000000000
 11
412.3359100829767
 21
378.4917416014939
 31
0.0000000000000000
  0
LINE
  5
FD
100
AcDbEntity
  8
MAIN0
  6
CONTINUOUS
 62
4
100
AcDbLine
 10
412.3359100829767
 20
378.4917416014939
 30
0.0000000000000000
 11
408.3359100829767
 21
379.6917416491776
 31
0.0000000000000000
  0
LINE
  5
FE
100
AcDbEntity
  8
MAIN0
  6
CONTINUOUS
 62
4
100
AcDbLine
 10
355.3359144802702
 20
377.2917415538102
 30
0.0000000000000000
 11
351.3359144802702
 21
378.4917416014939
 31
0.0000000000000000
  0
LINE
  5
FF
100
AcDbEntity
  8
MAIN0
  6
CONTINUOUS
 62
4
100
AcDbLine
 10
351.3359144802702
 20
378.4917416014939
 30
0.0000000000000000
 11
355.3359144802702
 21
379.6917416491776
 31
0.0000000000000000
  0
MTEXT
  5
100
100
AcDbEntity
  8
MAIN0
  6
CONTINUOUS
 62
4
100
AcDbMText
 10
381.8359122816235
 20
378.9917416014939
 30
0.0000000000000000
 40
6.199999809265137
 41
0.0000000000000000
 44
0.7741935722041460
 71
     8
 72
     1
  1
{\H0.69x;{61}}
 11
1.000000000000000
 21
0.0000000000000000
 31
0.0000000000000000
  7
STANDARD
  0
LINE
  5
101
100
AcDbEntity
  8
MAIN0
  6
CONTINUOUS
 62
4
100
AcDbLine
 10
351.3359144802840
 20
285.3255567374030
 30
0.0000000000000000
 11
351.3359144802696
 21
382.4917416014939
 31
0.0000000000000000
  0
LINE
  5
102
100
AcDbEntity
  8
MAIN0
  6
CONTINUOUS
 62
3
100
AcDbLine
 10
381.6194242930886
 20
282.6190744214441
 30
0.0000000000000000
 11
410.1133322960037
 21
316.5767916507556
 31
0.0000000000000000
  0
LINE
  5
103
100
AcDbEntity
  8
MAIN0
  6
CONTINUOUS
 62
3
100
AcDbLine
 10
378.1722242990620
 20
285.5116186650442
 30
0.0000000000000000
 11
406.6661323019771
 21
319.4693358943558
 31
0.0000000000000000
  0
ARC
  5
104
100
AcDbEntity
  8
MAIN0
  6
CONTINUOUS
 62
3
100
AcDbCircle
 10
402.8359100863921
 20
322.6832739428002
 30
0.0000000000000000
 40
5.000000000000000
100
AcDbArc
 50
319.9999999998247
 51
359.9999999998204
  0
ARC
  5
105
100
AcDbEntity
  8
MAIN0
  6
CONTINUOUS
 62
3
100
AcDbCircle
 10
402.8359100863921
 20
322.6832739428002
 30
0.0000000000000000
 40
9.500000000000000
100
AcDbArc
 50
319.9999999998247
 51
359.9999999998204
  0
POINT
  5
106
100
AcDbEntity
  8
MAIN0
  6
CONTINUOUS
 62
5
100
AcDbPoint
 10
351.3359144802700
 20
279.2255567135612
 30
0.0000000000000000
  0
ARC
  5
107
100
AcDbEntity
  8
MAIN0
  6
CONTINUOUS
 62
3
100
AcDbCircle
 10
374.3420020834769
 20
288.7255567134886
 30
0.0000000000000000
 40
5.000000000000000
100
AcDbArc
 50
269.9999999998204
 51
319.9999999998254
  0
ARC
  5
108
100
AcDbEntity
  8
MAIN0
  6
CONTINUOUS
 62
3
100
AcDbCircle
 10
374.3420020834769
 20
288.7255567134886
 30
0.0000000000000000
 40
9.500000000000000
100
AcDbArc
 50
269.9999999998204
 51
319.9999999998254
  0
POINT
  5
109
100
AcDbEntity
  8
MAIN0
  6
CONTINUOUS
 62
5
100
AcDbPoint
 10
412.3359100861673
 20
319.2255567169867
 30
0.0000000000000000
  0
POINT
  5
10A
100
AcDbEntity
  8
MAIN0
  6
CONTINUOUS
 62
5
100
AcDbPoint
 10
407.8359100865914
 20
320.8634227716979
 30
0.0000000000000000
  0
LINE
  5
10B
100
AcDbEntity
  8
MAIN0
  6
CONTINUOUS
 62
3
100
AcDbLine
 10
162.4944058094534
 20
69.58334021539062
 30
0.0000000000000000
 11
162.4944058094538
 21
37.58334021539540
 31
0.0000000000000000
  0
LINE
  5
10C
100
AcDbEntity
  8
MAIN0
  6
CONTINUOUS
 62
3
100
AcDbLine
 10
201.4944058094533
 20
69.58334021539059
 30
0.0000000000000000
 11
201.4944058094537
 21
37.58334021538576
 31
0.0000000000000000
  0
MULTILEADER
  5
10D
100
AcDbEntity
  8
MAIN0
  6
CONTINUOUS
 62
4
100
AcDbMLeader
270
     2
300
CONTEXT_DATA{
 10
248.8571399613871
 20
110.8391970026221
 30
0.0000000000000000
 41
6.000000000000000
140
2.000000000000000
145
0.01000000000000000
174
     6
175
     6
290
     1
304
{\H0.63x;{4-Rc1/4\P}
 11
0.0000000000000000
 21
0.0000000000000000
 31
1.000000000000000
340
69
 12
248.8571399613871
 22
117.8391970026221
 32
0.0000000000000000
 13
1.000000000000000
 23
0.0000000000000000
 33
0.0000000000000000
 42
0.0000000000000000
 43
0.0000000000000000
 44
0.0000000000000000
 45
1.000000000000000
170
     1
 90
-1023410171
171
     1
172
     1
 91
-1073741824
141
0.0000000000000000
 92
     0
291
     0
292
     0
173
     0
293
     0
142
0.0000000000000000
143
0.0000000000000000
294
     0
295
     0
296
     0
110
225.5876750491176
120
225.5876750491176
130
0.0000000000000000
111
1.000000000000000
121
0.0000000000000000
131
0.0000000000000000
112
6.123233995736766e-017
122
1.000000000000000
132
0.0000000000000000
302
LEADER{
290
1
 10
245.4971399613871
 20
110.8391970026221
 30
0.0000000000000000
 11
1.000000000000000
 21
0.0000000000000000
 31
0.0000000000000000
 90
0
 40
3.360000000000000
304
LEADER_LINE{
 10
225.5876750491176
 20
89.29274993880352
 30
0.0000000000000000
 91
0
305
}
271
0
303
}
301
}
340
67
170
     1
 91
-1023410172
341
68
171
    -1
290
     1
291
     1
 41
0.0000000000000000
342
13
 42
2.000000000000000
172
     2
174
     1
  0
LINE
  5
10E
100
AcDbEntity
  8
MAIN0
  6
CONTINUOUS
 62
4
100
AcDbLine
 10
231.9944058094224
 20
97.58334023935765
 30
0.0000000000000000
 11
231.9944058094224
 21
128.8587136536648
 31
0.0000000000000000
  0
LINE
  5
10F
100
AcDbEntity
  8
MAIN0
  6
CONTINUOUS
 62
4
100
AcDbLine
 10
231.9944058094224
 20
124.8587136536648
 30
0.0000000000000000
 11
131.9944058094221
 21
124.8587136536648
 31
0.0000000000000000
  0
LINE
  5
110
100
AcDbEntity
  8
MAIN0
  6
CONTINUOUS
 62
4
100
AcDbLine
 10
227.9944058094224
 20
123.6587136059811
 30
0.0000000000000000
 11
231.9944058094224
 21
124.8587136536648
 31
0.0000000000000000
  0
LINE
  5
111
100
AcDbEntity
  8
MAIN0
  6
CONTINUOUS
 62
4
100
AcDbLine
 10
231.9944058094224
 20
124.8587136536648
 30
0.0000000000000000
 11
227.9944058094224
 21
126.0587137013486
 31
0.0000000000000000
  0
LINE
  5
112
100
AcDbEntity
  8
MAIN0
  6
CONTINUOUS
 62
4
100
AcDbLine
 10
135.9944058094221
 20
123.6587136059811
 30
0.0000000000000000
 11
131.9944058094221
 21
124.8587136536648
 31
0.0000000000000000
  0
LINE
  5
113
100
AcDbEntity
  8
MAIN0
  6
CONTINUOUS
 62
4
100
AcDbLine
 10
131.9944058094221
 20
124.8587136536648
 30
0.0000000000000000
 11
135.9944058094221
 21
126.0587137013486
 31
0.0000000000000000
  0
MTEXT
  5
114
100
AcDbEntity
  8
MAIN0
  6
CONTINUOUS
 62
4
100
AcDbMText
 10
181.9944058094222
 20
125.3587136536648
 30
0.0000000000000000
 40
6.199999809265137
 41
0.0000000000000000
 44
0.7741935722041460
 71
     8
 72
     1
  1
{\H0.70x;{100}}
 11
1.000000000000000
 21
0.0000000000000000
 31
0.0000000000000000
  7
STANDARD
  0
LINE
  5
115
100
AcDbEntity
  8
MAIN0
  6
CONTINUOUS
 62
4
100
AcDbLine
 10
131.9944058094221
 20
97.58334023935765
 30
0.0000000000000000
 11
131.9944058094221
 21
128.8587136536648
 31
0.0000000000000000
  0
LINE
  5
116
100
AcDbEntity
  8
MAIN0
  6
CONTINUOUS
 62
4
100
AcDbLine
 10
232.9944058332633
 20
96.58334021551571
 30
0.0000000000000000
 11
255.5625640847069
 21
96.58334021551571
 31
0.0000000000000000
  0
LINE
  5
117
100
AcDbEntity
  8
MAIN0
  6
CONTINUOUS
 62
4
100
AcDbLine
 10
251.5625640847069
 20
102.5833402155157
 30
0.0000000000000000
 11
251.5625640847069
 21
78.58334021551571
 31
0.0000000000000000
  0
LINE
  5
118
100
AcDbEntity
  8
MAIN0
  6
CONTINUOUS
 62
4
100
AcDbLine
 10
252.7625641323907
 20
100.5833402155157
 30
0.0000000000000000
 11
251.5625640847069
 21
96.58334021551571
 31
0.0000000000000000
  0
LINE
  5
119
100
AcDbEntity
  8
MAIN0
  6
CONTINUOUS
 62
4
100
AcDbLine
 10
251.5625640847069
 20
96.58334021551571
 30
0.0000000000000000
 11
250.3625640370232
 21
100.5833402155157
 31
0.0000000000000000
  0
LINE
  5
11A
100
AcDbEntity
  8
MAIN0
  6
CONTINUOUS
 62
4
100
AcDbLine
 10
252.7625641323907
 20
80.58334021551571
 30
0.0000000000000000
 11
251.5625640847069
 21
84.58334021551571
 31
0.0000000000000000
  0
LINE
  5
11B
100
AcDbEntity
  8
MAIN0
  6
CONTINUOUS
 62
4
100
AcDbLine
 10
251.5625640847069
 20
84.58334021551571
 30
0.0000000000000000
 11
250.3625640370232
 21
80.58334021551571
 31
0.0000000000000000
  0
MTEXT
  5
11C
100
AcDbEntity
  8
MAIN0
  6
CONTINUOUS
 62
4
100
AcDbMText
 10
251.0625640847069
 20
90.58334021551571
 30
0.0000000000000000
 40
6.199999809265137
 41
0.0000000000000000
 44
0.7741935722041460
 71
     8
 72
     1
  1
{\H0.69x;{12}}
 11
6.123233995736766e-017
 21
1.000000000000000
 31
0.0000000000000000
  7
STANDARD
  0
LINE
  5
11D
100
AcDbEntity
  8
MAIN0
  6
CONTINUOUS
 62
4
100
AcDbLine
 10
232.3169058332783
 20
84.58334021551571
 30
0.0000000000000000
 11
255.5625640847069
 21
84.58334021551571
 31
0.0000000000000000
  0
LINE
  5
11E
100
AcDbEntity
  8
MAIN0
  6
CONTINUOUS
 62
4
100
AcDbLine
 10
231.9944058094256
 20
97.58334023935754
 30
0.0000000000000000
 11
231.9944058094627
 21
116.0002026887180
 31
0.0000000000000000
  0
LINE
  5
11F
100
AcDbEntity
  8
MAIN0
  6
CONTINUOUS
 62
4
100
AcDbLine
 10
237.9944058094547
 20
112.0002026887180
 30
0.0000000000000000
 11
214.9944058094364
 21
112.0002026887180
 31
0.0000000000000000
  0
LINE
  5
120
100
AcDbEntity
  8
MAIN0
  6
CONTINUOUS
 62
4
100
AcDbLine
 10
235.9944058094547
 20
110.8002026410343
 30
0.0000000000000000
 11
231.9944058094547
 21
112.0002026887180
 31
0.0000000000000000
  0
LINE
  5
121
100
AcDbEntity
  8
MAIN0
  6
CONTINUOUS
 62
4
100
AcDbLine
 10
231.9944058094547
 20
112.0002026887180
 30
0.0000000000000000
 11
235.9944058094547
 21
113.2002027364017
 31
0.0000000000000000
  0
LINE
  5
122
100
AcDbEntity
  8
MAIN0
  6
CONTINUOUS
 62
4
100
AcDbLine
 10
216.9944058094364
 20
110.8002026410343
 30
0.0000000000000000
 11
220.9944058094364
 21
112.0002026887180
 31
0.0000000000000000
  0
LINE
  5
123
100
AcDbEntity
  8
MAIN0
  6
CONTINUOUS
 62
4
100
AcDbLine
 10
220.9944058094364
 20
112.0002026887180
 30
0.0000000000000000
 11
216.9944058094364
 21
113.2002027364017
 31
0.0000000000000000
  0
MTEXT
  5
124
100
AcDbEntity
  8
MAIN0
  6
CONTINUOUS
 62
4
100
AcDbMText
 10
226.4944058094455
 20
112.5002026887180
 30
0.0000000000000000
 40
6.199999809265137
 41
0.0000000000000000
 44
0.7741935722041460
 71
     8
 72
     1
  1
{\H0.69x;{11}}
 11
1.000000000000000
 21
0.0000000000000000
 31
0.0000000000000000
  7
STANDARD
  0
LINE
  5
125
100
AcDbEntity
  8
MAIN0
  6
CONTINUOUS
 62
4
100
AcDbLine
 10
220.9944058094364
 20
95.90584023935764
 30
0.0000000000000000
 11
220.9944058094364
 21
116.0002026887180
 31
0.0000000000000000
  0
LINE
  5
126
100
AcDbEntity
  8
MAIN0
  6
CONTINUOUS
 62
4
100
AcDbLine
 10
220.9944058094364
 20
112.0002026887180
 30
0.0000000000000000
 11
194.9944058094363
 21
112.0002026887180
 31
0.0000000000000000
  0
LINE
  5
127
100
AcDbEntity
  8
MAIN0
  6
CONTINUOUS
 62
4
100
AcDbLine
 10
216.9944058094364
 20
110.8002026410343
 30
0.0000000000000000
 11
220.9944058094364
 21
112.0002026887180
 31
0.0000000000000000
  0
LINE
  5
128
100
AcDbEntity
  8
MAIN0
  6
CONTINUOUS
 62
4
100
AcDbLine
 10
220.9944058094364
 20
112.0002026887180
 30
0.0000000000000000
 11
216.9944058094364
 21
113.2002027364017
 31
0.0000000000000000
  0
LINE
  5
129
100
AcDbEntity
  8
MAIN0
  6
CONTINUOUS
 62
4
100
AcDbLine
 10
198.9944058094363
 20
110.8002026410343
 30
0.0000000000000000
 11
194.9944058094363
 21
112.0002026887180
 31
0.0000000000000000
  0
LINE
  5
12A
100
AcDbEntity
  8
MAIN0
  6
CONTINUOUS
 62
4
100
AcDbLine
 10
194.9944058094363
 20
112.0002026887180
 30
0.0000000000000000
 11
198.9944058094363
 21
113.2002027364017
 31
0.0000000000000000
  0
MTEXT
  5
12B
100
AcDbEntity
  8
MAIN0
  6
CONTINUOUS
 62
4
100
AcDbMText
 10
207.9944058094363
 20
112.5002026887180
 30
0.0000000000000000
 40
6.199999809265137
 41
0.0000000000000000
 44
0.7741935722041460
 71
     8
 72
     1
  1
{\H0.69x;{26}}
 11
1.000000000000000
 21
0.0000000000000000
 31
0.0000000000000000
  7
STANDARD
  0
LINE
  5
12C
100
AcDbEntity
  8
MAIN0
  6
CONTINUOUS
 62
4
100
AcDbLine
 10
194.9944058094363
 20
95.90584023935764
 30
0.0000000000000000
 11
194.9944058094363
 21
116.0002026887180
 31
0.0000000000000000
  0
LINE
  5
12D
100
AcDbEntity
  8
MAIN0
  6
CONTINUOUS
 62
4
100
AcDbLine
 10
194.9944058094363
 20
112.0002026887180
 30
0.0000000000000000
 11
168.9944058094363
 21
112.0002026887180
 31
0.0000000000000000
  0
LINE
  5
12E
100
AcDbEntity
  8
MAIN0
  6
CONTINUOUS
 62
4
100
AcDbLine
 10
190.9944058094363
 20
110.8002026410343
 30
0.0000000000000000
 11
194.9944058094363
 21
112.0002026887180
 31
0.0000000000000000
  0
LINE
  5
12F
100
AcDbEntity
  8
MAIN0
  6
CONTINUOUS
 62
4
100
AcDbLine
 10
194.9944058094363
 20
112.0002026887180
 30
0.0000000000000000
 11
190.9944058094363
 21
113.2002027364017
 31
0.0000000000000000
  0
LINE
  5
130
100
AcDbEntity
  8
MAIN0
  6
CONTINUOUS
 62
4
100
AcDbLine
 10
172.9944058094363
 20
110.8002026410343
 30
0.0000000000000000
 11
168.9944058094363
 21
112.0002026887180
 31
0.0000000000000000
  0
LINE
  5
131
100
AcDbEntity
  8
MAIN0
  6
CONTINUOUS
 62
4
100
AcDbLine
 10
168.9944058094363
 20
112.0002026887180
 30
0.0000000000000000
 11
172.9944058094363
 21
113.2002027364017
 31
0.0000000000000000
  0
MTEXT
  5
132
100
AcDbEntity
  8
MAIN0
  6
CONTINUOUS
 62
4
100
AcDbMText
 10
181.9944058094363
 20
112.5002026887180
 30
0.0000000000000000
 40
6.199999809265137
 41
0.0000000000000000
 44
0.7741935722041460
 71
     8
 72
     1
  1
{\H0.69x;{26}}
 11
1.000000000000000
 21
0.0000000000000000
 31
0.0000000000000000
  7
STANDARD
  0
LINE
  5
133
100
AcDbEntity
  8
MAIN0
  6
CONTINUOUS
 62
4
100
AcDbLine
 10
168.9944058094363
 20
95.90584023935764
 30
0.0000000000000000
 11
168.9944058094363
 21
116.0002026887180
 31
0.0000000000000000
  0
LINE
  5
134
100
AcDbEntity
  8
MAIN0
  6
CONTINUOUS
 62
4
100
AcDbLine
 10
168.9944058094363
 20
112.0002026887180
 30
0.0000000000000000
 11
142.9944058094364
 21
112.0002026887180
 31
0.0000000000000000
  0
LINE
  5
135
100
AcDbEntity
  8
MAIN0
  6
CONTINUOUS
 62
4
100
AcDbLine
 10
164.9944058094363
 20
110.8002026410343
 30
0.0000000000000000
 11
168.9944058094363
 21
112.0002026887180
 31
0.0000000000000000
  0
LINE
  5
136
100
AcDbEntity
  8
MAIN0
  6
CONTINUOUS
 62
4
100
AcDbLine
 10
168.9944058094363
 20
112.0002026887180
 30
0.0000000000000000
 11
164.9944058094363
 21
113.2002027364017
 31
0.0000000000000000
  0
LINE
  5
137
100
AcDbEntity
  8
MAIN0
  6
CONTINUOUS
 62
4
100
AcDbLine
 10
146.9944058094364
 20
110.8002026410343
 30
0.0000000000000000
 11
142.9944058094364
 21
112.0002026887180
 31
0.0000000000000000
  0
LINE
  5
138
100
AcDbEntity
  8
MAIN0
  6
CONTINUOUS
 62
4
100
AcDbLine
 10
142.9944058094364
 20
112.0002026887180
 30
0.0000000000000000
 11
146.9944058094364
 21
113.2002027364017
 31
0.0000000000000000
  0
MTEXT
  5
139
100
AcDbEntity
  8
MAIN0
  6
CONTINUOUS
 62
4
100
AcDbMText
 10
155.9944058094364
 20
112.5002026887180
 30
0.0000000000000000
 40
6.199999809265137
 41
0.0000000000000000
 44
0.7741935722041460
 71
     8
 72
     1
  1
{\H0.69x;{26}}
 11
1.000000000000000
 21
0.0000000000000000
 31
0.0000000000000000
  7
STANDARD
  0
LINE
  5
13A
100
AcDbEntity
  8
MAIN0
  6
CONTINUOUS
 62
4
100
AcDbLine
 10
142.9944058094364
 20
95.90584023935764
 30
0.0000000000000000
 11
142.9944058094364
 21
116.0002026887180
 31
0.0000000000000000
  0
LINE
  5
13B
100
AcDbEntity
  8
MAIN0
  6
CONTINUOUS
 62
4
100
AcDbLine
 10
148.9944058094364
 20
112.0002026887180
 30
0.0000000000000000
 11
125.9944058094544
 21
112.0002026887180
 31
0.0000000000000000
  0
LINE
  5
13C
100
AcDbEntity
  8
MAIN0
  6
CONTINUOUS
 62
4
100
AcDbLine
 10
146.9944058094364
 20
110.8002026410343
 30
0.0000000000000000
 11
142.9944058094364
 21
112.0002026887180
 31
0.0000000000000000
  0
LINE
  5
13D
100
AcDbEntity
  8
MAIN0
  6
CONTINUOUS
 62
4
100
AcDbLine
 10
142.9944058094364
 20
112.0002026887180
 30
0.0000000000000000
 11
146.9944058094364
 21
113.2002027364017
 31
0.0000000000000000
  0
LINE
  5
13E
100
AcDbEntity
  8
MAIN0
  6
CONTINUOUS
 62
4
100
AcDbLine
 10
127.9944058094544
 20
110.8002026410343
 30
0.0000000000000000
 11
131.9944058094544
 21
112.0002026887180
 31
0.0000000000000000
  0
LINE
  5
13F
100
AcDbEntity
  8
MAIN0
  6
CONTINUOUS
 62
4
100
AcDbLine
 10
131.9944058094544
 20
112.0002026887180
 30
0.0000000000000000
 11
127.9944058094544
 21
113.2002027364017
 31
0.0000000000000000
  0
MTEXT
  5
140
100
AcDbEntity
  8
MAIN0
  6
CONTINUOUS
 62
4
100
AcDbMText
 10
137.4944058094454
 20
112.5002026887180
 30
0.0000000000000000
 40
6.199999809265137
 41
0.0000000000000000
 44
0.7741935722041460
 71
     8
 72
     1
  1
{\H0.69x;{11}}
 11
1.000000000000000
 21
0.0000000000000000
 31
0.0000000000000000
  7
STANDARD
  0
LINE
  5
141
100
AcDbEntity
  8
MAIN0
  6
CONTINUOUS
 62
4
100
AcDbLine
 10
131.9944058094254
 20
97.58334023935768
 30
0.0000000000000000
 11
131.9944058094625
 21
116.0002026887180
 31
0.0000000000000000
  0
POINT
  5
142
100
AcDbEntity
  8
MAIN0
  6
CONTINUOUS
 62
5
100
AcDbPoint
 10
62.16353517567575
 20
446.4388756030487
 30
0.0000000000000000
  0
LINE
  5
143
100
AcDbEntity
  8
MAIN0
  6
CONTINUOUS
 62
4
100
AcDbLine
 10
59.76546464813225
 20
445.4388756030485
 30
0.0000000000000000
 11
295.1252538418709
 21
445.4388756030485
 31
0.0000000000000000
  0
POINT
  5
144
100
AcDbEntity
  8
MAIN0
  6
CONTINUOUS
 62
5
100
AcDbPoint
 10
76.16353517567575
 20
446.4388756030487
 30
0.0000000000000000
  0
MULTILEADER
  5
145
100
AcDbEntity
  8
MAIN0
  6
CONTINUOUS
 62
4
100
AcDbMLeader
270
     2
300
CONTEXT_DATA{
 10
378.3785493796449
 20
544.8540979197137
 30
0.0000000000000000
 41
6.000000000000000
140
2.000000000000000
145
0.01000000000000000
174
     6
175
     6
290
     1
304
{\H0.61x;{ 治具 JIG(客先手配)\P(CUSTOMER\P MUST PREPARE)}}
 11
0.0000000000000000
 21
0.0000000000000000
 31
1.000000000000000
340
69
 12
378.3785505717385
 22
551.8540979197137
 32
0.0000000000000000
 13
1.000000000000000
 23
-1.174844807602460e-013
 33
0.0000000000000000
 42
-6.731364905848018e-012
 43
0.0000000000000000
 44
0.0000000000000000
 45
1.000000000000000
170
     1
 90
-1023410171
171
     1
172
     1
 91
-1073741824
141
0.0000000000000000
 92
     0
291
     0
292
     0
173
     0
293
     0
142
0.0000000000000000
143
0.0000000000000000
294
     0
295
     0
296
     0
110
363.0070796076049
120
363.0070796076049
130
0.0000000000000000
111
1.000000000000000
121
-1.174844807602460e-013
131
0.0000000000000000
112
1.175457131002034e-013
122
1.000000000000000
132
0.0000000000000000
302
LEADER{
290
1
 10
375.0185493796449
 20
544.8540979197140
 30
0.0000000000000000
 11
1.000000000000000
 21
-1.163090811430063e-013
 31
0.0000000000000000
 90
0
 40
3.360000000000000
304
LEADER_LINE{
 10
363.0070796076049
 20
530.4670642425882
 30
0.0000000000000000
 91
0
305
}
271
0
303
}
301
}
340
67
170
     1
 91
-1023410172
341
68
171
    -1
290
     1
291
     1
 41
0.0000000000000000
342
13
 42
2.000000000000000
172
     2
174
     1
  0
LINE
  5
146
100
AcDbEntity
  8
MAIN0
  6
CONTINUOUS
 62
4
100
AcDbLine
 10
263.6017928380929
 20
37.58334021543618
 30
0.0000000000000000
 11
263.6017928380929
 21
96.58334021551571
 31
0.0000000000000000
  0
LINE
  5
147
100
AcDbEntity
  8
MAIN0
  6
CONTINUOUS
 62
4
100
AcDbLine
 10
262.4017927904092
 20
41.58334021543618
 30
0.0000000000000000
 11
263.6017928380929
 21
37.58334021543618
 31
0.0000000000000000
  0
LINE
  5
148
100
AcDbEntity
  8
MAIN0
  6
CONTINUOUS
 62
4
100
AcDbLine
 10
263.6017928380929
 20
37.58334021543618
 30
0.0000000000000000
 11
264.8017928857766
 21
41.58334021543618
 31
0.0000000000000000
  0
LINE
  5
149
100
AcDbEntity
  8
MAIN0
  6
CONTINUOUS
 62
4
100
AcDbLine
 10
262.4017927904092
 20
92.58334021551571
 30
0.0000000000000000
 11
263.6017928380929
 21
96.58334021551571
 31
0.0000000000000000
  0
LINE
  5
14A
100
AcDbEntity
  8
MAIN0
  6
CONTINUOUS
 62
4
100
AcDbLine
 10
263.6017928380929
 20
96.58334021551571
 30
0.0000000000000000
 11
264.8017928857766
 21
92.58334021551571
 31
0.0000000000000000
  0
MTEXT
  5
14B
100
AcDbEntity
  8
MAIN0
  6
CONTINUOUS
 62
4
100
AcDbMText
 10
263.1017928380929
 20
67.08334021547594
 30
0.0000000000000000
 40
6.199999809265137
 41
0.0000000000000000
 44
0.7741935722041460
 71
     8
 72
     1
  1
{\H0.69x;{59}}
 11
6.123233995736766e-017
 21
1.000000000000000
 31
0.0000000000000000
  7
STANDARD
  0
LINE
  5
14C
100
AcDbEntity
  8
MAIN0
  6
CONTINUOUS
 62
4
100
AcDbLine
 10
232.9944058332633
 20
96.58334021551571
 30
0.0000000000000000
 11
267.6017928380929
 21
96.58334021551571
 31
0.0000000000000000
  0
POINT
  5
14D
100
AcDbEntity
  8
MAIN0
  6
CONTINUOUS
 62
5
100
AcDbPoint
 10
62.16353517567575
 20
390.4388756030487
 30
0.0000000000000000
  0
LINE
  5
14E
100
AcDbEntity
  8
MAIN0
  6
CONTINUOUS
 62
4
100
AcDbLine
 10
59.76546464813225
 20
389.4388756030485
 30
0.0000000000000000
 11
295.1252538418709
 21
389.4388756030485
 31
0.0000000000000000
  0
POINT
  5
14F
100
AcDbEntity
  8
MAIN0
  6
CONTINUOUS
 62
5
100
AcDbPoint
 10
76.16353517567575
 20
390.4388756030487
 30
0.0000000000000000
  0
LINE
  5
150
100
AcDbEntity
  8
MAIN0
  6
CENTER
 62
4
100
AcDbLine
 10
296.9944078956067
 20
230.5763786089123
 30
0.0000000000000000
 11
345.9108560767292
 21
247.9013201865844
 31
0.0000000000000000
  0
LINE
  5
151
100
AcDbEntity
  8
MAIN0
  6
PHANTOM
 62
4
100
AcDbLine
 10
735.2742926384392
 20
212.2467339851345
 30
0.0000000000000000
 11
735.2742926384392
 21
141.9013195905470
 31
0.0000000000000000
  0
ARC
  5
152
100
AcDbEntity
  8
MAIN0
  6
PHANTOM
 62
4
100
AcDbCircle
 10
660.2742896582390
 20
247.9013201865473
 30
0.0000000000000000
 40
82.49999999992309
100
AcDbArc
 50
336.2418627338651
 51
563.7581372659745
  0
CIRCLE
  5
153
100
AcDbEntity
  8
MAIN0
  6
PHANTOM
 62
4
100
AcDbCircle
 10
660.2742896582390
 20
247.9013201865473
 30
0.0000000000000000
 40
72.50000000000000
  0
LINE
  5
154
100
AcDbEntity
  8
MAIN0
  6
PHANTOM
 62
4
100
AcDbLine
 10
653.2742900456390
 20
111.9013148221470
 30
0.0000000000000000
 11
667.2742892707388
 21
111.9013148221470
 31
0.0000000000000000
  0
LINE
  5
155
100
AcDbEntity
  8
MAIN0
  6
PHANTOM
 62
4
100
AcDbLine
 10
775.2742917443393
 20
107.9013195905470
 30
0.0000000000000000
 11
775.2742917443393
 21
132.9013181004470
 31
0.0000000000000000
  0
LINE
  5
156
100
AcDbEntity
  8
MAIN0
  6
PHANTOM
 62
4
100
AcDbLine
 10
545.2742875720389
 20
132.9013181004470
 30
0.0000000000000000
 11
545.2742875720389
 21
107.9013195905470
 31
0.0000000000000000
  0
LINE
  5
157
100
AcDbEntity
  8
MAIN0
  6
PHANTOM
 62
4
100
AcDbLine
 10
545.2742875720389
 20
107.9013195905470
 30
0.0000000000000000
 11
652.8742900456391
 21
107.9013195905470
 31
0.0000000000000000
  0
LINE
  5
158
100
AcDbEntity
  8
MAIN0
  6
PHANTOM
 62
4
100
AcDbLine
 10
653.2742900456390
 20
108.3013195905471
 30
0.0000000000000000
 11
653.2742900456390
 21
111.9013148221470
 31
0.0000000000000000
  0
LINE
  5
159
100
AcDbEntity
  8
MAIN0
  6
PHANTOM
 62
4
100
AcDbLine
 10
667.2742892707388
 20
111.9013148221470
 30
0.0000000000000000
 11
667.2742892707388
 21
108.3013195905471
 31
0.0000000000000000
  0
LINE
  5
15A
100
AcDbEntity
  8
MAIN0
  6
PHANTOM
 62
4
100
AcDbLine
 10
667.6742892707389
 20
107.9013195905470
 30
0.0000000000000000
 11
775.2742917443393
 21
107.9013195905470
 31
0.0000000000000000
  0
LINE
  5
15B
100
AcDbEntity
  8
MAIN0
  6
PHANTOM
 62
4
100
AcDbLine
 10
585.2742866779390
 20
141.9013195905470
 30
0.0000000000000000
 11
585.2742866779390
 21
212.2467339853615
 31
0.0000000000000000
  0
LINE
  5
15C
100
AcDbEntity
  8
MAIN0
  6
PHANTOM
 62
4
100
AcDbLine
 10
735.2742926384392
 20
321.9013169083470
 30
0.0000000000000000
 11
735.2742926384392
 21
283.5559063879600
 31
0.0000000000000000
  0
LINE
  5
15D
100
AcDbEntity
  8
MAIN0
  6
PHANTOM
 62
4
100
AcDbLine
 10
585.2742866779390
 20
283.5559063877328
 30
0.0000000000000000
 11
585.2742866779390
 21
321.9013169077950
 31
0.0000000000000000
  0
LINE
  5
15E
100
AcDbEntity
  8
MAIN0
  6
PHANTOM
 62
4
100
AcDbLine
 10
725.2742906714391
 20
336.9013169083470
 30
0.0000000000000000
 11
725.2742906714391
 21
313.8653246164542
 31
0.0000000000000000
  0
ARC
  5
15F
100
AcDbEntity
  8
MAIN0
  6
PHANTOM
 62
4
100
AcDbCircle
 10
745.2742896582392
 20
325.3609871107471
 30
0.0000000000000000
 40
10.00000000000006
100
AcDbArc
 50
200.2408374510679
 51
222.3426054522000
  0
ARC
  5
160
100
AcDbEntity
  8
MAIN0
  6
PHANTOM
 62
4
100
AcDbCircle
 10
575.2742896581390
 20
170.4416532625471
 30
0.0000000000000000
 40
10.00000000000006
100
AcDbArc
 50
0.0000000000000000
 51
42.34260545209998
  0
ARC
  5
161
100
AcDbEntity
  8
MAIN0
  6
PHANTOM
 62
4
100
AcDbCircle
 10
575.2742896582390
 20
325.3609871107471
 30
0.0000000000000000
 40
10.00000000000006
100
AcDbArc
 50
317.6573945478000
 51
339.7591625455610
  0
ARC
  5
162
100
AcDbEntity
  8
MAIN0
  6
PHANTOM
 62
4
100
AcDbCircle
 10
745.2742896582392
 20
170.4416532624470
 30
0.0000000000000000
 40
10.00000000000005
100
AcDbArc
 50
137.6573945478000
 51
180.0000000000000
  0
ARC
  5
163
100
AcDbEntity
  8
MAIN0
  6
PHANTOM
 62
4
100
AcDbCircle
 10
660.2742896582390
 20
247.9013201865473
 30
0.0000000000000000
 40
105.0000000000000
100
AcDbArc
 50
137.6573945478000
 51
222.3426054521000
  0
LINE
  5
164
100
AcDbEntity
  8
MAIN0
  6
CENTER
 62
4
100
AcDbLine
 10
768.7758681234345
 20
247.9013201865473
 30
0.0000000000000000
 11
547.6696895585535
 21
247.9013201865473
 31
0.0000000000000000
  0
LINE
  5
165
100
AcDbEntity
  8
MAIN0
  6
CENTER
 62
4
100
AcDbLine
 10
660.2742896582390
 20
358.2353456641562
 30
0.0000000000000000
 11
660.2742896582390
 21
100.4106186238700
 31
0.0000000000000000
  0
LINE
  5
166
100
AcDbEntity
  8
MAIN0
  6
CENTER
 62
4
100
AcDbLine
 10
760.2742896601732
 20
135.9013195905091
 30
0.0000000000000000
 11
760.2742896601013
 21
103.5820184026716
 31
0.0000000000000000
  0
LINE
  5
167
100
AcDbEntity
  8
MAIN0
  6
CENTER
 62
4
100
AcDbLine
 10
560.2742896580119
 20
135.9013195900660
 30
0.0000000000000000
 11
560.2742896580835
 21
103.5820184022285
 31
0.0000000000000000
  0
LINE
  5
168
100
AcDbEntity
  8
MAIN0
  6
PHANTOM
 62
4
100
AcDbLine
 10
719.2742906714391
 20
342.9013169083470
 30
0.0000000000000000
 11
601.2742886450387
 21
342.9013169083470
 31
0.0000000000000000
  0
LINE
  5
169
100
AcDbEntity
  8
MAIN0
  6
PHANTOM
 62
4
100
AcDbLine
 10
587.2742896582390
 20
352.9013169083470
 30
0.0000000000000000
 11
733.2742896582390
 21
352.9013169083470
 31
0.0000000000000000
  0
LINE
  5
16A
100
AcDbEntity
  8
MAIN0
  6
PHANTOM
 62
4
100
AcDbLine
 10
595.2742886450387
 20
336.9013169083470
 30
0.0000000000000000
 11
595.2742886450387
 21
313.8653246164542
 31
0.0000000000000000
  0
ARC
  5
16B
100
AcDbEntity
  8
MAIN0
  6
PHANTOM
 62
4
100
AcDbCircle
 10
741.2742926384392
 20
283.5559063879600
 30
0.0000000000000000
 40
6.000000000000000
100
AcDbArc
 50
180.0000000000000
 51
203.7581372661352
  0
ARC
  5
16C
100
AcDbEntity
  8
MAIN0
  6
PHANTOM
 62
4
100
AcDbCircle
 10
741.2742926384392
 20
212.2467339851345
 30
0.0000000000000000
 40
6.000000000000000
100
AcDbArc
 50
156.2418627338648
 51
180.0000000000000
  0
ARC
  5
16D
100
AcDbEntity
  8
MAIN0
  6
PHANTOM
 62
4
100
AcDbCircle
 10
579.2742866779390
 20
212.2467339853615
 30
0.0000000000000000
 40
6.000000000000000
100
AcDbArc
 50
0.0000000000000000
 51
23.75813726597485
  0
ARC
  5
16E
100
AcDbEntity
  8
MAIN0
  6
PHANTOM
 62
4
100
AcDbCircle
 10
579.2742866779390
 20
283.5559063877328
 30
0.0000000000000000
 40
6.000000000000000
100
AcDbArc
 50
336.2418627340251
 51
360.0000000000000
  0
LINE
  5
16F
100
AcDbEntity
  8
MAIN0
  6
PHANTOM
 62
4
100
AcDbLine
 10
545.2742875720389
 20
132.9013195905470
 30
0.0000000000000000
 11
577.2742896582436
 21
132.9013195905470
 31
0.0000000000000000
  0
LINE
  5
170
100
AcDbEntity
  8
MAIN0
  6
PHANTOM
 62
4
100
AcDbLine
 10
577.2742896580121
 20
135.9013195905470
 30
0.0000000000000000
 11
579.2742866779390
 21
135.9013195905470
 31
0.0000000000000000
  0
ARC
  5
171
100
AcDbEntity
  8
MAIN0
  6
PHANTOM
 62
4
100
AcDbCircle
 10
579.2742866779390
 20
141.9013195905470
 30
0.0000000000000000
 40
6.000000000000000
100
AcDbArc
 50
270.0000000000000
 51
360.0000000000000
  0
LINE
  5
172
100
AcDbEntity
  8
MAIN0
  6
PHANTOM
 62
4
100
AcDbLine
 10
577.2742896580120
 20
135.9013195905471
 30
0.0000000000000000
 11
577.2742896580186
 21
132.9013195905471
 31
0.0000000000000000
  0
LINE
  5
173
100
AcDbEntity
  8
MAIN0
  6
PHANTOM
 62
4
100
AcDbLine
 10
653.2742900456385
 20
108.3013195905474
 30
0.0000000000000000
 11
652.8742900456385
 21
107.9013195905475
 31
0.0000000000000000
  0
LINE
  5
174
100
AcDbEntity
  8
MAIN0
  6
PHANTOM
 62
4
100
AcDbLine
 10
667.2742892707381
 20
108.3013195905471
 30
0.0000000000000000
 11
667.6742892707385
 21
107.9013195905468
 31
0.0000000000000000
  0
ARC
  5
175
100
AcDbEntity
  8
MAIN0
  6
PHANTOM
 62
4
100
AcDbCircle
 10
719.2742906714391
 20
336.9013169083470
 30
0.0000000000000000
 40
6.000000000000000
100
AcDbArc
 50
0.0000000000000000
 51
90.00000000000000
  0
ARC
  5
176
100
AcDbEntity
  8
MAIN0
  6
PHANTOM
 62
4
100
AcDbCircle
 10
719.2742906714391
 20
313.8653246164542
 30
0.0000000000000000
 40
6.000000000000000
100
AcDbArc
 50
228.1896842241197
 51
360.0000000000000
  0
ARC
  5
177
100
AcDbEntity
  8
MAIN0
  6
PHANTOM
 62
4
100
AcDbCircle
 10
601.2742886450387
 20
313.8653246164542
 30
0.0000000000000000
 40
6.000000000000000
100
AcDbArc
 50
180.0000000000000
 51
311.8103157758803
  0
ARC
  5
178
100
AcDbEntity
  8
MAIN0
  6
PHANTOM
 62
4
100
AcDbCircle
 10
601.2742886450387
 20
336.9013169083470
 30
0.0000000000000000
 40
6.000000000000000
100
AcDbArc
 50
90.00000000000000
 51
180.0000000000000
  0
ARC
  5
179
100
AcDbEntity
  8
MAIN0
  6
PHANTOM
 62
4
100
AcDbCircle
 10
741.2742926385388
 20
141.9013195905470
 30
0.0000000000000000
 40
6.000000000000000
100
AcDbArc
 50
180.0000000000000
 51
270.0000000000000
  0
LINE
  5
17A
100
AcDbEntity
  8
MAIN0
  6
PHANTOM
 62
4
100
AcDbLine
 10
743.2742896584657
 20
135.9013195905470
 30
0.0000000000000000
 11
741.2742926385388
 21
135.9013195905470
 31
0.0000000000000000
  0
LINE
  5
17B
100
AcDbEntity
  8
MAIN0
  6
PHANTOM
 62
4
100
AcDbLine
 10
775.2742917444384
 20
132.9013195905470
 30
0.0000000000000000
 11
743.2742896582342
 21
132.9013195905470
 31
0.0000000000000000
  0
LINE
  5
17C
100
AcDbEntity
  8
MAIN0
  6
PHANTOM
 62
4
100
AcDbLine
 10
743.2742896584656
 20
135.9013195905469
 30
0.0000000000000000
 11
743.2742896584590
 21
132.9013195905469
 31
0.0000000000000000
  0
ARC
  5
17D
100
AcDbEntity
  8
MAIN0
  6
PHANTOM
 62
4
100
AcDbCircle
 10
660.2742896582390
 20
247.9013201865473
 30
0.0000000000000000
 40
105.0000000000000
100
AcDbArc
 50
317.6573945478000
 51
402.3426054522261
  0
LINE
  5
17E
100
AcDbEntity
  8
MAIN0
  6
PHANTOM
 62
4
100
AcDbLine
 10
734.2742896582390
 20
351.9013169083470
 30
0.0000000000000000
 11
734.2742896582390
 21
321.9013169083470
 31
0.0000000000000000
  0
LINE
  5
17F
100
AcDbEntity
  8
MAIN0
  6
PHANTOM
 62
4
100
AcDbLine
 10
586.2742896582390
 20
351.9013169083470
 30
0.0000000000000000
 11
586.2742896582390
 21
321.9013169077975
 31
0.0000000000000000
  0
LINE
  5
180
100
AcDbEntity
  8
MAIN0
  6
PHANTOM
 62
4
100
AcDbLine
 10
734.2742896582390
 20
321.9013169083470
 30
0.0000000000000000
 11
735.8918229201886
 21
321.9013169083470
 31
0.0000000000000000
  0
LINE
  5
181
100
AcDbEntity
  8
MAIN0
  6
PHANTOM
 62
4
100
AcDbLine
 10
734.2742896582391
 20
351.9013169083470
 30
0.0000000000000000
 11
733.2742896582391
 21
352.9013169083470
 31
0.0000000000000000
  0
LINE
  5
182
100
AcDbEntity
  8
MAIN0
  6
PHANTOM
 62
4
100
AcDbLine
 10
584.6567563960900
 20
321.9013169077934
 30
0.0000000000000000
 11
586.2742896582390
 21
321.9013169077975
 31
0.0000000000000000
  0
LINE
  5
183
100
AcDbEntity
  8
MAIN0
  6
PHANTOM
 62
4
100
AcDbLine
 10
586.2742896582389
 20
351.9013169083470
 30
0.0000000000000000
 11
587.2742896582390
 21
352.9013169083470
 31
0.0000000000000000
  0
LINE
  5
184
100
AcDbEntity
  8
MAIN0
  6
PHANTOM
 62
4
100
AcDbLine
 10
653.8742896582393
 20
102.9013148221470
 30
0.0000000000000000
 11
666.6742896582391
 21
102.9013148221470
 31
0.0000000000000000
  0
LINE
  5
185
100
AcDbEntity
  8
MAIN0
  6
PHANTOM
 62
4
100
AcDbLine
 10
653.2742896582391
 20
103.5013148221471
 30
0.0000000000000000
 11
653.2742896582391
 21
108.3013195905473
 31
0.0000000000000000
  0
LINE
  5
186
100
AcDbEntity
  8
MAIN0
  6
PHANTOM
 62
4
100
AcDbLine
 10
667.2742896582391
 20
103.5013148221471
 30
0.0000000000000000
 11
667.2742896582391
 21
108.3013195905471
 31
0.0000000000000000
  0
LINE
  5
187
100
AcDbEntity
  8
MAIN0
  6
PHANTOM
 62
4
100
AcDbLine
 10
653.2742896582395
 20
103.5013148221473
 30
0.0000000000000000
 11
653.8742896582394
 21
102.9013148221473
 31
0.0000000000000000
  0
LINE
  5
188
100
AcDbEntity
  8
MAIN0
  6
PHANTOM
 62
4
100
AcDbLine
 10
666.6742896582390
 20
102.9013148221467
 30
0.0000000000000000
 11
667.2742896582391
 21
103.5013148221469
 31
0.0000000000000000
  0
CIRCLE
  5
189
100
AcDbEntity
  8
MAIN0
  6
PHANTOM
 62
4
100
AcDbCircle
 10
660.2742896582391
 20
247.9013201865475
 30
0.0000000000000000
 40
25.00000000000000
  0
CIRCLE
  5
18A
100
AcDbEntity
  8
MAIN0
  6
PHANTOM
 62
4
100
AcDbCircle
 10
660.2742896582391
 20
247.9013201865475
 30
0.0000000000000000
 40
57.50000000000000
  0
CIRCLE
  5
18B
100
AcDbEntity
  8
MAIN0
  6
PHANTOM
 62
4
100
AcDbCircle
 10
633.7577853637434
 20
274.4178244810425
 30
0.0000000000000000
 40
4.000000000000000
  0
CIRCLE
  5
18C
100
AcDbEntity
  8
MAIN0
  6
PHANTOM
 62
4
100
AcDbCircle
 10
633.7577853637434
 20
274.4178244810425
 30
0.0000000000000000
 40
3.400000000000000
  0
CIRCLE
  5
18D
100
AcDbEntity
  8
MAIN0
  6
PHANTOM
 62
4
100
AcDbCircle
 10
622.7742896582391
 20
247.9013201865470
 30
0.0000000000000000
 40
4.000000000000000
  0
CIRCLE
  5
18E
100
AcDbEntity
  8
MAIN0
  6
PHANTOM
 62
4
100
AcDbCircle
 10
622.7742896582391
 20
247.9013201865470
 30
0.0000000000000000
 40
3.400000000000000
  0
CIRCLE
  5
18F
100
AcDbEntity
  8
MAIN0
  6
PHANTOM
 62
4
100
AcDbCircle
 10
633.7577853637439
 20
221.3848158920515
 30
0.0000000000000000
 40
4.000000000000000
  0
CIRCLE
  5
190
100
AcDbEntity
  8
MAIN0
  6
PHANTOM
 62
4
100
AcDbCircle
 10
633.7577853637439
 20
221.3848158920515
 30
0.0000000000000000
 40
3.400000000000000
  0
CIRCLE
  5
191
100
AcDbEntity
  8
MAIN0
  6
PHANTOM
 62
4
100
AcDbCircle
 10
660.2742896582396
 20
210.4013201865474
 30
0.0000000000000000
 40
4.000000000000000
  0
CIRCLE
  5
192
100
AcDbEntity
  8
MAIN0
  6
PHANTOM
 62
4
100
AcDbCircle
 10
660.2742896582396
 20
210.4013201865474
 30
0.0000000000000000
 40
3.400000000000000
  0
CIRCLE
  5
193
100
AcDbEntity
  8
MAIN0
  6
PHANTOM
 62
4
100
AcDbCircle
 10
686.7907939527348
 20
221.3848158920518
 30
0.0000000000000000
 40
4.000000000000000
  0
CIRCLE
  5
194
100
AcDbEntity
  8
MAIN0
  6
PHANTOM
 62
4
100
AcDbCircle
 10
686.7907939527348
 20
221.3848158920518
 30
0.0000000000000000
 40
3.400000000000000
  0
CIRCLE
  5
195
100
AcDbEntity
  8
MAIN0
  6
PHANTOM
 62
4
100
AcDbCircle
 10
697.7742896582391
 20
247.9013201865475
 30
0.0000000000000000
 40
4.000000000000000
  0
CIRCLE
  5
196
100
AcDbEntity
  8
MAIN0
  6
PHANTOM
 62
4
100
AcDbCircle
 10
697.7742896582391
 20
247.9013201865475
 30
0.0000000000000000
 40
3.400000000000000
  0
CIRCLE
  5
197
100
AcDbEntity
  8
MAIN0
  6
PHANTOM
 62
4
100
AcDbCircle
 10
686.7907939527348
 20
274.4178244810434
 30
0.0000000000000000
 40
4.000000000000000
  0
CIRCLE
  5
198
100
AcDbEntity
  8
MAIN0
  6
PHANTOM
 62
4
100
AcDbCircle
 10
686.7907939527348
 20
274.4178244810434
 30
0.0000000000000000
 40
3.400000000000000
  0
CIRCLE
  5
199
100
AcDbEntity
  8
MAIN0
  6
PHANTOM
 62
4
100
AcDbCircle
 10
660.2742896582391
 20
285.4013201865475
 30
0.0000000000000000
 40
4.000000000000000
  0
CIRCLE
  5
19A
100
AcDbEntity
  8
MAIN0
  6
PHANTOM
 62
4
100
AcDbCircle
 10
660.2742896582391
 20
285.4013201865475
 30
0.0000000000000000
 40
3.400000000000000
  0
CIRCLE
  5
19B
100
AcDbEntity
  8
MAIN0
  6
PHANTOM
 62
4
100
AcDbCircle
 10
673.8595515053681
 20
215.1035967856736
 30
0.0000000000000000
 40
7.000000000000000
  0
CIRCLE
  5
19C
100
AcDbEntity
  8
MAIN0
  6
PHANTOM
 62
4
100
AcDbCircle
 10
693.0720130587773
 20
234.3160583386086
 30
0.0000000000000000
 40
7.000000000000000
  0
CIRCLE
  5
19D
100
AcDbEntity
  8
MAIN0
  6
PHANTOM
 62
4
100
AcDbCircle
 10
693.0720130591129
 20
261.4865820336763
 30
0.0000000000000000
 40
7.000000000000000
  0
CIRCLE
  5
19E
100
AcDbEntity
  8
MAIN0
  6
PHANTOM
 62
4
100
AcDbCircle
 10
673.8595515061783
 20
280.6990435870857
 30
0.0000000000000000
 40
7.000000000000000
  0
CIRCLE
  5
19F
100
AcDbEntity
  8
MAIN0
  6
PHANTOM
 62
4
100
AcDbCircle
 10
646.6890278111104
 20
280.6990435874210
 30
0.0000000000000000
 40
7.000000000000000
  0
CIRCLE
  5
1A0
100
AcDbEntity
  8
MAIN0
  6
PHANTOM
 62
4
100
AcDbCircle
 10
627.4765662577009
 20
261.4865820344862
 30
0.0000000000000000
 40
7.000000000000000
  0
CIRCLE
  5
1A1
100
AcDbEntity
  8
MAIN0
  6
PHANTOM
 62
4
100
AcDbCircle
 10
627.4765662573653
 20
234.3160583394187
 30
0.0000000000000000
 40
7.000000000000000
  0
CIRCLE
  5
1A2
100
AcDbEntity
  8
MAIN0
  6
PHANTOM
 62
4
100
AcDbCircle
 10
646.6890278103004
 20
215.1035967860091
 30
0.0000000000000000
 40
7.000000000000000
  0
LINE
  5
1A3
100
AcDbEntity
  8
MAIN0
  6
CENTER
 62
4
100
AcDbLine
 10
660.2742896582391
 20
294.5513201865476
 30
0.0000000000000000
 11
660.2742896582391
 21
276.2513201865472
 31
0.0000000000000000
  0
CIRCLE
  5
1A4
100
AcDbEntity
  8
MAIN0
  6
CENTER
 62
4
100
AcDbCircle
 10
660.2742896582391
 20
247.9013201865475
 30
0.0000000000000000
 40
37.50000000000014
  0
LINE
  5
1A5
100
AcDbEntity
  8
MAIN0
  6
CENTER
 62
4
100
AcDbLine
 10
693.2608210005921
 20
280.8878515289005
 30
0.0000000000000000
 11
680.3207669048786
 21
267.9477974331867
 31
0.0000000000000000
  0
LINE
  5
1A6
100
AcDbEntity
  8
MAIN0
  6
CENTER
 62
4
100
AcDbLine
 10
706.9242896582396
 20
247.9013201865475
 30
0.0000000000000000
 11
688.6242896582395
 21
247.9013201865474
 31
0.0000000000000000
  0
LINE
  5
1A7
100
AcDbEntity
  8
MAIN0
  6
CENTER
 62
4
100
AcDbLine
 10
693.2608210005922
 20
214.9147888441949
 30
0.0000000000000000
 11
680.3207669048783
 21
227.8548429399086
 31
0.0000000000000000
  0
LINE
  5
1A8
100
AcDbEntity
  8
MAIN0
  6
CENTER
 62
4
100
AcDbLine
 10
660.2742896582397
 20
201.2513201865472
 30
0.0000000000000000
 11
660.2742896582395
 21
219.5513201865473
 31
0.0000000000000000
  0
LINE
  5
1A9
100
AcDbEntity
  8
MAIN0
  6
CENTER
 62
4
100
AcDbLine
 10
627.2877583158872
 20
214.9147888441946
 30
0.0000000000000000
 11
640.2278124116008
 21
227.8548429399086
 31
0.0000000000000000
  0
LINE
  5
1AA
100
AcDbEntity
  8
MAIN0
  6
CENTER
 62
4
100
AcDbLine
 10
613.6242896582396
 20
247.9013201865473
 30
0.0000000000000000
 11
631.9242896582398
 21
247.9013201865474
 31
0.0000000000000000
  0
LINE
  5
1AB
100
AcDbEntity
  8
MAIN0
  6
CENTER
 62
4
100
AcDbLine
 10
627.2877583158870
 20
280.8878515288998
 30
0.0000000000000000
 11
640.2278124116010
 21
267.9477974331862
 31
0.0000000000000000
  0
CIRCLE
  5
1AC
100
AcDbEntity
  8
MAIN0
  6
PHANTOM
 62
4
100
AcDbCircle
 10
646.6890278111104
 20
280.6990435874213
 30
0.0000000000000000
 40
6.500000000000000
  0
LINE
  5
1AD
100
AcDbEntity
  8
MAIN0
  6
PHANTOM
 62
4
100
AcDbLine
 10
645.3633735150079
 20
283.8994561682029
 30
0.0000000000000000
 11
643.2545620655113
 21
281.1511995807513
 31
0.0000000000000000
  0
LINE
  5
1AE
100
AcDbEntity
  8
MAIN0
  6
PHANTOM
 62
4
100
AcDbLine
 10
643.2545620655111
 20
281.1511995807508
 30
0.0000000000000000
 11
644.5802163616139
 21
277.9507869999694
 31
0.0000000000000000
  0
LINE
  5
1AF
100
AcDbEntity
  8
MAIN0
  6
PHANTOM
 62
4
100
AcDbLine
 10
644.5802163616139
 20
277.9507869999693
 30
0.0000000000000000
 11
648.0146821072133
 21
277.4986310066396
 31
0.0000000000000000
  0
LINE
  5
1B0
100
AcDbEntity
  8
MAIN0
  6
PHANTOM
 62
4
100
AcDbLine
 10
648.0146821072135
 20
277.4986310066401
 30
0.0000000000000000
 11
650.1234935567102
 21
280.2468875940917
 31
0.0000000000000000
  0
LINE
  5
1B1
100
AcDbEntity
  8
MAIN0
  6
PHANTOM
 62
4
100
AcDbLine
 10
650.1234935567101
 20
280.2468875940914
 30
0.0000000000000000
 11
648.7978392606073
 21
283.4473001748729
 31
0.0000000000000000
  0
LINE
  5
1B2
100
AcDbEntity
  8
MAIN0
  6
PHANTOM
 62
4
100
AcDbLine
 10
648.7978392606070
 20
283.4473001748729
 30
0.0000000000000000
 11
645.3633735150077
 21
283.8994561682025
 31
0.0000000000000000
  0
CIRCLE
  5
1B3
100
AcDbEntity
  8
MAIN0
  6
PHANTOM
 62
4
100
AcDbCircle
 10
627.4765662577007
 20
261.4865820344859
 30
0.0000000000000000
 40
6.500000000000000
  0
LINE
  5
1B4
100
AcDbEntity
  8
MAIN0
  6
PHANTOM
 62
4
100
AcDbLine
 10
624.2761536769521
 20
262.8122363306677
 30
0.0000000000000000
 11
624.7283096701970
 21
259.3777705850572
 31
0.0000000000000000
  0
LINE
  5
1B5
100
AcDbEntity
  8
MAIN0
  6
PHANTOM
 62
4
100
AcDbLine
 10
624.7283096701967
 20
259.3777705850571
 30
0.0000000000000000
 11
627.9287222509455
 21
258.0521162888752
 31
0.0000000000000000
  0
LINE
  5
1B6
100
AcDbEntity
  8
MAIN0
  6
PHANTOM
 62
4
100
AcDbLine
 10
627.9287222509458
 20
258.0521162888755
 30
0.0000000000000000
 11
630.6769788384496
 21
260.1609277383042
 31
0.0000000000000000
  0
LINE
  5
1B7
100
AcDbEntity
  8
MAIN0
  6
PHANTOM
 62
4
100
AcDbLine
 10
630.6769788384495
 20
260.1609277383040
 30
0.0000000000000000
 11
630.2248228452046
 21
263.5953934839146
 31
0.0000000000000000
  0
LINE
  5
1B8
100
AcDbEntity
  8
MAIN0
  6
PHANTOM
 62
4
100
AcDbLine
 10
630.2248228452045
 20
263.5953934839146
 30
0.0000000000000000
 11
627.0244102644557
 21
264.9210477800964
 31
0.0000000000000000
  0
LINE
  5
1B9
100
AcDbEntity
  8
MAIN0
  6
PHANTOM
 62
4
100
AcDbLine
 10
627.0244102644560
 20
264.9210477800967
 30
0.0000000000000000
 11
624.2761536769523
 21
262.8122363306679
 31
0.0000000000000000
  0
CIRCLE
  5
1BA
100
AcDbEntity
  8
MAIN0
  6
PHANTOM
 62
4
100
AcDbCircle
 10
627.4765662573653
 20
234.3160583394187
 30
0.0000000000000000
 40
6.500000000000000
  0
LINE
  5
1BB
100
AcDbEntity
  8
MAIN0
  6
PHANTOM
 62
4
100
AcDbLine
 10
624.2761536765837
 20
232.9904040433162
 30
0.0000000000000000
 11
627.0244102640354
 21
230.8815925938196
 31
0.0000000000000000
  0
LINE
  5
1BC
100
AcDbEntity
  8
MAIN0
  6
PHANTOM
 62
4
100
AcDbLine
 10
627.0244102640357
 20
230.8815925938194
 30
0.0000000000000000
 11
630.2248228448171
 21
232.2072468899222
 31
0.0000000000000000
  0
LINE
  5
1BD
100
AcDbEntity
  8
MAIN0
  6
PHANTOM
 62
4
100
AcDbLine
 10
630.2248228448171
 20
232.2072468899227
 30
0.0000000000000000
 11
630.6769788381467
 21
235.6417126355221
 31
0.0000000000000000
  0
LINE
  5
1BE
100
AcDbEntity
  8
MAIN0
  6
PHANTOM
 62
4
100
AcDbLine
 10
630.6769788381466
 20
235.6417126355218
 30
0.0000000000000000
 11
627.9287222506949
 21
237.7505240850185
 31
0.0000000000000000
  0
LINE
  5
1BF
100
AcDbEntity
  8
MAIN0
  6
PHANTOM
 62
4
100
AcDbLine
 10
627.9287222506951
 20
237.7505240850182
 30
0.0000000000000000
 11
624.7283096699138
 21
236.4248697889155
 31
0.0000000000000000
  0
LINE
  5
1C0
100
AcDbEntity
  8
MAIN0
  6
PHANTOM
 62
4
100
AcDbLine
 10
624.7283096699135
 20
236.4248697889159
 30
0.0000000000000000
 11
624.2761536765839
 21
232.9904040433165
 31
0.0000000000000000
  0
CIRCLE
  5
1C1
100
AcDbEntity
  8
MAIN0
  6
PHANTOM
 62
4
100
AcDbCircle
 10
646.6890278103001
 20
215.1035967860091
 30
0.0000000000000000
 40
6.500000000000000
  0
LINE
  5
1C2
100
AcDbEntity
  8
MAIN0
  6
PHANTOM
 62
4
100
AcDbLine
 10
645.3633735141175
 20
211.9031842052606
 30
0.0000000000000000
 11
648.7978392597281
 21
212.3553401985054
 31
0.0000000000000000
  0
LINE
  5
1C3
100
AcDbEntity
  8
MAIN0
  6
PHANTOM
 62
4
100
AcDbLine
 10
648.7978392597288
 20
212.3553401985056
 30
0.0000000000000000
 11
650.1234935559106
 21
215.5557527792542
 31
0.0000000000000000
  0
LINE
  5
1C4
100
AcDbEntity
  8
MAIN0
  6
PHANTOM
 62
4
100
AcDbLine
 10
650.1234935559108
 20
215.5557527792543
 30
0.0000000000000000
 11
648.0146821064822
 21
218.3040093667581
 31
0.0000000000000000
  0
LINE
  5
1C5
100
AcDbEntity
  8
MAIN0
  6
PHANTOM
 62
4
100
AcDbLine
 10
648.0146821064814
 20
218.3040093667580
 30
0.0000000000000000
 11
644.5802163608707
 21
217.8518533735132
 31
0.0000000000000000
  0
LINE
  5
1C6
100
AcDbEntity
  8
MAIN0
  6
PHANTOM
 62
4
100
AcDbLine
 10
644.5802163608713
 20
217.8518533735132
 30
0.0000000000000000
 11
643.2545620646894
 21
214.6514407927646
 31
0.0000000000000000
  0
LINE
  5
1C7
100
AcDbEntity
  8
MAIN0
  6
PHANTOM
 62
4
100
AcDbLine
 10
643.2545620646897
 20
214.6514407927645
 30
0.0000000000000000
 11
645.3633735141184
 21
211.9031842052608
 31
0.0000000000000000
  0
CIRCLE
  5
1C8
100
AcDbEntity
  8
MAIN0
  6
PHANTOM
 62
4
100
AcDbCircle
 10
673.8595515061779
 20
215.1035967860091
 30
0.0000000000000000
 40
6.500000000000000
  0
LINE
  5
1C9
100
AcDbEntity
  8
MAIN0
  6
PHANTOM
 62
4
100
AcDbLine
 10
675.1852058023594
 20
211.9031842052603
 30
0.0000000000000000
 11
677.2940172517882
 21
214.6514407927640
 31
0.0000000000000000
  0
LINE
  5
1CA
100
AcDbEntity
  8
MAIN0
  6
PHANTOM
 62
4
100
AcDbLine
 10
677.2940172517888
 20
214.6514407927642
 30
0.0000000000000000
 11
675.9683629556070
 21
217.8518533735128
 31
0.0000000000000000
  0
LINE
  5
1CB
100
AcDbEntity
  8
MAIN0
  6
PHANTOM
 62
4
100
AcDbLine
 10
675.9683629556066
 20
217.8518533735127
 30
0.0000000000000000
 11
672.5338972099961
 21
218.3040093667576
 31
0.0000000000000000
  0
LINE
  5
1CC
100
AcDbEntity
  8
MAIN0
  6
PHANTOM
 62
4
100
AcDbLine
 10
672.5338972099958
 20
218.3040093667576
 30
0.0000000000000000
 11
670.4250857605670
 21
215.5557527792539
 31
0.0000000000000000
  0
LINE
  5
1CD
100
AcDbEntity
  8
MAIN0
  6
PHANTOM
 62
4
100
AcDbLine
 10
670.4250857605675
 20
215.5557527792539
 30
0.0000000000000000
 11
671.7507400567494
 21
212.3553401985052
 31
0.0000000000000000
  0
LINE
  5
1CE
100
AcDbEntity
  8
MAIN0
  6
PHANTOM
 62
4
100
AcDbLine
 10
671.7507400567492
 20
212.3553401985050
 30
0.0000000000000000
 11
675.1852058023599
 21
211.9031842052602
 31
0.0000000000000000
  0
CIRCLE
  5
1CF
100
AcDbEntity
  8
MAIN0
  6
PHANTOM
 62
4
100
AcDbCircle
 10
693.0720130587773
 20
234.3160583386085
 30
0.0000000000000000
 40
6.500000000000000
  0
LINE
  5
1D0
100
AcDbEntity
  8
MAIN0
  6
PHANTOM
 62
4
100
AcDbLine
 10
696.2724256395259
 20
232.9904040424262
 30
0.0000000000000000
 11
695.8202696462811
 21
236.4248697880367
 31
0.0000000000000000
  0
LINE
  5
1D1
100
AcDbEntity
  8
MAIN0
  6
PHANTOM
 62
4
100
AcDbLine
 10
695.8202696462812
 20
236.4248697880373
 30
0.0000000000000000
 11
692.6198570655325
 21
237.7505240842192
 31
0.0000000000000000
  0
LINE
  5
1D2
100
AcDbEntity
  8
MAIN0
  6
PHANTOM
 62
4
100
AcDbLine
 10
692.6198570655324
 20
237.7505240842189
 30
0.0000000000000000
 11
689.8716004780287
 21
235.6417126347901
 31
0.0000000000000000
  0
LINE
  5
1D3
100
AcDbEntity
  8
MAIN0
  6
PHANTOM
 62
4
100
AcDbLine
 10
689.8716004780285
 20
235.6417126347899
 30
0.0000000000000000
 11
690.3237564712733
 21
232.2072468891795
 31
0.0000000000000000
  0
LINE
  5
1D4
100
AcDbEntity
  8
MAIN0
  6
PHANTOM
 62
4
100
AcDbLine
 10
690.3237564712736
 20
232.2072468891798
 30
0.0000000000000000
 11
693.5241690520222
 21
230.8815925929980
 31
0.0000000000000000
  0
LINE
  5
1D5
100
AcDbEntity
  8
MAIN0
  6
PHANTOM
 62
4
100
AcDbLine
 10
693.5241690520222
 20
230.8815925929977
 30
0.0000000000000000
 11
696.2724256395260
 21
232.9904040424264
 31
0.0000000000000000
  0
CIRCLE
  5
1D6
100
AcDbEntity
  8
MAIN0
  6
PHANTOM
 62
4
100
AcDbCircle
 10
693.0720130591128
 20
261.4865820336760
 30
0.0000000000000000
 40
6.500000000000000
  0
LINE
  5
1D7
100
AcDbEntity
  8
MAIN0
  6
PHANTOM
 62
4
100
AcDbLine
 10
696.2724256398948
 20
262.8122363297786
 30
0.0000000000000000
 11
693.5241690524431
 21
264.9210477792752
 31
0.0000000000000000
  0
LINE
  5
1D8
100
AcDbEntity
  8
MAIN0
  6
PHANTOM
 62
4
100
AcDbLine
 10
693.5241690524426
 20
264.9210477792752
 30
0.0000000000000000
 11
690.3237564716612
 21
263.5953934831724
 31
0.0000000000000000
  0
LINE
  5
1D9
100
AcDbEntity
  8
MAIN0
  6
PHANTOM
 62
4
100
AcDbLine
 10
690.3237564716616
 20
263.5953934831724
 30
0.0000000000000000
 11
689.8716004783319
 21
260.1609277375729
 31
0.0000000000000000
  0
LINE
  5
1DA
100
AcDbEntity
  8
MAIN0
  6
PHANTOM
 62
4
100
AcDbLine
 10
689.8716004783319
 20
260.1609277375731
 30
0.0000000000000000
 11
692.6198570657836
 21
258.0521162880764
 31
0.0000000000000000
  0
LINE
  5
1DB
100
AcDbEntity
  8
MAIN0
  6
PHANTOM
 62
4
100
AcDbLine
 10
692.6198570657833
 20
258.0521162880763
 30
0.0000000000000000
 11
695.8202696465647
 21
259.3777705841791
 31
0.0000000000000000
  0
LINE
  5
1DC
100
AcDbEntity
  8
MAIN0
  6
PHANTOM
 62
4
100
AcDbLine
 10
695.8202696465651
 20
259.3777705841792
 30
0.0000000000000000
 11
696.2724256398947
 21
262.8122363297786
 31
0.0000000000000000
  0
CIRCLE
  5
1DD
100
AcDbEntity
  8
MAIN0
  6
PHANTOM
 62
4
100
AcDbCircle
 10
673.8595515061783
 20
280.6990435870852
 30
0.0000000000000000
 40
6.500000000000000
  0
LINE
  5
1DE
100
AcDbEntity
  8
MAIN0
  6
PHANTOM
 62
4
100
AcDbLine
 10
675.1852058023603
 20
283.8994561678342
 30
0.0000000000000000
 11
671.7507400567498
 21
283.4473001745894
 31
0.0000000000000000
  0
LINE
  5
1DF
100
AcDbEntity
  8
MAIN0
  6
PHANTOM
 62
4
100
AcDbLine
 10
671.7507400567497
 20
283.4473001745892
 30
0.0000000000000000
 11
670.4250857605679
 21
280.2468875938405
 31
0.0000000000000000
  0
LINE
  5
1E0
100
AcDbEntity
  8
MAIN0
  6
PHANTOM
 62
4
100
AcDbLine
 10
670.4250857605678
 20
280.2468875938402
 30
0.0000000000000000
 11
672.5338972099964
 21
277.4986310063364
 31
0.0000000000000000
  0
LINE
  5
1E1
100
AcDbEntity
  8
MAIN0
  6
PHANTOM
 62
4
100
AcDbLine
 10
672.5338972099966
 20
277.4986310063368
 30
0.0000000000000000
 11
675.9683629556071
 21
277.9507869995816
 31
0.0000000000000000
  0
LINE
  5
1E2
100
AcDbEntity
  8
MAIN0
  6
PHANTOM
 62
4
100
AcDbLine
 10
675.9683629556072
 20
277.9507869995815
 30
0.0000000000000000
 11
677.2940172517890
 21
281.1511995803301
 31
0.0000000000000000
  0
LINE
  5
1E3
100
AcDbEntity
  8
MAIN0
  6
PHANTOM
 62
4
100
AcDbLine
 10
677.2940172517889
 20
281.1511995803299
 30
0.0000000000000000
 11
675.1852058023602
 21
283.8994561678337
 31
0.0000000000000000
  0
CIRCLE
  5
1E4
100
AcDbEntity
  8
MAIN0
  6
PHANTOM
 62
4
100
AcDbCircle
 10
660.2742896582387
 20
247.9013201865475
 30
0.0000000000000000
 40
20.00000000000000
  0
CIRCLE
  5
1E5
100
AcDbEntity
  8
MAIN0
  6
PHANTOM
 62
4
100
AcDbCircle
 10
660.2742896582394
 20
247.9013201865475
 30
0.0000000000000000
 40
57.50000000168808
  0
CIRCLE
  5
1E6
100
AcDbEntity
  8
MAIN0
  6
PHANTOM
 62
4
100
AcDbCircle
 10
660.2742896582394
 20
247.9013201865475
 30
0.0000000000000000
 40
72.49999999949279
  0
LINE
  5
1E7
100
AcDbEntity
  8
MAIN0
  6
PHANTOM
 62
4
100
AcDbLine
 10
422.3359100829648
 20
142.9013234636192
 30
0.0000000000000000
 11
423.3359101304650
 21
142.9013234636192
 31
0.0000000000000000
  0
LINE
  5
1E8
100
AcDbEntity
  8
MAIN0
  6
PHANTOM
 62
4
100
AcDbLine
 10
486.3359131227649
 20
330.4013234636194
 30
0.0000000000000000
 11
479.3359090994650
 21
330.4013234636194
 31
0.0000000000000000
  0
ARC
  5
1E9
100
AcDbEntity
  8
MAIN0
  6
PHANTOM
 62
4
100
AcDbCircle
 10
486.3359100829649
 20
327.4013201853194
 30
0.0000000000000000
 40
3.000000000000000
100
AcDbArc
 50
0.0000000000000000
 51
90.00000000000000
  0
LINE
  5
1EA
100
AcDbEntity
  8
MAIN0
  6
PHANTOM
 62
4
100
AcDbLine
 10
478.9949608230923
 20
213.5320042333195
 30
0.0000000000000000
 11
486.3359131227649
 21
213.5320042333195
 31
0.0000000000000000
  0
SPLINE
  5
1EB
100
AcDbEntity
  8
MAIN0
  6
PHANTOM
 62
4
100
AcDbSpline
210
0.0000000000000000
220
0.0000000000000000
230
1.000000000000000
 70
     8
 71
     3
 72
    22
 73
    18
 74
     0
 42
1.000000000000000e-007
 43
1.000000000000000e-007
 12
1.512968950916729
 22
0.0000000000000000
 32
0.0000000000000000
 13
0.0000000000000000
 23
1.467884877571123
 33
0.0000000000000000
 40
0.0000000000000000
 40
0.0000000000000000
 40
0.0000000000000000
 40
0.0000000000000000
 40
0.3975614384660705
 40
0.7852947817151387
 40
0.9781557285867886
 40
1.344855121181032
 40
1.519001487114394
 40
1.849377107875669
 40
2.005504324930922
 40
2.427830102090070
 40
2.660104289203865
 40
2.910605276081999
 40
2.980867983369457
 40
3.065956740749599
 40
3.091549019665169
 40
3.138485643841713
 40
3.182344338323258
 40
3.182344338323258
 40
3.182344338323258
 40
3.182344338323258
 10
486.3359100829585
 20
213.5320024733743
 30
0.0000000000000000
 10
486.5364094537854
 20
213.5320024733743
 30
0.0000000000000000
 10
486.7334236975990
 20
213.5363436986289
 30
0.0000000000000000
 10
487.1207843051093
 20
213.5533409106409
 30
0.0000000000000000
 10
487.3132146753683
 20
213.5662210282791
 30
0.0000000000000000
 10
487.6783846249301
 20
213.5996777535496
 30
0.0000000000000000
 10
487.8513254331065
 20
213.6201334039960
 30
0.0000000000000000
 10
488.1781490913532
 20
213.6684484865647
 30
0.0000000000000000
 10
488.3317505958322
 20
213.6964178577968
 30
0.0000000000000000
 10
488.7440427468324
 20
213.7879287548366
 30
0.0000000000000000
 10
488.9643734534344
 20
213.8614520690140
 30
0.0000000000000000
 10
489.1849459393289
 20
213.9801892699799
 30
0.0000000000000000
 10
489.2415762420256
 20
214.0217808178212
 30
0.0000000000000000
 10
489.2981212655541
 20
214.0853634958606
 30
0.0000000000000000
 10
489.3122508125576
 20
214.1067017394988
 30
0.0000000000000000
 10
489.3311488836199
 20
214.1496657895781
 30
0.0000000000000000
 10
489.3359100829585
 20
214.1715527662281
 30
0.0000000000000000
 10
489.3359100829585
 20
214.1930126043545
 30
0.0000000000000000
  0
LINE
  5
1EC
100
AcDbEntity
  8
MAIN0
  6
PHANTOM
 62
4
100
AcDbLine
 10
479.3359090994650
 20
351.9013169071194
 30
0.0000000000000000
 11
479.3359090994650
 21
288.2706361394481
 31
0.0000000000000000
  0
LINE
  5
1ED
100
AcDbEntity
  8
MAIN0
  6
CENTER
 62
4
100
AcDbLine
 10
459.9144100829649
 20
342.4013201853194
 30
0.0000000000000000
 11
442.7574100829648
 21
342.4013201853194
 31
0.0000000000000000
  0
LINE
  5
1EE
100
AcDbEntity
  8
MAIN0
  6
CENTER
 62
4
100
AcDbLine
 10
451.3359100829649
 20
350.9798201853193
 30
0.0000000000000000
 11
451.3359100829649
 21
333.8228201853193
 31
0.0000000000000000
  0
LINE
  5
1EF
100
AcDbEntity
  8
MAIN0
  6
PHANTOM
 62
4
100
AcDbLine
 10
423.3359101304649
 20
132.9013195904248
 30
0.0000000000000000
 11
489.3359117518648
 21
132.9013195903214
 31
0.0000000000000000
  0
LINE
  5
1F0
100
AcDbEntity
  8
MAIN0
  6
PHANTOM
 62
4
100
AcDbLine
 10
423.3359101304650
 20
120.4013195895271
 30
0.0000000000000000
 11
423.3359101304650
 21
142.9013234636192
 31
0.0000000000000000
  0
LINE
  5
1F1
100
AcDbEntity
  8
MAIN0
  6
PHANTOM
 62
4
100
AcDbLine
 10
423.3359100829648
 20
352.9013169071194
 30
0.0000000000000000
 11
478.3359090994650
 21
352.9013169071194
 31
0.0000000000000000
  0
LINE
  5
1F2
100
AcDbEntity
  8
MAIN0
  6
PHANTOM
 62
4
100
AcDbLine
 10
478.9949608230276
 20
282.2706361394474
 30
0.0000000000000000
 11
486.3359131228723
 21
282.2706361394244
 31
0.0000000000000000
  0
SPLINE
  5
1F3
100
AcDbEntity
  8
MAIN0
  6
PHANTOM
 62
4
100
AcDbSpline
210
0.0000000000000000
220
0.0000000000000000
230
1.000000000000000
 70
     8
 71
     3
 72
    22
 73
    18
 74
     0
 42
1.000000000000000e-007
 43
1.000000000000000e-007
 12
1.512968950916275
 22
-5.002220859751105e-012
 32
0.0000000000000000
 13
0.0000000000000000
 23
-1.467884877569304
 33
0.0000000000000000
 40
0.0000000000000000
 40
0.0000000000000000
 40
0.0000000000000000
 40
0.0000000000000000
 40
0.3975614384660705
 40
0.7852947817151387
 40
0.9781557285867886
 40
1.344855121181032
 40
1.519001487114394
 40
1.849377107875669
 40
2.005504324930922
 40
2.427830102090070
 40
2.660104289203865
 40
2.910605276081999
 40
2.980867983369457
 40
3.065956740749599
 40
3.091549019665169
 40
3.138485643841713
 40
3.182344338323258
 40
3.182344338323258
 40
3.182344338323258
 40
3.182344338323258
 10
486.3359100830663
 20
282.2706378993699
 30
0.0000000000000000
 10
486.5364094538932
 20
282.2706378993693
 30
0.0000000000000000
 10
486.7334236977068
 20
282.2662966741140
 30
0.0000000000000000
 10
487.1207843052171
 20
282.2492994621008
 30
0.0000000000000000
 10
487.3132146754757
 20
282.2364193444620
 30
0.0000000000000000
 10
487.6783846250378
 20
282.2029626191903
 30
0.0000000000000000
 10
487.8513254332138
 20
282.1825069687435
 30
0.0000000000000000
 10
488.1781490914605
 20
282.1341918861737
 30
0.0000000000000000
 10
488.3317505959395
 20
282.1062225149411
 30
0.0000000000000000
 10
488.7440427469392
 20
282.0147116179002
 30
0.0000000000000000
 10
488.9643734535408
 20
281.9411883037220
 30
0.0000000000000000
 10
489.1849459394353
 20
281.8224511027555
 30
0.0000000000000000
 10
489.2415762421315
 20
281.7808595549140
 30
0.0000000000000000
 10
489.2981212656601
 20
281.7172768768743
 30
0.0000000000000000
 10
489.3122508126635
 20
281.6959386332361
 30
0.0000000000000000
 10
489.3311488837258
 20
281.6529745831568
 30
0.0000000000000000
 10
489.3359100830640
 20
281.6310876065066
 30
0.0000000000000000
 10
489.3359100830640
 20
281.6096277683802
 30
0.0000000000000000
  0
LINE
  5
1F4
100
AcDbEntity
  8
MAIN0
  6
PHANTOM
 62
4
100
AcDbLine
 10
422.3359100829648
 20
174.4166309442750
 30
0.0000000000000000
 11
456.5708267379519
 21
174.4166309442750
 31
0.0000000000000000
  0
LINE
  5
1F5
100
AcDbEntity
  8
MAIN0
  6
PHANTOM
 62
4
100
AcDbLine
 10
473.1819214113584
 20
286.7845093621685
 30
0.0000000000000000
 11
466.2592257575182
 21
313.8628873889577
 31
0.0000000000000000
  0
LINE
  5
1F6
100
AcDbEntity
  8
MAIN0
  6
PHANTOM
 62
4
100
AcDbLine
 10
473.1819214113876
 20
209.0181310105390
 30
0.0000000000000000
 11
466.2592257574599
 21
181.9397529822429
 31
0.0000000000000000
  0
ARC
  5
1F7
100
AcDbEntity
  8
MAIN0
  6
PHANTOM
 62
4
100
AcDbCircle
 10
456.5708267380347
 20
311.3860094268254
 30
0.0000000000000000
 40
10.00000000000000
100
AcDbArc
 50
14.34072995393614
 51
90.00000000000000
  0
ARC
  5
1F8
100
AcDbEntity
  8
MAIN0
  6
PHANTOM
 62
4
100
AcDbCircle
 10
456.5708267379519
 20
184.4166309442750
 30
0.0000000000000000
 40
10.00000000000000
100
AcDbArc
 50
270.0000000000000
 51
345.6592700466547
  0
ARC
  5
1F9
100
AcDbEntity
  8
MAIN0
  6
PHANTOM
 62
4
100
AcDbCircle
 10
478.9949608230923
 20
207.5320042333195
 30
0.0000000000000000
 40
6.000000000000000
100
AcDbArc
 50
90.00000000000000
 51
165.6592700466544
  0
ARC
  5
1FA
100
AcDbEntity
  8
MAIN0
  6
PHANTOM
 62
4
100
AcDbCircle
 10
478.9949608230468
 20
288.2706361394477
 30
0.0000000000000000
 40
6.000000000000000
100
AcDbArc
 50
194.3407299539359
 51
270.0000000000000
  0
LINE
  5
1FB
100
AcDbEntity
  8
MAIN0
  6
PHANTOM
 62
4
100
AcDbLine
 10
423.3359100829649
 20
352.9013169071198
 30
0.0000000000000000
 11
422.3359100829645
 21
351.9013169071195
 31
0.0000000000000000
  0
LINE
  5
1FC
100
AcDbEntity
  8
MAIN0
  6
PHANTOM
 62
4
100
AcDbLine
 10
478.3359090994647
 20
352.9013169071196
 30
0.0000000000000000
 11
479.3359090994647
 21
351.9013169071196
 31
0.0000000000000000
  0
LINE
  5
1FD
100
AcDbEntity
  8
MAIN0
  6
PHANTOM
 62
4
100
AcDbLine
 10
423.3359101304649
 20
135.9013195885824
 30
0.0000000000000000
 11
489.3359117518650
 21
135.9013195886859
 31
0.0000000000000000
  0
LINE
  5
1FE
100
AcDbEntity
  8
MAIN0
  6
PHANTOM
 62
4
100
AcDbLine
 10
422.3359100829648
 20
142.9013234636192
 30
0.0000000000000000
 11
422.3359100829648
 21
211.3393955081139
 31
0.0000000000000000
  0
LINE
  5
1FF
100
AcDbEntity
  8
MAIN0
  6
PHANTOM
 62
4
100
AcDbLine
 10
422.3359100829648
 20
284.4632448648227
 30
0.0000000000000000
 11
422.3359100829648
 21
351.9013169071194
 31
0.0000000000000000
  0
LINE
  5
200
100
AcDbEntity
  8
MAIN0
  6
PHANTOM
 62
4
100
AcDbLine
 10
474.3359111558648
 20
213.5320024733743
 30
0.0000000000000000
 11
474.3359111558648
 21
216.4341661687456
 31
0.0000000000000000
  0
LINE
  5
201
100
AcDbEntity
  8
MAIN0
  6
PHANTOM
 62
4
100
AcDbLine
 10
474.3359111558648
 20
279.3684742040645
 30
0.0000000000000000
 11
474.3359111558648
 21
282.2706378994075
 31
0.0000000000000000
  0
LINE
  5
202
100
AcDbEntity
  8
MAIN0
  6
PHANTOM
 62
4
100
AcDbLine
 10
464.3359095166648
 20
216.3817720339940
 30
0.0000000000000000
 11
464.3359095166648
 21
184.4166309442750
 31
0.0000000000000000
  0
LINE
  5
203
100
AcDbEntity
  8
MAIN0
  6
PHANTOM
 62
4
100
AcDbLine
 10
464.3359095166648
 20
311.3860094268254
 30
0.0000000000000000
 11
464.3359095166648
 21
279.4208683387943
 31
0.0000000000000000
  0
LINE
  5
204
100
AcDbEntity
  8
MAIN0
  6
PHANTOM
 62
4
100
AcDbLine
 10
489.3359117518649
 20
120.4013195896003
 30
0.0000000000000000
 11
489.3359117518649
 21
216.4018753728556
 31
0.0000000000000000
  0
LINE
  5
205
100
AcDbEntity
  8
MAIN0
  6
PHANTOM
 62
4
100
AcDbLine
 10
489.3359117518649
 20
279.4007649998562
 30
0.0000000000000000
 11
489.3359117518649
 21
327.4013173839195
 31
0.0000000000000000
  0
LINE
  5
206
100
AcDbEntity
  8
MAIN0
  6
CENTER
 62
4
100
AcDbLine
 10
345.9108560767292
 20
247.9013201865844
 30
0.0000000000000000
 11
430.1359146706564
 21
247.9013201864524
 31
0.0000000000000000
  0
LINE
  5
207
100
AcDbEntity
  8
MAIN0
  6
CENTER
 62
4
100
AcDbLine
 10
442.3359144799215
 20
247.9013201864332
 30
0.0000000000000000
 11
492.3359117498962
 21
247.9013201863549
 31
0.0000000000000000
  0
LINE
  5
208
100
AcDbEntity
  8
MAIN0
  6
PHANTOM
 62
4
100
AcDbLine
 10
489.3359117518650
 20
305.4013201858310
 30
0.0000000000000000
 11
489.7359117497927
 21
305.4013201859894
 31
0.0000000000000000
  0
LINE
  5
209
100
AcDbEntity
  8
MAIN0
  6
PHANTOM
 62
4
100
AcDbLine
 10
489.7359117499836
 20
305.4013201859913
 30
0.0000000000000000
 11
491.3359117497928
 21
304.4775597552845
 31
0.0000000000000000
  0
LINE
  5
20A
100
AcDbEntity
  8
MAIN0
  6
PHANTOM
 62
4
100
AcDbLine
 10
489.3359117518649
 20
190.4013201869037
 30
0.0000000000000000
 11
489.7359117496339
 21
190.4013201869059
 31
0.0000000000000000
  0
LINE
  5
20B
100
AcDbEntity
  8
MAIN0
  6
PHANTOM
 62
4
100
AcDbLine
 10
489.7359117498251
 20
190.4013201869036
 30
0.0000000000000000
 11
491.3359117497928
 21
191.3250806175863
 31
0.0000000000000000
  0
LINE
  5
20C
100
AcDbEntity
  8
MAIN0
  6
PHANTOM
 62
4
100
AcDbLine
 10
491.3359117499060
 20
191.3250806176999
 30
0.0000000000000000
 11
491.3359117499060
 21
250.5362953828027
 31
0.0000000000000000
  0
LINE
  5
20D
100
AcDbEntity
  8
MAIN0
  6
PHANTOM
 62
4
100
AcDbLine
 10
491.3359117499059
 20
257.9461223142830
 30
0.0000000000000000
 11
491.3359117499059
 21
304.4775597551717
 31
0.0000000000000000
  0
LINE
  5
20E
100
AcDbEntity
  8
MAIN0
  6
PHANTOM
 62
4
100
AcDbLine
 10
421.9359100829374
 20
144.4013201918665
 30
0.0000000000000000
 11
412.7359100829365
 21
144.4013201917905
 31
0.0000000000000000
  0
LINE
  5
20F
100
AcDbEntity
  8
MAIN0
  6
PHANTOM
 62
4
100
AcDbLine
 10
412.3359100832568
 20
351.0013201811732
 30
0.0000000000000000
 11
412.7359100832612
 21
351.4013201811688
 31
0.0000000000000000
  0
LINE
  5
210
100
AcDbEntity
  8
MAIN0
  6
PHANTOM
 62
4
100
AcDbLine
 10
421.9359100821769
 20
351.4013201828198
 30
0.0000000000000000
 11
412.7359100821766
 21
351.4013201828147
 31
0.0000000000000000
  0
LINE
  5
211
100
AcDbEntity
  8
MAIN0
  6
PHANTOM
 62
4
100
AcDbLine
 10
412.7359100821757
 20
351.4013201828145
 30
0.0000000000000000
 11
412.3359100821755
 21
351.0013201828143
 31
0.0000000000000000
  0
LINE
  5
212
100
AcDbEntity
  8
MAIN0
  6
PHANTOM
 62
4
100
AcDbLine
 10
421.9359100821767
 20
351.4013201828202
 30
0.0000000000000000
 11
422.3359100821764
 21
351.0013201828202
 31
0.0000000000000000
  0
LINE
  5
213
100
AcDbEntity
  8
MAIN0
  6
PHANTOM
 62
4
100
AcDbLine
 10
421.9359100829373
 20
144.4013201918661
 30
0.0000000000000000
 11
422.3359100829342
 21
144.8013201918695
 31
0.0000000000000000
  0
LINE
  5
214
100
AcDbEntity
  8
MAIN0
  6
PHANTOM
 62
4
100
AcDbLine
 10
422.3359100829337
 20
144.8013201918698
 30
0.0000000000000000
 11
422.3359100829451
 21
211.3393955081151
 31
0.0000000000000000
  0
LINE
  5
215
100
AcDbEntity
  8
MAIN0
  6
PHANTOM
 62
4
100
AcDbLine
 10
422.3359100829578
 20
284.4632448648221
 30
0.0000000000000000
 11
422.3359100829692
 21
351.0013201820269
 31
0.0000000000000000
  0
LINE
  5
216
100
AcDbEntity
  8
MAIN0
  6
PHANTOM
 62
4
100
AcDbLine
 10
412.3359100829258
 20
144.8013201917870
 30
0.0000000000000000
 11
412.3359100829438
 21
217.9013201856526
 31
0.0000000000000000
  0
LINE
  5
217
100
AcDbEntity
  8
MAIN0
  6
PHANTOM
 62
4
100
AcDbLine
 10
412.3359100829586
 20
277.9013201877198
 30
0.0000000000000000
 11
412.3359100829767
 21
351.0013201836160
 31
0.0000000000000000
  0
LINE
  5
218
100
AcDbEntity
  8
MAIN0
  6
PHANTOM
 62
4
100
AcDbLine
 10
454.3359100829649
 20
340.6692693777505
 30
0.0000000000000000
 11
454.3359100829649
 21
344.1333709928882
 31
0.0000000000000000
  0
LINE
  5
219
100
AcDbEntity
  8
MAIN0
  6
PHANTOM
 62
4
100
AcDbLine
 10
451.3359100829647
 20
345.8654218004570
 30
0.0000000000000000
 11
454.3359100829648
 21
344.1333709928881
 31
0.0000000000000000
  0
LINE
  5
21A
100
AcDbEntity
  8
MAIN0
  6
PHANTOM
 62
4
100
AcDbLine
 10
448.3359100829647
 20
340.6692693777502
 30
0.0000000000000000
 11
451.3359100829647
 21
338.9372185701812
 31
0.0000000000000000
  0
LINE
  5
21B
100
AcDbEntity
  8
MAIN0
  6
PHANTOM
 62
4
100
AcDbLine
 10
448.3359100829647
 20
340.6692693777505
 30
0.0000000000000000
 11
448.3359100829647
 21
344.1333709928882
 31
0.0000000000000000
  0
LINE
  5
21C
100
AcDbEntity
  8
MAIN0
  6
PHANTOM
 62
4
100
AcDbLine
 10
448.3359100829648
 20
344.1333709928881
 30
0.0000000000000000
 11
451.3359100829647
 21
345.8654218004570
 31
0.0000000000000000
  0
LINE
  5
21D
100
AcDbEntity
  8
MAIN0
  6
PHANTOM
 62
4
100
AcDbLine
 10
451.3359100829649
 20
338.9372185701814
 30
0.0000000000000000
 11
454.3359100829651
 21
340.6692693777504
 31
0.0000000000000000
  0
CIRCLE
  5
21E
100
AcDbEntity
  8
MAIN0
  6
PHANTOM
 62
4
100
AcDbCircle
 10
451.3359100829649
 20
342.4013201853194
 30
0.0000000000000000
 40
5.722499999999997
  0
CIRCLE
  5
21F
100
AcDbEntity
  8
MAIN0
  6
PHANTOM
 62
4
100
AcDbCircle
 10
451.3359100829649
 20
342.4013201853194
 30
0.0000000000000000
 40
6.578499999999998
  0
LINE
  5
220
100
AcDbEntity
  8
MAIN0
  6
PHANTOM
 62
4
100
AcDbLine
 10
481.8359117519606
 20
272.9013201863212
 30
0.0000000000000000
 11
490.7359117497927
 21
272.9013201863014
 31
0.0000000000000000
  0
LINE
  5
221
100
AcDbEntity
  8
MAIN0
  6
PHANTOM
 62
4
100
AcDbLine
 10
481.8359117519606
 20
222.9013201862957
 30
0.0000000000000000
 11
490.7359117497926
 21
222.9013201863156
 31
0.0000000000000000
  0
LINE
  5
222
100
AcDbEntity
  8
MAIN0
  6
PHANTOM
 62
4
100
AcDbLine
 10
490.7359117497924
 20
272.9013201863012
 30
0.0000000000000000
 11
491.3359117497929
 21
273.5013201863002
 31
0.0000000000000000
  0
LINE
  5
223
100
AcDbEntity
  8
MAIN0
  6
PHANTOM
 62
4
100
AcDbLine
 10
490.7359117497934
 20
222.9013201863156
 30
0.0000000000000000
 11
491.3359117497935
 21
222.3013201863168
 31
0.0000000000000000
  0
LINE
  5
224
100
AcDbEntity
  8
MAIN0
  6
PHANTOM
 62
4
100
AcDbLine
 10
414.3359117520059
 20
227.9013201864295
 30
0.0000000000000000
 11
422.3359117520059
 21
227.9013201864295
 31
0.0000000000000000
  0
LINE
  5
225
100
AcDbEntity
  8
MAIN0
  6
PHANTOM
 62
4
100
AcDbLine
 10
412.3359117520058
 20
226.7466196480045
 30
0.0000000000000000
 11
414.3359117520992
 21
227.9013201864377
 31
0.0000000000000000
  0
LINE
  5
226
100
AcDbEntity
  8
MAIN0
  6
PHANTOM
 62
4
100
AcDbLine
 10
412.3359117520057
 20
269.0560207249384
 30
0.0000000000000000
 11
414.3359117520055
 21
267.9013201865587
 31
0.0000000000000000
  0
LINE
  5
227
100
AcDbEntity
  8
MAIN0
  6
PHANTOM
 62
4
100
AcDbLine
 10
414.3359117520059
 20
267.9013201864295
 30
0.0000000000000000
 11
422.3359117520059
 21
267.9013201864295
 31
0.0000000000000000
  0
LINE
  5
228
100
AcDbEntity
  8
MAIN0
  6
PHANTOM
 62
4
100
AcDbLine
 10
422.3359117520059
 20
267.9013201863309
 30
0.0000000000000000
 11
480.8359117519606
 21
267.9013201863309
 31
0.0000000000000000
  0
LINE
  5
229
100
AcDbEntity
  8
MAIN0
  6
PHANTOM
 62
4
100
AcDbLine
 10
422.3359117520059
 20
227.9013201863311
 30
0.0000000000000000
 11
480.8359117519606
 21
227.9013201863311
 31
0.0000000000000000
  0
LINE
  5
22A
100
AcDbEntity
  8
MAIN0
  6
PHANTOM
 62
4
100
AcDbLine
 10
480.2359117519921
 20
272.9013201864348
 30
0.0000000000000000
 11
461.3359117516787
 21
272.9013201864348
 31
0.0000000000000000
  0
LINE
  5
22B
100
AcDbEntity
  8
MAIN0
  6
PHANTOM
 62
4
100
AcDbLine
 10
480.2359117519917
 20
272.9013201864353
 30
0.0000000000000000
 11
481.8359117519603
 21
271.9775597557530
 31
0.0000000000000000
  0
LINE
  5
22C
100
AcDbEntity
  8
MAIN0
  6
PHANTOM
 62
4
100
AcDbLine
 10
412.3359117520055
 20
276.9775597556828
 30
0.0000000000000000
 11
413.9359117542433
 21
277.9013201876785
 31
0.0000000000000000
  0
LINE
  5
22D
100
AcDbEntity
  8
MAIN0
  6
PHANTOM
 62
4
100
AcDbLine
 10
412.3359117520057
 20
218.8250806171865
 30
0.0000000000000000
 11
413.9359117534741
 21
217.9013201856350
 31
0.0000000000000000
  0
LINE
  5
22E
100
AcDbEntity
  8
MAIN0
  6
PHANTOM
 62
4
100
AcDbLine
 10
413.9359117542441
 20
277.9013201876790
 30
0.0000000000000000
 11
424.3359117531273
 21
277.9013201874141
 31
0.0000000000000000
  0
LINE
  5
22F
100
AcDbEntity
  8
MAIN0
  6
PHANTOM
 62
4
100
AcDbLine
 10
413.9359117534740
 20
217.9013201856350
 30
0.0000000000000000
 11
424.3359117542831
 21
217.9013201855209
 31
0.0000000000000000
  0
LINE
  5
230
100
AcDbEntity
  8
MAIN0
  6
PHANTOM
 62
4
100
AcDbLine
 10
480.2359117517930
 20
222.9013201864619
 30
0.0000000000000000
 11
461.3359117514796
 21
222.9013201866125
 31
0.0000000000000000
  0
LINE
  5
231
100
AcDbEntity
  8
MAIN0
  6
PHANTOM
 62
4
100
AcDbLine
 10
480.2359117517925
 20
222.9013201864616
 30
0.0000000000000000
 11
481.8359117517693
 21
223.8250806171315
 31
0.0000000000000000
  0
LINE
  5
232
100
AcDbEntity
  8
MAIN0
  6
PHANTOM
 62
4
100
AcDbLine
 10
481.8359117519610
 20
268.9013201863311
 30
0.0000000000000000
 11
480.8359117519612
 21
267.9013201863313
 31
0.0000000000000000
  0
LINE
  5
233
100
AcDbEntity
  8
MAIN0
  6
PHANTOM
 62
4
100
AcDbLine
 10
481.8359117519613
 20
226.9013201863317
 30
0.0000000000000000
 11
480.8359117519613
 21
227.9013201863317
 31
0.0000000000000000
  0
LINE
  5
234
100
AcDbEntity
  8
MAIN0
  6
PHANTOM
 62
4
100
AcDbLine
 10
412.6359117520061
 20
275.9013201864375
 30
0.0000000000000000
 11
423.3359117520059
 21
275.9013201864375
 31
0.0000000000000000
  0
LINE
  5
235
100
AcDbEntity
  8
MAIN0
  6
PHANTOM
 62
4
100
AcDbLine
 10
413.1359117520061
 20
275.4013201864375
 30
0.0000000000000000
 11
428.3359117520059
 21
275.4013201864375
 31
0.0000000000000000
  0
LINE
  5
236
100
AcDbEntity
  8
MAIN0
  6
PHANTOM
 62
4
100
AcDbLine
 10
428.3359117520059
 20
270.4013201864375
 30
0.0000000000000000
 11
413.1359117520061
 21
270.4013201864375
 31
0.0000000000000000
  0
LINE
  5
237
100
AcDbEntity
  8
MAIN0
  6
PHANTOM
 62
4
100
AcDbLine
 10
423.3359117520059
 20
269.9013201864375
 30
0.0000000000000000
 11
412.6359117520061
 21
269.9013201864375
 31
0.0000000000000000
  0
LINE
  5
238
100
AcDbEntity
  8
MAIN0
  6
PHANTOM
 62
4
100
AcDbLine
 10
423.3359117520059
 20
275.9013201864375
 30
0.0000000000000000
 11
423.3359117520059
 21
269.9013201864375
 31
0.0000000000000000
  0
LINE
  5
239
100
AcDbEntity
  8
MAIN0
  6
PHANTOM
 62
4
100
AcDbLine
 10
428.3359117520059
 20
275.4013201864375
 30
0.0000000000000000
 11
428.3359117520059
 21
270.4013201864375
 31
0.0000000000000000
  0
LINE
  5
23A
100
AcDbEntity
  8
MAIN0
  6
PHANTOM
 62
4
100
AcDbLine
 10
429.7792874249796
 20
272.9013201864373
 30
0.0000000000000000
 11
428.3359117520056
 21
270.4013201864372
 31
0.0000000000000000
  0
LINE
  5
23B
100
AcDbEntity
  8
MAIN0
  6
PHANTOM
 62
4
100
AcDbLine
 10
428.3359117520046
 20
275.4013201864369
 30
0.0000000000000000
 11
429.7792874249787
 21
272.9013201864368
 31
0.0000000000000000
  0
LINE
  5
23C
100
AcDbEntity
  8
MAIN0
  6
PHANTOM
 62
4
100
AcDbLine
 10
413.1359117520061
 20
275.4013201864375
 30
0.0000000000000000
 11
413.1359117520061
 21
270.4013201864375
 31
0.0000000000000000
  0
LINE
  5
23D
100
AcDbEntity
  8
MAIN0
  6
PHANTOM
 62
4
100
AcDbLine
 10
413.1359117520062
 20
270.4013201864377
 30
0.0000000000000000
 11
412.3359117520060
 21
269.6013201864375
 31
0.0000000000000000
  0
LINE
  5
23E
100
AcDbEntity
  8
MAIN0
  6
PHANTOM
 62
4
100
AcDbLine
 10
412.3359117520063
 20
276.2013201864380
 30
0.0000000000000000
 11
413.1359117520063
 21
275.4013201864378
 31
0.0000000000000000
  0
LINE
  5
23F
100
AcDbEntity
  8
MAIN0
  6
CENTER
 62
4
100
AcDbLine
 10
410.7058630356570
 20
272.9013201864450
 30
0.0000000000000000
 11
431.6252828067285
 21
272.9013201864235
 31
0.0000000000000000
  0
LINE
  5
240
100
AcDbEntity
  8
MAIN0
  6
PHANTOM
 62
4
100
AcDbLine
 10
412.3359117520059
 20
218.8250806171864
 30
0.0000000000000000
 11
412.3359117520059
 21
226.7466196480045
 31
0.0000000000000000
  0
LINE
  5
241
100
AcDbEntity
  8
MAIN0
  6
PHANTOM
 62
4
100
AcDbLine
 10
412.3359117520059
 20
269.0560207249384
 30
0.0000000000000000
 11
412.3359117520059
 21
276.9775597556832
 31
0.0000000000000000
  0
LINE
  5
242
100
AcDbEntity
  8
MAIN0
  6
PHANTOM
 62
4
100
AcDbLine
 10
414.3359117520059
 20
228.4013201864599
 30
0.0000000000000000
 11
414.3359117520059
 21
227.9013201864375
 31
0.0000000000000000
  0
LINE
  5
243
100
AcDbEntity
  8
MAIN0
  6
PHANTOM
 62
4
100
AcDbLine
 10
414.3359117520059
 20
267.9013201864375
 30
0.0000000000000000
 11
414.3359117520059
 21
267.4013201864598
 31
0.0000000000000000
  0
LINE
  5
244
100
AcDbEntity
  8
MAIN0
  6
PHANTOM
 62
4
100
AcDbLine
 10
422.3359117520059
 20
228.4013201864598
 30
0.0000000000000000
 11
422.3359117520059
 21
227.9013201863481
 31
0.0000000000000000
  0
LINE
  5
245
100
AcDbEntity
  8
MAIN0
  6
PHANTOM
 62
4
100
AcDbLine
 10
422.3359117520059
 20
267.9013201863479
 30
0.0000000000000000
 11
422.3359117520059
 21
267.4013201864598
 31
0.0000000000000000
  0
LINE
  5
246
100
AcDbEntity
  8
MAIN0
  6
PHANTOM
 62
4
100
AcDbLine
 10
481.8359117519606
 20
223.8250806171172
 30
0.0000000000000000
 11
481.8359117519606
 21
226.9013201863317
 31
0.0000000000000000
  0
LINE
  5
247
100
AcDbEntity
  8
MAIN0
  6
PHANTOM
 62
4
100
AcDbLine
 10
481.8359117519606
 20
268.9013201863310
 30
0.0000000000000000
 11
481.8359117519606
 21
271.9775597557521
 31
0.0000000000000000
  0
LINE
  5
248
100
AcDbEntity
  8
MAIN0
  6
PHANTOM
 62
4
100
AcDbLine
 10
422.3359101304649
 20
120.4013195895260
 30
0.0000000000000000
 11
422.3359101304649
 21
130.9013195895865
 31
0.0000000000000000
  0
LINE
  5
249
100
AcDbEntity
  8
MAIN0
  6
PHANTOM
 62
4
100
AcDbLine
 10
422.3359101304649
 20
130.9013195895865
 30
0.0000000000000000
 11
423.3359101304650
 21
130.9013195895855
 31
0.0000000000000000
  0
LINE
  5
24A
100
AcDbEntity
  8
MAIN0
  6
PHANTOM
 62
4
100
AcDbLine
 10
422.3359101304649
 20
123.1513195895866
 30
0.0000000000000000
 11
421.3359101304649
 21
123.1513195895866
 31
0.0000000000000000
  0
ARC
  5
24B
100
AcDbEntity
  8
MAIN0
  6
PHANTOM
 62
4
100
AcDbCircle
 10
421.3359101304649
 20
122.1513195895866
 30
0.0000000000000000
 40
1.000000000000000
100
AcDbArc
 50
90.00000000000000
 51
180.0000000000000
  0
LINE
  5
24C
100
AcDbEntity
  8
MAIN0
  6
PHANTOM
 62
4
100
AcDbLine
 10
420.3359101304649
 20
122.1513195895866
 30
0.0000000000000000
 11
420.3359101304649
 21
120.4013195895238
 31
0.0000000000000000
  0
LINE
  5
24D
100
AcDbEntity
  8
MAIN0
  6
CONTINUOUS
 62
3
100
AcDbLine
 10
364.3359144801240
 20
286.9013201866075
 30
0.0000000000000000
 11
364.3359144801409
 21
292.3013201866073
 31
0.0000000000000000
  0
LINE
  5
24E
100
AcDbEntity
  8
MAIN0
  6
CONTINUOUS
 62
3
100
AcDbLine
 10
364.3359144801410
 20
292.3013201866073
 30
0.0000000000000000
 11
363.2966839956017
 21
292.9013201866105
 31
0.0000000000000000
  0
LINE
  5
24F
100
AcDbEntity
  8
MAIN0
  6
CONTINUOUS
 62
3
100
AcDbLine
 10
363.2966839956014
 20
292.9013201866107
 30
0.0000000000000000
 11
355.3751449646841
 21
292.9013201866355
 31
0.0000000000000000
  0
LINE
  5
250
100
AcDbEntity
  8
MAIN0
  6
CONTINUOUS
 62
3
100
AcDbLine
 10
355.3751449646837
 20
292.9013201866356
 30
0.0000000000000000
 11
354.3359144801403
 21
292.3013201866388
 31
0.0000000000000000
  0
LINE
  5
251
100
AcDbEntity
  8
MAIN0
  6
CONTINUOUS
 62
3
100
AcDbLine
 10
354.3359144801409
 20
292.3013201866386
 30
0.0000000000000000
 11
354.3359144801240
 21
286.9013201866388
 31
0.0000000000000000
  0
LINE
  5
252
100
AcDbEntity
  8
MAIN0
  6
CONTINUOUS
 62
3
100
AcDbLine
 10
364.3359144801409
 20
292.3013201866073
 30
0.0000000000000000
 11
354.3359144801409
 21
292.3013201866386
 31
0.0000000000000000
  0
LINE
  5
253
100
AcDbEntity
  8
MAIN0
  6
CONTINUOUS
 62
3
100
AcDbLine
 10
362.3359144801000
 20
279.2255567135256
 30
0.0000000000000000
 11
362.3359144800832
 21
273.9013201866139
 31
0.0000000000000000
  0
LINE
  5
254
100
AcDbEntity
  8
MAIN0
  6
CONTINUOUS
 62
3
100
AcDbLine
 10
362.3359144801240
 20
286.9013201866137
 30
0.0000000000000000
 11
362.3359144801142
 21
283.7255567135256
 31
0.0000000000000000
  0
LINE
  5
255
100
AcDbEntity
  8
MAIN0
  6
CONTINUOUS
 62
4
100
AcDbLine
 10
361.7946484800999
 20
279.2255567135273
 30
0.0000000000000000
 11
361.7946484800830
 21
273.9013201866156
 31
0.0000000000000000
  0
LINE
  5
256
100
AcDbEntity
  8
MAIN0
  6
CONTINUOUS
 62
4
100
AcDbLine
 10
361.7946484801238
 20
286.9013201866154
 30
0.0000000000000000
 11
361.7946484801140
 21
283.7255567135273
 31
0.0000000000000000
  0
LINE
  5
257
100
AcDbEntity
  8
MAIN0
  6
CONTINUOUS
 62
4
100
AcDbLine
 10
356.8771804800998
 20
279.2255567135427
 30
0.0000000000000000
 11
356.8771804800829
 21
273.9013201866310
 31
0.0000000000000000
  0
LINE
  5
258
100
AcDbEntity
  8
MAIN0
  6
CONTINUOUS
 62
4
100
AcDbLine
 10
356.8771804801237
 20
286.9013201866308
 30
0.0000000000000000
 11
356.8771804801139
 21
283.7255567135427
 31
0.0000000000000000
  0
LINE
  5
259
100
AcDbEntity
  8
MAIN0
  6
CONTINUOUS
 62
3
100
AcDbLine
 10
356.3359144800832
 20
273.9013201866327
 30
0.0000000000000000
 11
356.3359144801000
 21
279.2255567135445
 31
0.0000000000000000
  0
LINE
  5
25A
100
AcDbEntity
  8
MAIN0
  6
CONTINUOUS
 62
3
100
AcDbLine
 10
356.3359144801142
 20
283.7255567135445
 30
0.0000000000000000
 11
356.3359144801240
 21
286.9013201866325
 31
0.0000000000000000
  0
LINE
  5
25B
100
AcDbEntity
  8
MAIN0
  6
CONTINUOUS
 62
3
100
AcDbLine
 10
353.5624117881340
 20
268.9013201866414
 30
0.0000000000000000
 11
353.5624117881470
 21
273.0679868533080
 31
0.0000000000000000
  0
LINE
  5
25C
100
AcDbEntity
  8
MAIN0
  6
CONTINUOUS
 62
3
100
AcDbLine
 10
365.1094171719266
 20
268.9013201866052
 30
0.0000000000000000
 11
365.1094171719396
 21
273.0679868532718
 31
0.0000000000000000
  0
LINE
  5
25D
100
AcDbEntity
  8
MAIN0
  6
CONTINUOUS
 62
3
100
AcDbLine
 10
356.4491631340952
 20
273.0679868532989
 30
0.0000000000000000
 11
356.4491631340821
 21
268.9013201866324
 31
0.0000000000000000
  0
LINE
  5
25E
100
AcDbEntity
  8
MAIN0
  6
CONTINUOUS
 62
3
100
AcDbLine
 10
362.2226658259914
 20
273.0679868532808
 30
0.0000000000000000
 11
362.2226658259784
 21
268.9013201866143
 31
0.0000000000000000
  0
LINE
  5
25F
100
AcDbEntity
  8
MAIN0
  6
CONTINUOUS
 62
3
100
AcDbLine
 10
355.0057874611237
 20
273.9013201866369
 30
0.0000000000000000
 11
363.6660414989681
 21
273.9013201866098
 31
0.0000000000000000
  0
ARC
  5
260
100
AcDbEntity
  8
MAIN0
  6
CONTINUOUS
 62
3
100
AcDbCircle
 10
355.0057874611185
 20
272.2346535199703
 30
0.0000000000000000
 40
1.666666666666675
100
AcDbArc
 50
29.99999999982048
 51
149.9999999998204
  0
ARC
  5
261
100
AcDbEntity
  8
MAIN0
  6
CONTINUOUS
 62
3
100
AcDbCircle
 10
359.3359144800289
 20
268.4846535199566
 30
0.0000000000000000
 40
5.416666666666660
100
AcDbArc
 50
57.79577249584816
 51
122.2042275037919
  0
ARC
  5
262
100
AcDbEntity
  8
MAIN0
  6
CONTINUOUS
 62
3
100
AcDbCircle
 10
363.6660414989629
 20
272.2346535199432
 30
0.0000000000000000
 40
1.666666666666724
100
AcDbArc
 50
29.99999999982058
 51
149.9999999998213
  0
LINE
  5
263
100
AcDbEntity
  8
MAIN0
  6
CONTINUOUS
 62
3
100
AcDbLine
 10
407.8359100841101
 20
348.4755567133697
 30
0.0000000000000000
 11
406.2359100841101
 21
348.4755567133747
 31
0.0000000000000000
  0
LINE
  5
264
100
AcDbEntity
  8
MAIN0
  6
CONTINUOUS
 62
3
100
AcDbLine
 10
406.2359100841101
 20
348.4755567133747
 30
0.0000000000000000
 11
406.2359100840709
 21
335.9755567133747
 31
0.0000000000000000
  0
LINE
  5
265
100
AcDbEntity
  8
MAIN0
  6
CONTINUOUS
 62
3
100
AcDbLine
 10
406.2359100840709
 20
335.9755567133747
 30
0.0000000000000000
 11
407.8359100840709
 21
335.9755567133697
 31
0.0000000000000000
  0
POINT
  5
266
100
AcDbEntity
  8
MAIN0
  6
CONTINUOUS
 62
5
100
AcDbPoint
 10
406.2359100840905
 20
342.2255567133747
 30
0.0000000000000000
  0
LINE
  5
267
100
AcDbEntity
  8
MAIN0
  6
CONTINUOUS
 62
3
100
AcDbLine
 10
406.2359100841096
 20
348.3255567133747
 30
0.0000000000000000
 11
404.7359100841096
 21
348.3255567133793
 31
0.0000000000000000
  0
LINE
  5
268
100
AcDbEntity
  8
MAIN0
  6
CONTINUOUS
 62
3
100
AcDbLine
 10
404.7359100841096
 20
348.3255567133793
 30
0.0000000000000000
 11
404.7359100840714
 21
336.1255567133793
 31
0.0000000000000000
  0
LINE
  5
269
100
AcDbEntity
  8
MAIN0
  6
CONTINUOUS
 62
3
100
AcDbLine
 10
404.7359100840714
 20
336.1255567133793
 30
0.0000000000000000
 11
406.2359100840714
 21
336.1255567133746
 31
0.0000000000000000
  0
LINE
  5
26A
100
AcDbEntity
  8
MAIN0
  6
CONTINUOUS
 62
3
100
AcDbLine
 10
406.2359100840928
 20
342.9755567133747
 30
0.0000000000000000
 11
404.7359100840881
 21
341.4755567133793
 31
0.0000000000000000
  0
POINT
  5
26B
100
AcDbEntity
  8
MAIN0
  6
CONTINUOUS
 62
5
100
AcDbPoint
 10
404.7359100840905
 20
342.2255567133793
 30
0.0000000000000000
  0
LINE
  5
26C
100
AcDbEntity
  8
MAIN0
  6
CONTINUOUS
 62
3
100
AcDbLine
 10
404.7359100840748
 20
337.2255567133793
 30
0.0000000000000000
 11
399.3359100840748
 21
337.2255567133963
 31
0.0000000000000000
  0
LINE
  5
26D
100
AcDbEntity
  8
MAIN0
  6
CONTINUOUS
 62
3
100
AcDbLine
 10
399.3359100840747
 20
337.2255567133961
 30
0.0000000000000000
 11
398.7359100840780
 21
338.2647871979393
 31
0.0000000000000000
  0
LINE
  5
26E
100
AcDbEntity
  8
MAIN0
  6
CONTINUOUS
 62
3
100
AcDbLine
 10
398.7359100840781
 20
338.2647871979394
 30
0.0000000000000000
 11
398.7359100841029
 21
346.1863262288568
 31
0.0000000000000000
  0
LINE
  5
26F
100
AcDbEntity
  8
MAIN0
  6
CONTINUOUS
 62
3
100
AcDbLine
 10
398.7359100841031
 20
346.1863262288567
 30
0.0000000000000000
 11
399.3359100841064
 21
347.2255567133961
 31
0.0000000000000000
  0
LINE
  5
270
100
AcDbEntity
  8
MAIN0
  6
CONTINUOUS
 62
3
100
AcDbLine
 10
399.3359100841062
 20
347.2255567133963
 30
0.0000000000000000
 11
404.7359100841061
 21
347.2255567133793
 31
0.0000000000000000
  0
LINE
  5
271
100
AcDbEntity
  8
MAIN0
  6
CONTINUOUS
 62
3
100
AcDbLine
 10
399.3359100840748
 20
337.2255567133963
 30
0.0000000000000000
 11
399.3359100841062
 21
347.2255567133963
 31
0.0000000000000000
  0
LINE
  5
272
100
AcDbEntity
  8
MAIN0
  6
CONTINUOUS
 62
3
100
AcDbLine
 10
466.3359144798748
 20
247.9013201863564
 30
0.0000000000000000
 11
466.3359144797576
 21
266.8013201862738
 31
0.0000000000000000
  0
LINE
  5
273
100
AcDbEntity
  8
MAIN0
  6
CONTINUOUS
 62
3
100
AcDbLine
 10
466.3359144798749
 20
247.9013201863561
 30
0.0000000000000000
 11
466.3359144799140
 21
229.0013201862739
 31
0.0000000000000000
  0
LINE
  5
274
100
AcDbEntity
  8
MAIN0
  6
CONTINUOUS
 62
4
100
AcDbLine
 10
418.8359144797715
 20
266.1513201860998
 30
0.0000000000000000
 11
419.3359144797715
 21
266.1513201861018
 31
0.0000000000000000
  0
LINE
  5
275
100
AcDbEntity
  8
MAIN0
  6
CONTINUOUS
 62
4
100
AcDbLine
 10
418.8359144799227
 20
229.6513201861000
 30
0.0000000000000000
 11
419.3359144799227
 21
229.6513201861021
 31
0.0000000000000000
  0
ARC
  5
276
100
AcDbEntity
  8
MAIN0
  6
CONTINUOUS
 62
3
100
AcDbCircle
 10
463.3359144799008
 20
235.9013201862615
 30
0.0000000000000000
 40
3.000000000000000
100
AcDbArc
 50
2.369386015503061e-010
 51
90.00000000023705
  0
ARC
  5
277
100
AcDbEntity
  8
MAIN0
  6
CONTINUOUS
 62
3
100
AcDbCircle
 10
463.3359144798017
 20
259.9013201862614
 30
0.0000000000000000
 40
3.000000000000000
100
AcDbArc
 50
270.0000000002370
 51
360.0000000002370
  0
LINE
  5
278
100
AcDbEntity
  8
MAIN0
  6
CONTINUOUS
 62
3
100
AcDbLine
 10
482.3359117498314
 20
265.9013201863399
 30
0.0000000000000000
 11
485.9359117498314
 21
265.9013201863548
 31
0.0000000000000000
  0
LINE
  5
279
100
AcDbEntity
  8
MAIN0
  6
CONTINUOUS
 62
3
100
AcDbLine
 10
466.9359144797539
 20
267.4013201862763
 30
0.0000000000000000
 11
480.8359117498886
 21
267.4013201863339
 31
0.0000000000000000
  0
LINE
  5
27A
100
AcDbEntity
  8
MAIN0
  6
CONTINUOUS
 62
3
100
AcDbLine
 10
482.3359117499804
 20
229.9013201863402
 30
0.0000000000000000
 11
485.9359117499805
 21
229.9013201863551
 31
0.0000000000000000
  0
LINE
  5
27B
100
AcDbEntity
  8
MAIN0
  6
CONTINUOUS
 62
3
100
AcDbLine
 10
466.9359144799153
 20
228.4013201862765
 30
0.0000000000000000
 11
480.8359117501285
 21
228.4013201863340
 31
0.0000000000000000
  0
LINE
  5
27C
100
AcDbEntity
  8
MAIN0
  6
CONTINUOUS
 62
3
100
AcDbLine
 10
480.8359117498887
 20
267.4013201863338
 30
0.0000000000000000
 11
482.3359117498957
 21
265.9013201863399
 31
0.0000000000000000
  0
LINE
  5
27D
100
AcDbEntity
  8
MAIN0
  6
CONTINUOUS
 62
3
100
AcDbLine
 10
480.8359117501287
 20
228.4013201863340
 30
0.0000000000000000
 11
482.3359117501218
 21
229.9013201863404
 31
0.0000000000000000
  0
LINE
  5
27E
100
AcDbEntity
  8
MAIN0
  6
CONTINUOUS
 62
3
100
AcDbLine
 10
461.3359144798191
 20
256.9013201862531
 30
0.0000000000000000
 11
463.3359144798140
 21
256.9013201862614
 31
0.0000000000000000
  0
LINE
  5
27F
100
AcDbEntity
  8
MAIN0
  6
CONTINUOUS
 62
3
100
AcDbLine
 10
461.3359144798935
 20
238.9013201862532
 30
0.0000000000000000
 11
463.3359144798885
 21
238.9013201862615
 31
0.0000000000000000
  0
LINE
  5
280
100
AcDbEntity
  8
MAIN0
  6
CONTINUOUS
 62
3
100
AcDbLine
 10
353.3359144798330
 20
268.3013201858515
 30
0.0000000000000000
 11
353.9359144798318
 21
268.9013201858539
 31
0.0000000000000000
  0
LINE
  5
281
100
AcDbEntity
  8
MAIN0
  6
CONTINUOUS
 62
3
100
AcDbLine
 10
353.3359144799169
 20
227.5013201858517
 30
0.0000000000000000
 11
353.9359144799182
 21
226.9013201858541
 31
0.0000000000000000
  0
LINE
  5
282
100
AcDbEntity
  8
MAIN0
  6
CONTINUOUS
 62
4
100
AcDbLine
 10
461.3359144799205
 20
229.9013201862532
 30
0.0000000000000000
 11
464.9359144799205
 21
229.9013201862681
 31
0.0000000000000000
  0
LINE
  5
283
100
AcDbEntity
  8
MAIN0
  6
CONTINUOUS
 62
4
100
AcDbLine
 10
464.9359144799206
 20
229.9013201862680
 30
0.0000000000000000
 11
465.3359144799177
 21
230.5941405092972
 31
0.0000000000000000
  0
LINE
  5
284
100
AcDbEntity
  8
MAIN0
  6
CONTINUOUS
 62
4
100
AcDbLine
 10
465.3359144799177
 20
230.5941405092973
 30
0.0000000000000000
 11
465.3359144798945
 21
236.2084998632422
 31
0.0000000000000000
  0
LINE
  5
285
100
AcDbEntity
  8
MAIN0
  6
CONTINUOUS
 62
4
100
AcDbLine
 10
465.3359144798945
 20
236.2084998632421
 30
0.0000000000000000
 11
464.9359144798916
 21
236.9013201862681
 31
0.0000000000000000
  0
LINE
  5
286
100
AcDbEntity
  8
MAIN0
  6
CONTINUOUS
 62
4
100
AcDbLine
 10
464.9359144798916
 20
236.9013201862681
 30
0.0000000000000000
 11
461.3359144798916
 21
236.9013201862532
 31
0.0000000000000000
  0
LINE
  5
287
100
AcDbEntity
  8
MAIN0
  6
CONTINUOUS
 62
4
100
AcDbLine
 10
464.9359144799206
 20
229.9013201862681
 30
0.0000000000000000
 11
464.9359144798916
 21
236.9013201862681
 31
0.0000000000000000
  0
LINE
  5
288
100
AcDbEntity
  8
MAIN0
  6
CONTINUOUS
 62
3
100
AcDbLine
 10
486.3359117498329
 20
265.5013201863566
 30
0.0000000000000000
 11
486.3359117499787
 21
230.3013201863568
 31
0.0000000000000000
  0
LINE
  5
289
100
AcDbEntity
  8
MAIN0
  6
CONTINUOUS
 62
3
100
AcDbLine
 10
461.3359144797558
 20
267.0013201862532
 30
0.0000000000000000
 11
461.3359144799137
 21
228.8013201862531
 31
0.0000000000000000
  0
LINE
  5
28A
100
AcDbEntity
  8
MAIN0
  6
CONTINUOUS
 62
4
100
AcDbLine
 10
419.3359144797682
 20
267.0013201860795
 30
0.0000000000000000
 11
419.3359144799263
 21
228.8013201860794
 31
0.0000000000000000
  0
LINE
  5
28B
100
AcDbEntity
  8
MAIN0
  6
CONTINUOUS
 62
4
100
AcDbLine
 10
418.8359144797682
 20
267.0013201860774
 30
0.0000000000000000
 11
418.8359144799263
 21
228.8013201860773
 31
0.0000000000000000
  0
LINE
  5
28C
100
AcDbEntity
  8
MAIN0
  6
CONTINUOUS
 62
3
100
AcDbLine
 10
380.3359144799136
 20
228.4013201859636
 30
0.0000000000000000
 11
380.3359144797522
 21
267.4013201859634
 31
0.0000000000000000
  0
LINE
  5
28D
100
AcDbEntity
  8
MAIN0
  6
CONTINUOUS
 62
3
100
AcDbLine
 10
379.7359144797449
 20
268.9013201859610
 30
0.0000000000000000
 11
380.3359144797486
 21
268.3013201859636
 31
0.0000000000000000
  0
LINE
  5
28E
100
AcDbEntity
  8
MAIN0
  6
CONTINUOUS
 62
3
100
AcDbLine
 10
379.7359144799182
 20
226.9013201859611
 30
0.0000000000000000
 11
380.3359144799171
 21
227.5013201859636
 31
0.0000000000000000
  0
LINE
  5
28F
100
AcDbEntity
  8
MAIN0
  6
CONTINUOUS
 62
3
100
AcDbLine
 10
380.3359144799173
 20
227.5013201859638
 30
0.0000000000000000
 11
380.3359144797484
 21
268.3013201859637
 31
0.0000000000000000
  0
LINE
  5
290
100
AcDbEntity
  8
MAIN0
  6
CONTINUOUS
 62
3
100
AcDbLine
 10
353.9359144798315
 20
268.9013201858543
 30
0.0000000000000000
 11
379.7359144797445
 21
268.9013201859610
 31
0.0000000000000000
  0
LINE
  5
291
100
AcDbEntity
  8
MAIN0
  6
CONTINUOUS
 62
3
100
AcDbLine
 10
353.9359144799184
 20
226.9013201858544
 30
0.0000000000000000
 11
379.7359144799183
 21
226.9013201859610
 31
0.0000000000000000
  0
LINE
  5
292
100
AcDbEntity
  8
MAIN0
  6
CONTINUOUS
 62
3
100
AcDbLine
 10
353.3359144799170
 20
227.5013201859075
 30
0.0000000000000000
 11
353.3359144798326
 21
268.3013201858518
 31
0.0000000000000000
  0
LINE
  5
293
100
AcDbEntity
  8
MAIN0
  6
CONTINUOUS
 62
3
100
AcDbLine
 10
480.8359117498889
 20
267.4013201863338
 30
0.0000000000000000
 11
480.8359117501285
 21
228.4013201863340
 31
0.0000000000000000
  0
LINE
  5
294
100
AcDbEntity
  8
MAIN0
  6
CONTINUOUS
 62
3
100
AcDbLine
 10
482.3359117498314
 20
265.9013201863401
 30
0.0000000000000000
 11
482.3359117499803
 21
229.9013201863402
 31
0.0000000000000000
  0
LINE
  5
295
100
AcDbEntity
  8
MAIN0
  6
CONTINUOUS
 62
3
100
AcDbLine
 10
380.3359144799138
 20
228.4013201859180
 30
0.0000000000000000
 11
418.4359144799280
 21
228.4013201860756
 31
0.0000000000000000
  0
LINE
  5
296
100
AcDbEntity
  8
MAIN0
  6
CONTINUOUS
 62
3
100
AcDbLine
 10
419.7359144799279
 20
228.4013201860810
 30
0.0000000000000000
 11
460.9359144799153
 21
228.4013201862514
 31
0.0000000000000000
  0
LINE
  5
297
100
AcDbEntity
  8
MAIN0
  6
CONTINUOUS
 62
3
100
AcDbLine
 10
380.3359144797522
 20
267.4013201859180
 30
0.0000000000000000
 11
418.4359144797667
 21
267.4013201860757
 31
0.0000000000000000
  0
LINE
  5
298
100
AcDbEntity
  8
MAIN0
  6
CONTINUOUS
 62
3
100
AcDbLine
 10
419.7359144797666
 20
267.4013201860810
 30
0.0000000000000000
 11
460.9359144797541
 21
267.4013201862514
 31
0.0000000000000000
  0
LINE
  5
299
100
AcDbEntity
  8
MAIN0
  6
CONTINUOUS
 62
3
100
AcDbLine
 10
485.9359117498312
 20
265.9013201863548
 30
0.0000000000000000
 11
486.3359117498329
 21
265.5013201863565
 31
0.0000000000000000
  0
LINE
  5
29A
100
AcDbEntity
  8
MAIN0
  6
CONTINUOUS
 62
3
100
AcDbLine
 10
486.3359117499788
 20
230.3013201863567
 30
0.0000000000000000
 11
485.9359117499804
 21
229.9013201863550
 31
0.0000000000000000
  0
LINE
  5
29B
100
AcDbEntity
  8
MAIN0
  6
CONTINUOUS
 62
3
100
AcDbLine
 10
418.8359144797683
 20
267.0013201860774
 30
0.0000000000000000
 11
418.4359144797666
 21
267.4013201860757
 31
0.0000000000000000
  0
LINE
  5
29C
100
AcDbEntity
  8
MAIN0
  6
CONTINUOUS
 62
3
100
AcDbLine
 10
419.3359144797684
 20
267.0013201860795
 30
0.0000000000000000
 11
419.7359144797666
 21
267.4013201860811
 31
0.0000000000000000
  0
LINE
  5
29D
100
AcDbEntity
  8
MAIN0
  6
CONTINUOUS
 62
3
100
AcDbLine
 10
418.8359144799264
 20
228.8013201860773
 30
0.0000000000000000
 11
418.4359144799281
 21
228.4013201860756
 31
0.0000000000000000
  0
LINE
  5
29E
100
AcDbEntity
  8
MAIN0
  6
CONTINUOUS
 62
3
100
AcDbLine
 10
419.3359144799262
 20
228.8013201860793
 30
0.0000000000000000
 11
419.7359144799278
 21
228.4013201860810
 31
0.0000000000000000
  0
LINE
  5
29F
100
AcDbEntity
  8
MAIN0
  6
CONTINUOUS
 62
3
100
AcDbLine
 10
461.3359144797557
 20
267.0013201862531
 30
0.0000000000000000
 11
460.9359144797541
 21
267.4013201862514
 31
0.0000000000000000
  0
LINE
  5
2A0
100
AcDbEntity
  8
MAIN0
  6
CONTINUOUS
 62
3
100
AcDbLine
 10
461.3359144799137
 20
228.8013201862531
 30
0.0000000000000000
 11
460.9359144799154
 21
228.4013201862515
 31
0.0000000000000000
  0
LINE
  5
2A1
100
AcDbEntity
  8
MAIN0
  6
CONTINUOUS
 62
3
100
AcDbLine
 10
466.3359144799142
 20
229.0013201862739
 30
0.0000000000000000
 11
466.9359144799154
 21
228.4013201862763
 31
0.0000000000000000
  0
LINE
  5
2A2
100
AcDbEntity
  8
MAIN0
  6
CONTINUOUS
 62
3
100
AcDbLine
 10
466.3359144797578
 20
266.8013201862738
 30
0.0000000000000000
 11
466.9359144797541
 21
267.4013201862763
 31
0.0000000000000000
  0
LINE
  5
2A3
100
AcDbEntity
  8
MAIN0
  6
HIDDEN
 62
4
100
AcDbLine
 10
481.3359117499062
 20
255.0576526780624
 30
0.0000000000000000
 11
481.3359117499062
 21
252.8576526780623
 31
0.0000000000000000
  0
LINE
  5
2A4
100
AcDbEntity
  8
MAIN0
  6
CONTINUOUS
 62
4
100
AcDbLine
 10
491.3359117499058
 20
255.0576526780624
 30
0.0000000000000000
 11
491.3359117499058
 21
252.8576526780623
 31
0.0000000000000000
  0
LINE
  5
2A5
100
AcDbEntity
  8
MAIN0
  6
HIDDEN
 62
4
100
AcDbLine
 10
481.7359117499059
 20
255.4576526780622
 30
0.0000000000000000
 11
486.3359117499058
 21
255.4576526780622
 31
0.0000000000000000
  0
LINE
  5
2A6
100
AcDbEntity
  8
MAIN0
  6
CONTINUOUS
 62
4
100
AcDbLine
 10
486.3359117499058
 20
255.4576526780622
 30
0.0000000000000000
 11
490.9359117499062
 21
255.4576526780622
 31
0.0000000000000000
  0
LINE
  5
2A7
100
AcDbEntity
  8
MAIN0
  6
HIDDEN
 62
4
100
AcDbLine
 10
481.7359117499059
 20
252.4576526780622
 30
0.0000000000000000
 11
486.3359117499058
 21
252.4576526780622
 31
0.0000000000000000
  0
LINE
  5
2A8
100
AcDbEntity
  8
MAIN0
  6
CONTINUOUS
 62
4
100
AcDbLine
 10
486.3359117499058
 20
252.4576526780622
 30
0.0000000000000000
 11
490.9359117499062
 21
252.4576526780622
 31
0.0000000000000000
  0
LINE
  5
2A9
100
AcDbEntity
  8
MAIN0
  6
CONTINUOUS
 62
4
100
AcDbLine
 10
491.3359117499057
 20
255.0576526780620
 30
0.0000000000000000
 11
490.9359117499056
 21
255.4576526780621
 31
0.0000000000000000
  0
LINE
  5
2AA
100
AcDbEntity
  8
MAIN0
  6
CONTINUOUS
 62
4
100
AcDbLine
 10
491.3359117499057
 20
252.8576526780620
 30
0.0000000000000000
 11
490.9359117499058
 21
252.4576526780620
 31
0.0000000000000000
  0
LINE
  5
2AB
100
AcDbEntity
  8
MAIN0
  6
HIDDEN
 62
4
100
AcDbLine
 10
481.7359117499053
 20
252.4576526780620
 30
0.0000000000000000
 11
481.3359117499057
 21
252.8576526780618
 31
0.0000000000000000
  0
LINE
  5
2AC
100
AcDbEntity
  8
MAIN0
  6
HIDDEN
 62
4
100
AcDbLine
 10
481.3359117499056
 20
255.0576526780622
 30
0.0000000000000000
 11
481.7359117499060
 21
255.4576526780623
 31
0.0000000000000000
  0
MTEXT
  5
2AD
100
AcDbEntity
  8
MAIN0
  6
CONTINUOUS
 62
4
100
AcDbMText
 10
76.16353517567575
 20
556.4388756030487
 30
0.0000000000000000
 40
6.000000000000000
 41
0.0000000000000000
 44
0.8000000000000000
 71
     1
 72
     1
  1
{\H0.60x;{最高使用圧力 油圧7.0MPa ,空圧0.7MPa\PMAX.PRESSURE HYDRAULIC 7.0MPa ,PNEIMATIC 0.7MPa }}
 11
1.000000000000000
 21
0.0000000000000000
 31
0.0000000000000000
  7
KNJYOKO
  0
MTEXT
  5
2AE
100
AcDbEntity
  8
MAIN0
  6
CONTINUOUS
 62
4
100
AcDbMText
 10
76.16353517567575
 20
508.4388756030487
 30
0.0000000000000000
 40
6.000000000000000
 41
0.0000000000000000
 44
0.8000000000000000
 71
     1
 72
     1
  1
{\H0.63x;{治具側とのポート接続を正確にする為、★印部のスプリングピンを必ず利用して下さい。\P★ MARKED SPRINGPIN FOR ROUGH POSITIONING SHOULD BE USED \PIN ORDER TO CONNECT WITH PORTS OF FIXTURE ACCURATELY. \PWHEN ASSEMBLE THIS ROTARY JOINT UNIT WITH FIXTURE.\P}
 11
1.000000000000000
 21
0.0000000000000000
 31
0.0000000000000000
  7
KNJYOKO
  0
MTEXT
  5
2AF
100
AcDbEntity
  8
MAIN0
  6
CONTINUOUS
 62
4
100
AcDbMText
 10
76.16353517567575
 20
540.4388756030487
 30
0.0000000000000000
 40
6.000000000000000
 41
0.0000000000000000
 44
0.8000000000000000
 71
     1
 72
     1
  1
{\H0.62x;{製品重量 2Kg　／　MASS OF ROTARY JOINT 2Kg}}
 11
1.000000000000000
 21
0.0000000000000000
 31
0.0000000000000000
  7
KNJYOKO
  0
LINE
  5
2B0
100
AcDbEntity
  8
MAIN0
  6
CONTINUOUS
 62
3
100
AcDbLine
 10
351.3359144802701
 20
279.2255567135612
 30
0.0000000000000000
 11
374.3420020834471
 21
279.2255567134888
 31
0.0000000000000000
  0
LINE
  5
2B1
100
AcDbEntity
  8
MAIN0
  6
CONTINUOUS
 62
3
100
AcDbLine
 10
351.3359144802848
 20
283.7255567135612
 30
0.0000000000000000
 11
374.3420020834612
 21
283.7255567134886
 31
0.0000000000000000
  0
LINE
  5
2B2
100
AcDbEntity
  8
MAIN0
  6
CONTINUOUS
 62
3
100
AcDbLine
 10
407.8359100832694
 20
351.2255567133840
 30
0.0000000000000000
 11
407.8359100863922
 21
322.6832739433472
 31
0.0000000000000000
  0
LINE
  5
2B3
100
AcDbEntity
  8
MAIN0
  6
CONTINUOUS
 62
3
100
AcDbLine
 10
407.8359100832696
 20
351.2255567133839
 30
0.0000000000000000
 11
412.3359100832696
 21
351.2255567133695
 31
0.0000000000000000
  0
LINE
  5
2B4
100
AcDbEntity
  8
MAIN0
  6
CONTINUOUS
 62
3
100
AcDbLine
 10
351.3359144802702
 20
279.2255567135611
 30
0.0000000000000000
 11
351.3359144802843
 21
283.7255567135611
 31
0.0000000000000000
  0
LINE
  5
2B5
100
AcDbEntity
  8
MAIN0
  6
CONTINUOUS
 62
3
100
AcDbLine
 10
412.3359100832665
 20
351.2255567133695
 30
0.0000000000000000
 11
412.3359100858539
 21
322.6832739436614
 31
0.0000000000000000
  0
LINE
  5
2B6
100
AcDbEntity
  8
MAIN0
  6
CENTER
 62
4
100
AcDbLine
 10
396.3265857266206
 20
342.2255567134098
 30
0.0000000000000000
 11
415.7858700181056
 21
342.2255567133434
 31
0.0000000000000000
  0
LINE
  5
2B7
100
AcDbEntity
  8
MAIN0
  6
CENTER
 62
4
100
AcDbLine
 10
359.3359144800720
 20
267.1907640855661
 30
0.0000000000000000
 11
359.3359144801374
 21
295.0323086556418
 31
0.0000000000000000
  0
POINT
  5
2B8
100
AcDbEntity
  8
MAIN0
  6
CONTINUOUS
 62
5
100
AcDbPoint
 10
660.2742896582391
 20
247.9013201865475
 30
0.0000000000000000
  0
POINT
  5
2B9
100
AcDbEntity
  8
MAIN0
  6
CONTINUOUS
 62
5
100
AcDbPoint
 10
660.2742896582391
 20
247.9013201865475
 30
0.0000000000000000
  0
POINT
  5
2BA
100
AcDbEntity
  8
MAIN0
  6
CONTINUOUS
 62
5
100
AcDbPoint
 10
660.2742896582391
 20
247.9013201865475
 30
0.0000000000000000
  0
CIRCLE
  5
2BB
100
AcDbEntity
  8
MAIN0
  6
CONTINUOUS
 62
4
100
AcDbCircle
 10
660.2742896582391
 20
247.9013201865475
 30
0.0000000000000000
 40
18.00000000000527
  0
POINT
  5
2BC
100
AcDbEntity
  8
MAIN0
  6
CONTINUOUS
 62
5
100
AcDbPoint
 10
660.2742896582391
 20
247.9013201865475
 30
0.0000000000000000
  0
CIRCLE
  5
2BD
100
AcDbEntity
  8
MAIN0
  6
CONTINUOUS
 62
4
100
AcDbCircle
 10
660.2742896582391
 20
247.9013201865475
 30
0.0000000000000000
 40
19.49999999999994
  0
POINT
  5
2BE
100
AcDbEntity
  8
MAIN0
  6
CONTINUOUS
 62
5
100
AcDbPoint
 10
670.1737845947990
 20
238.0018252498843
 30
0.0000000000000000
  0
POINT
  5
2BF
100
AcDbEntity
  8
MAIN0
  6
CONTINUOUS
 62
5
100
AcDbPoint
 10
660.2742896582391
 20
247.9013201865475
 30
0.0000000000000000
  0
CIRCLE
  5
2C0
100
AcDbEntity
  8
MAIN0
  6
CONTINUOUS
 62
4
100
AcDbCircle
 10
660.2742896582390
 20
260.9013201865476
 30
0.0000000000000000
 40
2.100000000000000
  0
CIRCLE
  5
2C1
100
AcDbEntity
  8
MAIN0
  6
CONTINUOUS
 62
4
100
AcDbCircle
 10
647.2742896582392
 20
247.9013201865477
 30
0.0000000000000000
 40
2.100000000000000
  0
CIRCLE
  5
2C2
100
AcDbEntity
  8
MAIN0
  6
CONTINUOUS
 62
4
100
AcDbCircle
 10
660.2742896582394
 20
234.9013201865476
 30
0.0000000000000000
 40
2.100000000000000
  0
CIRCLE
  5
2C3
100
AcDbEntity
  8
MAIN0
  6
CONTINUOUS
 62
4
100
AcDbCircle
 10
673.2742896582392
 20
247.9013201865477
 30
0.0000000000000000
 40
2.100000000000000
  0
POINT
  5
2C4
100
AcDbEntity
  8
MAIN0
  6
CONTINUOUS
 62
5
100
AcDbPoint
 10
673.2742896582392
 20
247.9013201865477
 30
0.0000000000000000
  0
POINT
  5
2C5
100
AcDbEntity
  8
MAIN0
  6
CONTINUOUS
 62
5
100
AcDbPoint
 10
647.2742896582581
 20
247.9013201865476
 30
0.0000000000000000
  0
ARC
  5
2C6
100
AcDbEntity
  8
MAIN0
  6
CENTER
 62
4
100
AcDbCircle
 10
660.2742896582391
 20
247.9013201865477
 30
0.0000000000000000
 40
13.00000000000000
100
AcDbArc
 50
330.1332386754919
 51
384.4661937985605
  0
ARC
  5
2C7
100
AcDbEntity
  8
MAIN0
  6
CENTER
 62
4
100
AcDbCircle
 10
660.2742896582391
 20
247.9013201865477
 30
0.0000000000000000
 40
13.00000000000000
100
AcDbArc
 50
247.9271167146017
 51
289.7841818929505
  0
ARC
  5
2C8
100
AcDbEntity
  8
MAIN0
  6
CENTER
 62
4
100
AcDbCircle
 10
660.2742896582391
 20
247.9013201865477
 30
0.0000000000000000
 40
13.00000000000000
100
AcDbArc
 50
70.01464083431085
 51
110.5981258716267
  0
ARC
  5
2C9
100
AcDbEntity
  8
MAIN0
  6
CENTER
 62
4
100
AcDbCircle
 10
660.2742896582391
 20
247.9013201865477
 30
0.0000000000000000
 40
13.00000000000000
100
AcDbArc
 50
151.1844527768100
 51
204.2545114954535
  0
ARC
  5
2CA
100
AcDbEntity
  8
MAIN0
  6
CENTER
 62
4
100
AcDbCircle
 10
660.2742896582391
 20
247.9013201865475
 30
0.0000000000000000
 40
15.50000000000000
100
AcDbArc
 50
14.09561081068851
 51
34.99608178503810
  0
LINE
  5
2CB
100
AcDbEntity
  8
MAIN0
  6
CENTER
 62
4
100
AcDbLine
 10
677.3192149320785
 20
255.1364617094354
 30
0.0000000000000000
 11
672.2369348541707
 21
252.9791618074492
 31
0.0000000000000000
  0
POINT
  5
2CC
100
AcDbEntity
  8
MAIN0
  6
CONTINUOUS
 62
5
100
AcDbPoint
 10
670.1737845948662
 20
257.8008151231437
 30
0.0000000000000000
  0
CIRCLE
  5
2CD
100
AcDbEntity
  8
MAIN0
  6
CONTINUOUS
 62
4
100
AcDbCircle
 10
670.1737845948662
 20
257.8008151231437
 30
0.0000000000000000
 40
2.500000000000000
  0
CIRCLE
  5
2CE
100
AcDbEntity
  8
MAIN0
  6
CONTINUOUS
 62
4
100
AcDbCircle
 10
670.1737845948662
 20
257.8008151231437
 30
0.0000000000000000
 40
2.100000000000000
  0
POINT
  5
2CF
100
AcDbEntity
  8
MAIN0
  6
CONTINUOUS
 62
5
100
AcDbPoint
 10
650.3747947216352
 20
257.8008151231669
 30
0.0000000000000000
  0
CIRCLE
  5
2D0
100
AcDbEntity
  8
MAIN0
  6
CONTINUOUS
 62
4
100
AcDbCircle
 10
650.3747947216352
 20
257.8008151231669
 30
0.0000000000000000
 40
2.500000000000000
  0
CIRCLE
  5
2D1
100
AcDbEntity
  8
MAIN0
  6
CONTINUOUS
 62
4
100
AcDbCircle
 10
650.3747947216352
 20
257.8008151231669
 30
0.0000000000000000
 40
2.100000000000000
  0
POINT
  5
2D2
100
AcDbEntity
  8
MAIN0
  6
CONTINUOUS
 62
5
100
AcDbPoint
 10
650.3747947216119
 20
238.0018252499513
 30
0.0000000000000000
  0
CIRCLE
  5
2D3
100
AcDbEntity
  8
MAIN0
  6
CONTINUOUS
 62
4
100
AcDbCircle
 10
650.3747947216119
 20
238.0018252499513
 30
0.0000000000000000
 40
2.500000000000000
  0
CIRCLE
  5
2D4
100
AcDbEntity
  8
MAIN0
  6
CONTINUOUS
 62
4
100
AcDbCircle
 10
650.3747947216119
 20
238.0018252499513
 30
0.0000000000000000
 40
2.100000000000000
  0
POINT
  5
2D5
100
AcDbEntity
  8
MAIN0
  6
CONTINUOUS
 62
5
100
AcDbPoint
 10
670.1737845947990
 20
238.0018252498843
 30
0.0000000000000000
  0
CIRCLE
  5
2D6
100
AcDbEntity
  8
MAIN0
  6
CONTINUOUS
 62
4
100
AcDbCircle
 10
670.1737845947990
 20
238.0018252498843
 30
0.0000000000000000
 40
2.500000000000000
  0
CIRCLE
  5
2D7
100
AcDbEntity
  8
MAIN0
  6
CONTINUOUS
 62
4
100
AcDbCircle
 10
670.1737845947990
 20
238.0018252498843
 30
0.0000000000000000
 40
2.100000000000000
  0
LINE
  5
2D8
100
AcDbEntity
  8
MAIN0
  6
CENTER
 62
4
100
AcDbLine
 10
653.3909214223373
 20
241.0179519506672
 30
0.0000000000000000
 11
647.4595627260674
 21
235.0865932544159
 31
0.0000000000000000
  0
LINE
  5
2D9
100
AcDbEntity
  8
MAIN0
  6
CENTER
 62
4
100
AcDbLine
 10
673.0983344564007
 20
260.7253649846690
 30
0.0000000000000000
 11
667.2626433338545
 21
254.8896738621411
 31
0.0000000000000000
  0
LINE
  5
2DA
100
AcDbEntity
  8
MAIN0
  6
CENTER
 62
4
100
AcDbLine
 10
653.0603920833532
 20
255.1152177614446
 30
0.0000000000000000
 11
647.4991227555561
 21
260.6764870892505
 31
0.0000000000000000
  0
LINE
  5
2DB
100
AcDbEntity
  8
MAIN0
  6
CENTER
 62
4
100
AcDbLine
 10
673.1857282726907
 20
234.9898815720758
 30
0.0000000000000000
 11
667.1587020027133
 21
241.0169078420626
 31
0.0000000000000000
  0
ARC
  5
2DC
100
AcDbEntity
  8
MAIN0
  6
CENTER
 62
4
100
AcDbCircle
 10
660.2742896582391
 20
247.9013201865475
 30
0.0000000000000000
 40
14.00000000000000
100
AcDbArc
 50
118.8919481339138
 51
151.3208744311606
  0
ARC
  5
2DD
100
AcDbEntity
  8
MAIN0
  6
CENTER
 62
4
100
AcDbCircle
 10
660.2742896582391
 20
247.9013201865475
 30
0.0000000000000000
 40
14.00000000000000
100
AcDbArc
 50
210.2592093804091
 51
247.8652170316697
  0
ARC
  5
2DE
100
AcDbEntity
  8
MAIN0
  6
CENTER
 62
4
100
AcDbCircle
 10
660.2742896582391
 20
247.9013201865475
 30
0.0000000000000000
 40
14.00000000000000
100
AcDbArc
 50
300.3473106963250
 51
331.8403004365259
  0
ARC
  5
2DF
100
AcDbEntity
  8
MAIN0
  6
CENTER
 62
4
100
AcDbCircle
 10
660.2742896582391
 20
247.9013201865475
 30
0.0000000000000000
 40
14.00000000000000
100
AcDbArc
 50
27.61358647579260
 51
67.95159715101637
  0
CIRCLE
  5
2E0
100
AcDbEntity
  8
MAIN0
  6
CONTINUOUS
 62
4
100
AcDbCircle
 10
660.2742896582391
 20
247.9013201865475
 30
0.0000000000000000
 40
8.000000000000000
  0
CIRCLE
  5
2E1
100
AcDbEntity
  8
MAIN0
  6
CONTINUOUS
 62
4
100
AcDbCircle
 10
674.5421148867615
 20
253.9576526781089
 30
0.0000000000000000
 40
1.500000000000000
  0
CIRCLE
  5
2E2
100
AcDbEntity
  8
MAIN0
  6
CONTINUOUS
 62
4
100
AcDbCircle
 10
673.2742896582392
 20
247.9013201865477
 30
0.0000000000000000
 40
3.700000000000000
  0
CIRCLE
  5
2E3
100
AcDbEntity
  8
MAIN0
  6
CONTINUOUS
 62
4
100
AcDbCircle
 10
660.2742896582390
 20
260.9013201865476
 30
0.0000000000000000
 40
3.700000000000000
  0
CIRCLE
  5
2E4
100
AcDbEntity
  8
MAIN0
  6
CONTINUOUS
 62
4
100
AcDbCircle
 10
647.2742896582390
 20
247.9013201865473
 30
0.0000000000000000
 40
3.700000000000000
  0
CIRCLE
  5
2E5
100
AcDbEntity
  8
MAIN0
  6
CONTINUOUS
 62
4
100
AcDbCircle
 10
660.2742896582394
 20
234.9013201865474
 30
0.0000000000000000
 40
3.700000000000000
  0
POINT
  5
2E6
100
AcDbEntity
  8
MAIN0
  6
CONTINUOUS
 62
5
100
AcDbPoint
 10
660.2742896582391
 20
252.4013201865475
 30
0.0000000000000000
  0
POINT
  5
2E7
100
AcDbEntity
  8
MAIN0
  6
CONTINUOUS
 62
5
100
AcDbPoint
 10
655.7742896582391
 20
247.9013201865475
 30
0.0000000000000000
  0
POINT
  5
2E8
100
AcDbEntity
  8
MAIN0
  6
CONTINUOUS
 62
5
100
AcDbPoint
 10
660.2742896582391
 20
243.4013201865475
 30
0.0000000000000000
  0
POINT
  5
2E9
100
AcDbEntity
  8
MAIN0
  6
CONTINUOUS
 62
5
100
AcDbPoint
 10
664.7742896582391
 20
247.9013201865475
 30
0.0000000000000000
  0
LINE
  5
2EA
100
AcDbEntity
  8
MAIN0
  6
CONTINUOUS
 62
3
100
AcDbLine
 10
231.3944058094215
 20
96.58334021551571
 30
0.0000000000000000
 11
132.5944058094216
 21
96.58334021551571
 31
0.0000000000000000
  0
POINT
  5
2EB
100
AcDbEntity
  8
MAIN0
  6
CONTINUOUS
 62
5
100
AcDbPoint
 10
181.9944058094213
 20
96.58334021551565
 30
0.0000000000000000
  0
LINE
  5
2EC
100
AcDbEntity
  8
MAIN0
  6
CONTINUOUS
 62
3
100
AcDbLine
 10
231.9944058094223
 20
95.98334021551574
 30
0.0000000000000000
 11
231.9944058094546
 21
70.18334021539062
 31
0.0000000000000000
  0
LINE
  5
2ED
100
AcDbEntity
  8
MAIN0
  6
CONTINUOUS
 62
3
100
AcDbLine
 10
131.9944058094220
 20
95.98334021551580
 30
0.0000000000000000
 11
131.9944058094543
 21
70.18334021539067
 31
0.0000000000000000
  0
LINE
  5
2EE
100
AcDbEntity
  8
MAIN0
  6
CONTINUOUS
 62
3
100
AcDbLine
 10
231.9944058094221
 20
95.98334021551577
 30
0.0000000000000000
 11
231.3944058094213
 21
96.58334021551582
 31
0.0000000000000000
  0
LINE
  5
2EF
100
AcDbEntity
  8
MAIN0
  6
CONTINUOUS
 62
3
100
AcDbLine
 10
132.5944058094216
 20
96.58334021551590
 30
0.0000000000000000
 11
131.9944058094222
 21
95.98334021551582
 31
0.0000000000000000
  0
CIRCLE
  5
2F0
100
AcDbEntity
  8
MAIN0
  6
CONTINUOUS
 62
4
100
AcDbCircle
 10
168.9944058094363
 20
84.58334021551565
 30
0.0000000000000000
 40
6.578500000000000
  0
CIRCLE
  5
2F1
100
AcDbEntity
  8
MAIN0
  6
CONTINUOUS
 62
3
100
AcDbCircle
 10
168.9944058094363
 20
84.58334021551565
 30
0.0000000000000000
 40
5.722500000000000
  0
POINT
  5
2F2
100
AcDbEntity
  8
MAIN0
  6
CONTINUOUS
 62
5
100
AcDbPoint
 10
168.9944058094363
 20
84.58334021551565
 30
0.0000000000000000
  0
CIRCLE
  5
2F3
100
AcDbEntity
  8
MAIN0
  6
CONTINUOUS
 62
4
100
AcDbCircle
 10
194.9944058094363
 20
84.58334021551565
 30
0.0000000000000000
 40
6.578500000000000
  0
CIRCLE
  5
2F4
100
AcDbEntity
  8
MAIN0
  6
CONTINUOUS
 62
3
100
AcDbCircle
 10
194.9944058094363
 20
84.58334021551565
 30
0.0000000000000000
 40
5.722500000000000
  0
POINT
  5
2F5
100
AcDbEntity
  8
MAIN0
  6
CONTINUOUS
 62
5
100
AcDbPoint
 10
194.9944058094363
 20
84.58334021551565
 30
0.0000000000000000
  0
CIRCLE
  5
2F6
100
AcDbEntity
  8
MAIN0
  6
CONTINUOUS
 62
4
100
AcDbCircle
 10
220.9944058094364
 20
84.58334021551565
 30
0.0000000000000000
 40
6.578500000000000
  0
CIRCLE
  5
2F7
100
AcDbEntity
  8
MAIN0
  6
CONTINUOUS
 62
3
100
AcDbCircle
 10
220.9944058094364
 20
84.58334021551565
 30
0.0000000000000000
 40
5.722500000000000
  0
POINT
  5
2F8
100
AcDbEntity
  8
MAIN0
  6
CONTINUOUS
 62
5
100
AcDbPoint
 10
220.9944058094364
 20
84.58334021551565
 30
0.0000000000000000
  0
MTEXT
  5
2F9
100
AcDbEntity
  8
MAIN0
  6
CONTINUOUS
 62
3
100
AcDbMText
 10
198.9944058094319
 20
79.15026702585629
 30
0.0000000000000000
 40
8.000000000000000
 41
0.0000000000000000
 44
0.6749999999999999
 71
     1
 72
     1
  1
{\H0.81x;{A}}
 11
1.000000000000000
 21
0.0000000000000000
 31
0.0000000000000000
  7
STANDARD
  0
MTEXT
  5
2FA
100
AcDbEntity
  8
MAIN0
  6
CONTINUOUS
 62
3
100
AcDbMText
 10
172.9944058094319
 20
79.15026702585641
 30
0.0000000000000000
 40
8.000000000000000
 41
0.0000000000000000
 44
0.6749999999999999
 71
     1
 72
     1
  1
{\H0.81x;{B}}
 11
1.000000000000000
 21
0.0000000000000000
 31
0.0000000000000000
  7
STANDARD
  0
MTEXT
  5
2FB
100
AcDbEntity
  8
MAIN0
  6
CONTINUOUS
 62
3
100
AcDbMText
 10
224.9944058094320
 20
79.15026702585629
 30
0.0000000000000000
 40
8.000000000000000
 41
0.0000000000000000
 44
0.6749999999999999
 71
     1
 72
     1
  1
{\H0.81x;{C}}
 11
1.000000000000000
 21
0.0000000000000000
 31
0.0000000000000000
  7
STANDARD
  0
MTEXT
  5
2FC
100
AcDbEntity
  8
MAIN0
  6
CONTINUOUS
 62
3
100
AcDbMText
 10
146.9944058094318
 20
79.15026702585641
 30
0.0000000000000000
 40
8.000000000000000
 41
0.0000000000000000
 44
0.6749999999999999
 71
     1
 72
     1
  1
{\H0.81x;{D}}
 11
1.000000000000000
 21
0.0000000000000000
 31
0.0000000000000000
  7
STANDARD
  0
POINT
  5
2FD
100
AcDbEntity
  8
MAIN0
  6
CONTINUOUS
 62
5
100
AcDbPoint
 10
230.9944058094248
 20
93.99512921442062
 30
0.0000000000000000
  0
POINT
  5
2FE
100
AcDbEntity
  8
MAIN0
  6
CONTINUOUS
 62
5
100
AcDbPoint
 10
204.9944058094247
 20
93.99512921442062
 30
0.0000000000000000
  0
POINT
  5
2FF
100
AcDbEntity
  8
MAIN0
  6
CONTINUOUS
 62
5
100
AcDbPoint
 10
178.9944058094247
 20
93.99512921442062
 30
0.0000000000000000
  0
POINT
  5
300
100
AcDbEntity
  8
MAIN0
  6
CONTINUOUS
 62
5
100
AcDbPoint
 10
152.9944058094247
 20
93.99512921442073
 30
0.0000000000000000
  0
LINE
  5
301
100
AcDbEntity
  8
MAIN0
  6
CONTINUOUS
 62
3
100
AcDbLine
 10
231.3944058094515
 20
69.58334021539059
 30
0.0000000000000000
 11
132.5944058094516
 21
69.58334021539059
 31
0.0000000000000000
  0
LINE
  5
302
100
AcDbEntity
  8
MAIN0
  6
CONTINUOUS
 62
3
100
AcDbLine
 10
132.5944058094551
 20
69.58334021539056
 30
0.0000000000000000
 11
131.9944058094544
 21
70.18334021539064
 31
0.0000000000000000
  0
LINE
  5
303
100
AcDbEntity
  8
MAIN0
  6
CONTINUOUS
 62
3
100
AcDbLine
 10
231.3944058094552
 20
69.58334021539037
 30
0.0000000000000000
 11
231.9944058094544
 21
70.18334021539022
 31
0.0000000000000000
  0
POINT
  5
304
100
AcDbEntity
  8
MAIN0
  6
CONTINUOUS
 62
5
100
AcDbPoint
 10
142.9944058094362
 20
84.58334021551576
 30
0.0000000000000000
  0
CIRCLE
  5
305
100
AcDbEntity
  8
MAIN0
  6
CONTINUOUS
 62
4
100
AcDbCircle
 10
142.9944058094362
 20
84.58334021551576
 30
0.0000000000000000
 40
6.578500000000000
  0
CIRCLE
  5
306
100
AcDbEntity
  8
MAIN0
  6
CONTINUOUS
 62
3
100
AcDbCircle
 10
142.9944058094362
 20
84.58334021551576
 30
0.0000000000000000
 40
5.722500000000000
  0
LINE
  5
307
100
AcDbEntity
  8
MAIN0
  6
CENTER
 62
4
100
AcDbLine
 10
133.2719058094364
 20
84.58334021551571
 30
0.0000000000000000
 11
152.7169058094363
 21
84.58334021551571
 31
0.0000000000000000
  0
LINE
  5
308
100
AcDbEntity
  8
MAIN0
  6
CENTER
 62
4
100
AcDbLine
 10
142.9944058094364
 20
74.86084021551574
 30
0.0000000000000000
 11
142.9944058094364
 21
94.30584021551579
 31
0.0000000000000000
  0
LINE
  5
309
100
AcDbEntity
  8
MAIN0
  6
CENTER
 62
4
100
AcDbLine
 10
159.2719058094364
 20
84.58334021551571
 30
0.0000000000000000
 11
178.7169058094363
 21
84.58334021551571
 31
0.0000000000000000
  0
LINE
  5
30A
100
AcDbEntity
  8
MAIN0
  6
CENTER
 62
4
100
AcDbLine
 10
168.9944058094363
 20
74.86084021551574
 30
0.0000000000000000
 11
168.9944058094363
 21
94.30584021551579
 31
0.0000000000000000
  0
LINE
  5
30B
100
AcDbEntity
  8
MAIN0
  6
CENTER
 62
4
100
AcDbLine
 10
185.2719058094364
 20
84.58334021551571
 30
0.0000000000000000
 11
204.7169058094364
 21
84.58334021551571
 31
0.0000000000000000
  0
LINE
  5
30C
100
AcDbEntity
  8
MAIN0
  6
CENTER
 62
4
100
AcDbLine
 10
194.9944058094363
 20
74.86084021551574
 30
0.0000000000000000
 11
194.9944058094363
 21
94.30584021551579
 31
0.0000000000000000
  0
LINE
  5
30D
100
AcDbEntity
  8
MAIN0
  6
CENTER
 62
4
100
AcDbLine
 10
211.2719058094363
 20
84.58334021551571
 30
0.0000000000000000
 11
230.7169058094365
 21
84.58334021551571
 31
0.0000000000000000
  0
LINE
  5
30E
100
AcDbEntity
  8
MAIN0
  6
CENTER
 62
4
100
AcDbLine
 10
220.9944058094364
 20
74.86084021551574
 30
0.0000000000000000
 11
220.9944058094364
 21
94.30584021551579
 31
0.0000000000000000
  0
LINE
  5
30F
100
AcDbEntity
  8
MAIN0
  6
CONTINUOUS
 62
4
100
AcDbLine
 10
158.9944058094515
 20
69.58334021539059
 30
0.0000000000000000
 11
158.9944058094591
 21
37.58334021539622
 31
0.0000000000000000
  0
LINE
  5
310
100
AcDbEntity
  8
MAIN0
  6
CONTINUOUS
 62
4
100
AcDbLine
 10
201.9944058094442
 20
98.58334021551571
 30
0.0000000000000000
 11
161.9944058094441
 21
98.58334021551571
 31
0.0000000000000000
  0
ARC
  5
311
100
AcDbEntity
  8
MAIN0
  6
CONTINUOUS
 62
4
100
AcDbCircle
 10
161.9944058094441
 20
95.58334021551576
 30
0.0000000000000000
 40
3.000000000000000
100
AcDbArc
 50
90.00000000000000
 51
160.5287793655095
  0
ARC
  5
312
100
AcDbEntity
  8
MAIN0
  6
CONTINUOUS
 62
4
100
AcDbCircle
 10
201.9944058094441
 20
95.58334021551576
 30
0.0000000000000000
 40
3.000000000000000
100
AcDbArc
 50
19.47122063449002
 51
90.00000000000000
  0
LINE
  5
313
100
AcDbEntity
  8
MAIN0
  6
CONTINUOUS
 62
4
100
AcDbLine
 10
201.4944058094537
 20
42.08334021538570
 30
0.0000000000000000
 11
204.9944058094578
 21
42.08334021538485
 31
0.0000000000000000
  0
LINE
  5
314
100
AcDbEntity
  8
MAIN0
  6
CONTINUOUS
 62
4
100
AcDbLine
 10
158.9944058094578
 20
42.08334021539625
 30
0.0000000000000000
 11
162.4944058094537
 21
42.08334021539540
 31
0.0000000000000000
  0
LINE
  5
315
100
AcDbEntity
  8
MAIN0
  6
CONTINUOUS
 62
4
100
AcDbLine
 10
158.9944058094591
 20
37.58334021539625
 30
0.0000000000000000
 11
162.4944058094550
 21
37.58334021539540
 31
0.0000000000000000
  0
LINE
  5
316
100
AcDbEntity
  8
MAIN0
  6
CONTINUOUS
 62
4
100
AcDbLine
 10
201.4944058094550
 20
37.58334021538570
 30
0.0000000000000000
 11
204.9944058094590
 21
37.58334021538485
 31
0.0000000000000000
  0
LINE
  5
317
100
AcDbEntity
  8
MAIN0
  6
CONTINUOUS
 62
4
100
AcDbLine
 10
204.9944058094515
 20
69.58334021539062
 30
0.0000000000000000
 11
204.9944058094591
 21
37.58334021538482
 31
0.0000000000000000
  0
POINT
  5
318
100
AcDbEntity
  8
MAIN0
  6
CONTINUOUS
 62
5
100
AcDbPoint
 10
224.9944058094320
 20
71.15026702585635
 30
0.0000000000000000
  0
POINT
  5
319
100
AcDbEntity
  8
MAIN0
  6
CONTINUOUS
 62
5
100
AcDbPoint
 10
198.9944058094318
 20
71.15026702585635
 30
0.0000000000000000
  0
POINT
  5
31A
100
AcDbEntity
  8
MAIN0
  6
CONTINUOUS
 62
5
100
AcDbPoint
 10
172.9944058094318
 20
71.15026702585635
 30
0.0000000000000000
  0
POINT
  5
31B
100
AcDbEntity
  8
MAIN0
  6
CONTINUOUS
 62
5
100
AcDbPoint
 10
146.9944058094318
 20
71.15026702585635
 30
0.0000000000000000
  0
LINE
  5
31C
100
AcDbEntity
  8
MAIN0
  6
PHANTOM
 62
4
100
AcDbLine
 10
78.49440581431986
 20
30.53420896205259
 30
0.0000000000000000
 11
78.49440581426484
 21
37.18334021542569
 31
0.0000000000000000
  0
LINE
  5
31D
100
AcDbEntity
  8
MAIN0
  6
PHANTOM
 62
4
100
AcDbLine
 10
78.89440581426140
 20
37.58334021542865
 30
0.0000000000000000
 11
78.49440581426472
 21
37.18334021542555
 31
0.0000000000000000
  0
LINE
  5
31E
100
AcDbEntity
  8
MAIN0
  6
PHANTOM
 62
4
100
AcDbLine
 10
285.4944058052927
 20
30.53420896205256
 30
0.0000000000000000
 11
285.4944058052892
 21
37.18334021618549
 31
0.0000000000000000
  0
LINE
  5
31F
100
AcDbEntity
  8
MAIN0
  6
PHANTOM
 62
4
100
AcDbLine
 10
285.4944058052889
 20
37.18334021618642
 30
0.0000000000000000
 11
285.0944058052887
 21
37.58334021618668
 31
0.0000000000000000
  0
LINE
  5
320
100
AcDbEntity
  8
MAIN0
  6
PHANTOM
 62
4
100
AcDbLine
 10
78.89440581426140
 20
37.58334021543618
 30
0.0000000000000000
 11
285.0944058060905
 21
37.58334021538522
 31
0.0000000000000000
  0
LINE
  5
321
100
AcDbEntity
  8
MAIN0
  6
CENTER
 62
4
100
AcDbLine
 10
181.9944058094067
 20
30.53420896205256
 30
0.0000000000000000
 11
181.9944058094068
 21
101.4732109335299
 31
0.0000000000000000
  0
POINT
  5
322
100
AcDbEntity
  8
MAIN0
  6
CONTINUOUS
 62
5
100
AcDbPoint
 10
76.16353517567575
 20
438.4388756030487
 30
0.0000000000000000
  0
LINE
  5
323
100
AcDbEntity
  8
MAIN0
  6
CONTINUOUS
 62
4
100
AcDbLine
 10
59.76546464813225
 20
437.4388756030485
 30
0.0000000000000000
 11
295.1252538418709
 21
437.4388756030485
 31
0.0000000000000000
  0
POINT
  5
324
100
AcDbEntity
  8
MAIN0
  6
CONTINUOUS
 62
5
100
AcDbPoint
 10
62.16353517567575
 20
438.4388756030487
 30
0.0000000000000000
  0
POINT
  5
325
100
AcDbEntity
  8
MAIN0
  6
CONTINUOUS
 62
5
100
AcDbPoint
 10
76.16353517567575
 20
430.4388756030487
 30
0.0000000000000000
  0
LINE
  5
326
100
AcDbEntity
  8
MAIN0
  6
CONTINUOUS
 62
4
100
AcDbLine
 10
59.76546464813225
 20
429.4388756030485
 30
0.0000000000000000
 11
295.1252538418709
 21
429.4388756030485
 31
0.0000000000000000
  0
POINT
  5
327
100
AcDbEntity
  8
MAIN0
  6
CONTINUOUS
 62
5
100
AcDbPoint
 10
62.16353517567575
 20
430.4388756030487
 30
0.0000000000000000
  0
POINT
  5
328
100
AcDbEntity
  8
MAIN0
  6
CONTINUOUS
 62
5
100
AcDbPoint
 10
76.16353517567575
 20
422.4388756030487
 30
0.0000000000000000
  0
LINE
  5
329
100
AcDbEntity
  8
MAIN0
  6
CONTINUOUS
 62
4
100
AcDbLine
 10
59.76546464813225
 20
421.4388756030485
 30
0.0000000000000000
 11
295.1252538418709
 21
421.4388756030485
 31
0.0000000000000000
  0
POINT
  5
32A
100
AcDbEntity
  8
MAIN0
  6
CONTINUOUS
 62
5
100
AcDbPoint
 10
62.16353517567575
 20
422.4388756030487
 30
0.0000000000000000
  0
POINT
  5
32B
100
AcDbEntity
  8
MAIN0
  6
CONTINUOUS
 62
5
100
AcDbPoint
 10
76.16353517567575
 20
414.4388756030487
 30
0.0000000000000000
  0
LINE
  5
32C
100
AcDbEntity
  8
MAIN0
  6
CONTINUOUS
 62
4
100
AcDbLine
 10
59.76546464813225
 20
413.4388756030485
 30
0.0000000000000000
 11
295.1252538418709
 21
413.4388756030485
 31
0.0000000000000000
  0
POINT
  5
32D
100
AcDbEntity
  8
MAIN0
  6
CONTINUOUS
 62
5
100
AcDbPoint
 10
62.16353517567575
 20
414.4388756030487
 30
0.0000000000000000
  0
POINT
  5
32E
100
AcDbEntity
  8
MAIN0
  6
CONTINUOUS
 62
5
100
AcDbPoint
 10
76.16353517567575
 20
406.4388756030487
 30
0.0000000000000000
  0
LINE
  5
32F
100
AcDbEntity
  8
MAIN0
  6
CONTINUOUS
 62
4
100
AcDbLine
 10
59.76546464813225
 20
405.4388756030485
 30
0.0000000000000000
 11
295.1252538418709
 21
405.4388756030485
 31
0.0000000000000000
  0
POINT
  5
330
100
AcDbEntity
  8
MAIN0
  6
CONTINUOUS
 62
5
100
AcDbPoint
 10
62.16353517567575
 20
406.4388756030487
 30
0.0000000000000000
  0
MTEXT
  5
331
100
AcDbEntity
  8
MAIN0
  6
CONTINUOUS
 62
4
100
AcDbMText
 10
76.16353517567575
 20
460.4388756030487
 30
0.0000000000000000
 40
6.000000000000000
 41
0.0000000000000000
 44
0.8000000000000000
 71
     1
 72
     1
  1
{\H0.60x;{本ロータリジョイントは油圧（空圧）専用ですのでクーラント等は使用しないで下さい。\PDON'T USE THIS ROTARY JOINT FOR COOLANT BECAUSE \PTHIS IS FOR HYDRAULIC & AIR SPECIFICATIONS ONLY.}}
 11
1.000000000000000
 21
0.0000000000000000
 31
0.0000000000000000
  7
KNJYOKO
  0
MTEXT
  5
332
100
AcDbEntity
  8
MAIN0
  6
CONTINUOUS
 62
4
100
AcDbMText
 10
76.16353517567575
 20
436.4388756030487
 30
0.0000000000000000
 40
6.000000000000000
 41
0.0000000000000000
 44
0.8000000000000000
 71
     1
 72
     1
  1
{\H0.62x;{エアを使用する場合にはクリーンエアを供給して下さい。\PWHEN USING THIS ROTARY JOINT WITH AIR \PSPECIFICATION, CLEAN AIR FROM SUPPLY PORT HAVE \PTO BE SUPPLIED BY AIR UNIT \P(AMG150C-02BC & AC25C-02CG-A).\P}
 11
1.000000000000000
 21
0.0000000000000000
 31
0.0000000000000000
  7
KNJYOKO
  0
MTEXT
  5
333
100
AcDbEntity
  8
MAIN0
  6
CONTINUOUS
 62
4
100
AcDbMText
 10
62.16353517567575
 20
460.6388754123138
 30
0.0000000000000000
 40
6.199999809265137
 41
0.0000000000000000
 44
0.6677419652551825
 71
     1
 72
     1
  1
{\H0.88x;{6)}}
 11
1.000000000000000
 21
0.0000000000000000
 31
0.0000000000000000
  7
STANDARD
  0
POINT
  5
334
100
AcDbEntity
  8
MAIN0
  6
CONTINUOUS
 62
5
100
AcDbPoint
 10
76.16353517567575
 20
398.4388756030487
 30
0.0000000000000000
  0
LINE
  5
335
100
AcDbEntity
  8
MAIN0
  6
CONTINUOUS
 62
4
100
AcDbLine
 10
59.76546464813225
 20
397.4388756030485
 30
0.0000000000000000
 11
295.1252538418709
 21
397.4388756030485
 31
0.0000000000000000
  0
POINT
  5
336
100
AcDbEntity
  8
MAIN0
  6
CONTINUOUS
 62
5
100
AcDbPoint
 10
62.16353517567575
 20
398.4388756030487
 30
0.0000000000000000
  0
MTEXT
  5
337
100
AcDbEntity
  8
MAIN0
  6
CONTINUOUS
 62
4
100
AcDbMText
 10
62.16353517567575
 20
436.6388754123138
 30
0.0000000000000000
 40
6.199999809265137
 41
0.0000000000000000
 44
0.6677419652551825
 71
     1
 72
     1
  1
{\H0.88x;{7)}}
 11
1.000000000000000
 21
0.0000000000000000
 31
0.0000000000000000
  7
STANDARD
  0
LINE
  5
338
100
AcDbEntity
  8
MAIN0
  6
CONTINUOUS
 62
3
100
AcDbLine
 10
158.9944058095011
 20
330.9006151357401
 30
0.0000000000000000
 11
158.9944058093940
 21
261.9006151356891
 31
0.0000000000000000
  0
LINE
  5
339
100
AcDbEntity
  8
MAIN0
  6
CONTINUOUS
 62
3
100
AcDbLine
 10
204.9944058093662
 20
330.9006151357433
 30
0.0000000000000000
 11
204.9944058094733
 21
261.9006151356988
 31
0.0000000000000000
  0
LINE
  5
33A
100
AcDbEntity
  8
MAIN0
  6
CONTINUOUS
 62
3
100
AcDbLine
 10
204.9944058094728
 20
261.9006151356988
 30
0.0000000000000000
 11
158.9944058093939
 21
261.9006151356924
 31
0.0000000000000000
  0
LINE
  5
33B
100
AcDbEntity
  8
MAIN0
  6
CONTINUOUS
 62
3
100
AcDbLine
 10
204.9944058094660
 20
266.4006151357317
 30
0.0000000000000000
 11
158.9944058094011
 21
266.4006151357381
 31
0.0000000000000000
  0
LINE
  5
33C
100
AcDbEntity
  8
MAIN0
  6
CONTINUOUS
 62
3
100
AcDbLine
 10
201.9944058093658
 20
333.9006151357386
 30
0.0000000000000000
 11
161.9944058095013
 21
333.9006151357386
 31
0.0000000000000000
  0
ARC
  5
33D
100
AcDbEntity
  8
MAIN0
  6
CONTINUOUS
 62
3
100
AcDbCircle
 10
201.9944058093658
 20
330.9006151357386
 30
0.0000000000000000
 40
3.000000000000000
100
AcDbArc
 50
0.0000000000000000
 51
90.00000000000000
  0
ARC
  5
33E
100
AcDbEntity
  8
MAIN0
  6
CONTINUOUS
 62
3
100
AcDbCircle
 10
161.9944058095013
 20
330.9006151357354
 30
0.0000000000000000
 40
3.000000000000000
100
AcDbArc
 50
90.00000000000000
 51
180.0000000000000
  0
LINE
  5
33F
100
AcDbEntity
  8
MAIN0
  6
CONTINUOUS
 62
3
100
AcDbLine
 10
170.9944058094429
 20
269.5763786088257
 30
0.0000000000000000
 11
160.9944058094429
 21
269.5763786088257
 31
0.0000000000000000
  0
LINE
  5
340
100
AcDbEntity
  8
MAIN0
  6
CONTINUOUS
 62
3
100
AcDbLine
 10
202.9944058094025
 20
269.5763786088657
 30
0.0000000000000000
 11
192.9944058094025
 21
269.5763786088657
 31
0.0000000000000000
  0
ARC
  5
341
100
AcDbEntity
  8
MAIN0
  6
CONTINUOUS
 62
3
100
AcDbCircle
 10
168.4944058094431
 20
252.4097119421590
 30
0.0000000000000000
 40
4.166666666666828
100
AcDbArc
 50
53.13010235415766
 51
126.8698976458423
  0
ARC
  5
342
100
AcDbEntity
  8
MAIN0
  6
CONTINUOUS
 62
3
100
AcDbCircle
 10
163.4944058094431
 20
252.4097119421590
 30
0.0000000000000000
 40
4.166666666666828
100
AcDbArc
 50
53.13010235415766
 51
126.8698976458423
  0
ARC
  5
343
100
AcDbEntity
  8
MAIN0
  6
CONTINUOUS
 62
3
100
AcDbCircle
 10
200.4944058094026
 20
252.4097119421990
 30
0.0000000000000000
 40
4.166666666666828
100
AcDbArc
 50
53.13010235415766
 51
126.8698976458423
  0
ARC
  5
344
100
AcDbEntity
  8
MAIN0
  6
CONTINUOUS
 62
3
100
AcDbCircle
 10
195.4944058094029
 20
252.4097119421990
 30
0.0000000000000000
 40
4.166666666666828
100
AcDbArc
 50
53.13010235415766
 51
126.8698976458423
  0
LINE
  5
345
100
AcDbEntity
  8
MAIN0
  6
CENTER
 62
4
100
AcDbLine
 10
188.6838972207490
 20
324.9006151357386
 30
0.0000000000000000
 11
205.1838972207490
 21
324.9006151357386
 31
0.0000000000000000
  0
LINE
  5
346
100
AcDbEntity
  8
MAIN0
  6
CENTER
 62
4
100
AcDbLine
 10
196.9338972207490
 20
316.6506151357386
 30
0.0000000000000000
 11
196.9338972207490
 21
335.4435701184621
 31
0.0000000000000000
  0
LINE
  5
347
100
AcDbEntity
  8
MAIN0
  6
CENTER
 62
4
100
AcDbLine
 10
158.8049143980649
 20
324.9006151357386
 30
0.0000000000000000
 11
175.3049143980649
 21
324.9006151357386
 31
0.0000000000000000
  0
LINE
  5
348
100
AcDbEntity
  8
MAIN0
  6
CENTER
 62
4
100
AcDbLine
 10
167.0549143980649
 20
316.6506151357386
 30
0.0000000000000000
 11
167.0549143980649
 21
336.3301444154390
 31
0.0000000000000000
  0
LINE
  5
349
100
AcDbEntity
  8
MAIN0
  6
CENTER
 62
4
100
AcDbLine
 10
197.9944058089714
 20
249.5808962101049
 30
0.0000000000000000
 11
197.9944058089276
 21
277.5452823303543
 31
0.0000000000000000
  0
LINE
  5
34A
100
AcDbEntity
  8
MAIN0
  6
CENTER
 62
4
100
AcDbLine
 10
165.9944058095013
 20
249.5808962101048
 30
0.0000000000000000
 11
165.9944058095013
 21
277.5452823303543
 31
0.0000000000000000
  0
LINE
  5
34B
100
AcDbEntity
  8
MAIN0
  6
CONTINUOUS
 62
3
100
AcDbLine
 10
204.9944058094090
 20
303.5384811940802
 30
0.0000000000000000
 11
158.9944058094581
 21
303.5384811940802
 31
0.0000000000000000
  0
POINT
  5
34C
100
AcDbEntity
  8
MAIN0
  6
CONTINUOUS
 62
5
100
AcDbPoint
 10
181.9944058094067
 20
230.5763786089123
 30
0.0000000000000000
  0
ARC
  5
34D
100
AcDbEntity
  8
MAIN0
  6
PHANTOM
 62
4
100
AcDbCircle
 10
169.4944058094067
 20
252.2270137035231
 30
0.0000000000000000
 40
2.500000000000000
100
AcDbArc
 50
344.9148636192232
 51
413.1301023531137
  0
ARC
  5
34E
100
AcDbEntity
  8
MAIN0
  6
PHANTOM
 62
4
100
AcDbCircle
 10
169.4944058094067
 20
252.2270137035231
 30
0.0000000000000000
 40
3.000000000000000
100
AcDbArc
 50
347.4742497872147
 51
419.9999999991978
  0
ARC
  5
34F
100
AcDbEntity
  8
MAIN0
  6
PHANTOM
 62
4
100
AcDbCircle
 10
169.4944058094067
 20
208.9257435143014
 30
0.0000000000000000
 40
3.000000000000000
100
AcDbArc
 50
167.4742497872130
 51
372.5257502127870
  0
ARC
  5
350
100
AcDbEntity
  8
MAIN0
  6
PHANTOM
 62
4
100
AcDbCircle
 10
169.4944058094067
 20
208.9257435143014
 30
0.0000000000000000
 40
2.500000000000000
100
AcDbArc
 50
164.9148636192214
 51
375.0851363807786
  0
ARC
  5
351
100
AcDbEntity
  8
MAIN0
  6
PHANTOM
 62
4
100
AcDbCircle
 10
194.4944058094065
 20
208.9257435143014
 30
0.0000000000000000
 40
2.500000000000000
100
AcDbArc
 50
164.9148636192226
 51
375.0851363807773
  0
ARC
  5
352
100
AcDbEntity
  8
MAIN0
  6
PHANTOM
 62
4
100
AcDbCircle
 10
194.4944058094065
 20
208.9257435143014
 30
0.0000000000000000
 40
3.000000000000000
100
AcDbArc
 50
167.4742497872141
 51
372.5257502127859
  0
ARC
  5
353
100
AcDbEntity
  8
MAIN0
  6
PHANTOM
 62
4
100
AcDbCircle
 10
194.4944058094067
 20
252.2270137035231
 30
0.0000000000000000
 40
2.500000000000000
100
AcDbArc
 50
126.8698976459613
 51
195.0851363807767
  0
ARC
  5
354
100
AcDbEntity
  8
MAIN0
  6
PHANTOM
 62
4
100
AcDbCircle
 10
194.4944058094067
 20
252.2270137035231
 30
0.0000000000000000
 40
3.000000000000000
100
AcDbArc
 50
120.0000000000902
 51
192.5257502127854
  0
LINE
  5
355
100
AcDbEntity
  8
MAIN0
  6
PHANTOM
 62
4
100
AcDbLine
 10
108.9944058094067
 20
335.5763753307122
 30
0.0000000000000000
 11
254.9944058094067
 21
335.5763753307122
 31
0.0000000000000000
  0
ARC
  5
356
100
AcDbEntity
  8
MAIN0
  6
PHANTOM
 62
4
100
AcDbCircle
 10
266.9944058094067
 20
308.0360455331122
 30
0.0000000000000000
 40
10.00000000000000
100
AcDbArc
 50
200.2408374510674
 51
222.3426054522000
  0
ARC
  5
357
100
AcDbEntity
  8
MAIN0
  6
PHANTOM
 62
4
100
AcDbCircle
 10
96.99440580940666
 20
308.0360455331122
 30
0.0000000000000000
 40
10.00000000000000
100
AcDbArc
 50
317.6573945478000
 51
339.7591625489322
  0
LINE
  5
358
100
AcDbEntity
  8
MAIN0
  6
PHANTOM
 62
4
100
AcDbLine
 10
106.9944028292067
 20
153.1167080057120
 30
0.0000000000000000
 11
106.9944028292067
 21
124.5763780129122
 31
0.0000000000000000
  0
ARC
  5
359
100
AcDbEntity
  8
MAIN0
  6
PHANTOM
 62
4
100
AcDbCircle
 10
96.99440580940666
 20
153.1167116848122
 30
0.0000000000000000
 40
9.999999999999979
100
AcDbArc
 50
0.0000000000000000
 51
42.34260545220000
  0
ARC
  5
35A
100
AcDbEntity
  8
MAIN0
  6
PHANTOM
 62
4
100
AcDbCircle
 10
266.9944058095068
 20
153.1167116849123
 30
0.0000000000000000
 40
10.00000000000000
100
AcDbArc
 50
137.6573945479000
 51
180.0000000000000
  0
LINE
  5
35B
100
AcDbEntity
  8
MAIN0
  6
PHANTOM
 62
4
100
AcDbLine
 10
256.9944087896067
 20
124.5763780129122
 30
0.0000000000000000
 11
256.9944087896067
 21
153.1167080057120
 31
0.0000000000000000
  0
LINE
  5
35C
100
AcDbEntity
  8
MAIN0
  6
CENTER
 62
4
100
AcDbLine
 10
296.9944078956068
 20
230.5763786089123
 30
0.0000000000000000
 11
66.99440372320657
 21
230.5763786089123
 31
0.0000000000000000
  0
LINE
  5
35D
100
AcDbEntity
  8
MAIN0
  6
CENTER
 62
4
100
AcDbLine
 10
181.9944058094068
 20
134.7339542222572
 30
0.0000000000000000
 11
181.9944058094067
 21
337.3992125252257
 31
0.0000000000000000
  0
CIRCLE
  5
35E
100
AcDbEntity
  8
MAIN0
  6
PHANTOM
 62
4
100
AcDbCircle
 10
134.2444058106790
 20
313.2818046710609
 30
0.0000000000000000
 40
5.500000000000000
  0
CIRCLE
  5
35F
100
AcDbEntity
  8
MAIN0
  6
PHANTOM
 62
4
100
AcDbCircle
 10
99.28897974872314
 20
278.3263786101836
 30
0.0000000000000000
 40
5.500000000000000
  0
CIRCLE
  5
360
100
AcDbEntity
  8
MAIN0
  6
PHANTOM
 62
4
100
AcDbCircle
 10
86.49440580939915
 20
230.5763786103776
 30
0.0000000000000000
 40
5.500000000000000
  0
CIRCLE
  5
361
100
AcDbEntity
  8
MAIN0
  6
PHANTOM
 62
4
100
AcDbCircle
 10
99.28897974724976
 20
182.8263786101766
 30
0.0000000000000000
 40
5.500000000000000
  0
CIRCLE
  5
362
100
AcDbEntity
  8
MAIN0
  6
PHANTOM
 62
4
100
AcDbCircle
 10
134.2444058081268
 20
147.8709525482207
 30
0.0000000000000000
 40
5.500000000000000
  0
CIRCLE
  5
363
100
AcDbEntity
  8
MAIN0
  6
PHANTOM
 62
4
100
AcDbCircle
 10
229.7444058081334
 20
313.2818046710609
 30
0.0000000000000000
 40
5.500000000000000
  0
CIRCLE
  5
364
100
AcDbEntity
  8
MAIN0
  6
PHANTOM
 62
4
100
AcDbCircle
 10
264.6998318700893
 20
278.3263786101841
 30
0.0000000000000000
 40
5.500000000000000
  0
CIRCLE
  5
365
100
AcDbEntity
  8
MAIN0
  6
PHANTOM
 62
4
100
AcDbCircle
 10
277.4944058094133
 20
230.5763786103778
 30
0.0000000000000000
 40
5.500000000000000
  0
CIRCLE
  5
366
100
AcDbEntity
  8
MAIN0
  6
PHANTOM
 62
4
100
AcDbCircle
 10
264.6998318715638
 20
182.8263786101769
 30
0.0000000000000000
 40
5.500000000000000
  0
CIRCLE
  5
367
100
AcDbEntity
  8
MAIN0
  6
PHANTOM
 62
4
100
AcDbCircle
 10
229.7444058106864
 20
147.8709525482212
 30
0.0000000000000000
 40
5.500000000000000
  0
CIRCLE
  5
368
100
AcDbEntity
  8
MAIN0
  6
PHANTOM
 62
4
100
AcDbCircle
 10
276.3186423362335
 20
215.6368871975707
 30
0.0000000000000000
 40
3.000000000000000
  0
CIRCLE
  5
369
100
AcDbEntity
  8
MAIN0
  6
PHANTOM
 62
4
100
AcDbCircle
 10
276.3186423362335
 20
215.6368871975707
 30
0.0000000000000000
 40
2.500000000000000
  0
CIRCLE
  5
36A
100
AcDbEntity
  8
MAIN0
  6
PHANTOM
 62
4
100
AcDbCircle
 10
276.3186423362335
 20
245.5158700202546
 30
0.0000000000000000
 40
3.000000000000000
  0
CIRCLE
  5
36B
100
AcDbEntity
  8
MAIN0
  6
PHANTOM
 62
4
100
AcDbCircle
 10
276.3186423362335
 20
245.5158700202546
 30
0.0000000000000000
 40
2.500000000000000
  0
ARC
  5
36C
100
AcDbEntity
  8
MAIN0
  6
PHANTOM
 62
4
100
AcDbCircle
 10
196.9338972207488
 20
136.2521420820860
 30
0.0000000000000000
 40
3.000000000000000
100
AcDbArc
 50
329.5980831225206
 51
570.4019168774794
  0
ARC
  5
36D
100
AcDbEntity
  8
MAIN0
  6
PHANTOM
 62
4
100
AcDbCircle
 10
196.9338972207488
 20
136.2521420820860
 30
0.0000000000000000
 40
2.500000000000000
100
AcDbArc
 50
322.6072621578389
 51
577.3927378421611
  0
ARC
  5
36E
100
AcDbEntity
  8
MAIN0
  6
PHANTOM
 62
4
100
AcDbCircle
 10
167.0549143980647
 20
136.2521420820860
 30
0.0000000000000000
 40
3.000000000000000
100
AcDbArc
 50
329.5980831225201
 51
570.4019168774800
  0
ARC
  5
36F
100
AcDbEntity
  8
MAIN0
  6
PHANTOM
 62
4
100
AcDbCircle
 10
167.0549143980647
 20
136.2521420820860
 30
0.0000000000000000
 40
2.500000000000000
100
AcDbArc
 50
322.6072621578374
 51
577.3927378421626
  0
CIRCLE
  5
370
100
AcDbEntity
  8
MAIN0
  6
PHANTOM
 62
4
100
AcDbCircle
 10
87.67016928258011
 20
215.6368871975707
 30
0.0000000000000000
 40
3.000000000000000
  0
CIRCLE
  5
371
100
AcDbEntity
  8
MAIN0
  6
PHANTOM
 62
4
100
AcDbCircle
 10
87.67016928258011
 20
215.6368871975707
 30
0.0000000000000000
 40
2.500000000000000
  0
CIRCLE
  5
372
100
AcDbEntity
  8
MAIN0
  6
PHANTOM
 62
4
100
AcDbCircle
 10
87.67016928258011
 20
245.5158700202545
 30
0.0000000000000000
 40
3.000000000000000
  0
CIRCLE
  5
373
100
AcDbEntity
  8
MAIN0
  6
PHANTOM
 62
4
100
AcDbCircle
 10
87.67016928258011
 20
245.5158700202545
 30
0.0000000000000000
 40
2.500000000000000
  0
ARC
  5
374
100
AcDbEntity
  8
MAIN0
  6
PHANTOM
 62
4
100
AcDbCircle
 10
181.9944058079415
 20
135.0763786089058
 30
0.0000000000000000
 40
5.500000000000000
100
AcDbArc
 50
356.4305147116165
 51
543.5694852883835
  0
LINE
  5
375
100
AcDbEntity
  8
MAIN0
  6
PHANTOM
 62
4
100
AcDbLine
 10
255.9944058094067
 20
334.5763753307122
 30
0.0000000000000000
 11
255.9944058094067
 21
304.5763753307122
 31
0.0000000000000000
  0
LINE
  5
376
100
AcDbEntity
  8
MAIN0
  6
PHANTOM
 62
4
100
AcDbLine
 10
255.9944058094067
 20
304.5763753307122
 30
0.0000000000000000
 11
257.6119390713561
 21
304.5763753307122
 31
0.0000000000000000
  0
LINE
  5
377
100
AcDbEntity
  8
MAIN0
  6
PHANTOM
 62
4
100
AcDbLine
 10
255.9944058094069
 20
334.5763753307122
 30
0.0000000000000000
 11
254.9944058094069
 21
335.5763753307122
 31
0.0000000000000000
  0
LINE
  5
378
100
AcDbEntity
  8
MAIN0
  6
PHANTOM
 62
4
100
AcDbLine
 10
107.9944058094067
 20
334.5763753307122
 30
0.0000000000000000
 11
107.9944058094067
 21
304.5763753307122
 31
0.0000000000000000
  0
LINE
  5
379
100
AcDbEntity
  8
MAIN0
  6
PHANTOM
 62
4
100
AcDbLine
 10
106.3768725474573
 20
304.5763753307122
 30
0.0000000000000000
 11
107.9944058094067
 21
304.5763753307122
 31
0.0000000000000000
  0
LINE
  5
37A
100
AcDbEntity
  8
MAIN0
  6
PHANTOM
 62
4
100
AcDbLine
 10
107.9944058094069
 20
334.5763753307123
 30
0.0000000000000000
 11
108.9944058094069
 21
335.5763753307123
 31
0.0000000000000000
  0
ARC
  5
37B
100
AcDbEntity
  8
MAIN0
  6
PHANTOM
 62
4
100
AcDbCircle
 10
181.9944058094067
 20
230.5763786089123
 30
0.0000000000000000
 40
105.0000000000000
100
AcDbArc
 50
137.6573945478000
 51
222.3426054521894
  0
ARC
  5
37C
100
AcDbEntity
  8
MAIN0
  6
PHANTOM
 62
4
100
AcDbCircle
 10
181.9944058094067
 20
230.5763786089123
 30
0.0000000000000000
 40
105.0000000000000
100
AcDbArc
 50
317.6573945478810
 51
402.3426054522000
  0
ARC
  5
37D
100
AcDbEntity
  8
MAIN0
  6
PHANTOM
 62
4
100
AcDbCircle
 10
181.9944058094067
 20
230.5763786089126
 30
0.0000000000000000
 40
103.4999999959240
100
AcDbArc
 50
86.66040930574866
 51
93.33959069425136
  0
ARC
  5
37E
100
AcDbEntity
  8
MAIN0
  6
PHANTOM
 62
4
100
AcDbCircle
 10
181.9944058094067
 20
230.5763786089126
 30
0.0000000000000000
 40
30.00000000016172
100
AcDbArc
 50
64.32071138077937
 51
115.6792886193108
  0
ARC
  5
37F
100
AcDbEntity
  8
MAIN0
  6
PHANTOM
 62
4
100
AcDbCircle
 10
181.9944058094067
 20
230.5763786089126
 30
0.0000000000000000
 40
30.00000000016172
100
AcDbArc
 50
134.4270040004057
 51
135.5729959994980
  0
ARC
  5
380
100
AcDbEntity
  8
MAIN0
  6
PHANTOM
 62
4
100
AcDbCircle
 10
181.9944058094067
 20
230.5763786089123
 30
0.0000000000000000
 40
30.00000000126602
100
AcDbArc
 50
134.4270039983384
 51
135.5729960015642
  0
ARC
  5
381
100
AcDbEntity
  8
MAIN0
  6
PHANTOM
 62
4
100
AcDbCircle
 10
181.9944058094067
 20
230.5763786089126
 30
0.0000000000000000
 40
30.00000000016172
100
AcDbArc
 50
224.4270040005038
 51
315.5729959994961
  0
ARC
  5
382
100
AcDbEntity
  8
MAIN0
  6
PHANTOM
 62
4
100
AcDbCircle
 10
181.9944058094067
 20
230.5763786089126
 30
0.0000000000000000
 40
30.00000000016172
100
AcDbArc
 50
44.42700400050200
 51
45.57299599950801
  0
ARC
  5
383
100
AcDbEntity
  8
MAIN0
  6
PHANTOM
 62
4
100
AcDbCircle
 10
181.9944058094067
 20
230.5763786089123
 30
0.0000000000000000
 40
30.00000000126602
100
AcDbArc
 50
224.4270039984357
 51
315.5729960015643
  0
ARC
  5
384
100
AcDbEntity
  8
MAIN0
  6
PHANTOM
 62
4
100
AcDbCircle
 10
181.9944058094067
 20
230.5763786089123
 30
0.0000000000000000
 40
30.00000000126602
100
AcDbArc
 50
44.42700399843577
 51
45.57299600157527
  0
ARC
  5
385
100
AcDbEntity
  8
MAIN0
  6
PHANTOM
 62
4
100
AcDbCircle
 10
181.9944058094067
 20
230.5763786089126
 30
0.0000000000000000
 40
103.4999999959240
100
AcDbArc
 50
102.8049755816041
 51
247.4475067196403
  0
ARC
  5
386
100
AcDbEntity
  8
MAIN0
  6
PHANTOM
 62
4
100
AcDbCircle
 10
181.9944058094067
 20
230.5763786089126
 30
0.0000000000000000
 40
103.4999999959240
100
AcDbArc
 50
294.3869974901073
 51
437.1950244183635
  0
POINT
  5
387
100
AcDbEntity
  8
MAIN0
  6
CONTINUOUS
 62
5
100
AcDbPoint
 10
76.16353517567575
 20
382.4388756030487
 30
0.0000000000000000
  0
LINE
  5
388
100
AcDbEntity
  8
MAIN0
  6
CONTINUOUS
 62
4
100
AcDbLine
 10
59.76546464813225
 20
381.4388756030485
 30
0.0000000000000000
 11
295.1252538418709
 21
381.4388756030485
 31
0.0000000000000000
  0
POINT
  5
389
100
AcDbEntity
  8
MAIN0
  6
CONTINUOUS
 62
5
100
AcDbPoint
 10
62.16353517567575
 20
382.4388756030487
 30
0.0000000000000000
  0
POINT
  5
38A
100
AcDbEntity
  8
MAIN0
  6
CONTINUOUS
 62
5
100
AcDbPoint
 10
76.16353517567575
 20
374.4388756030487
 30
0.0000000000000000
  0
LINE
  5
38B
100
AcDbEntity
  8
MAIN0
  6
CONTINUOUS
 62
4
100
AcDbLine
 10
59.76546464813225
 20
373.4388756030485
 30
0.0000000000000000
 11
295.1252538418709
 21
373.4388756030485
 31
0.0000000000000000
  0
POINT
  5
38C
100
AcDbEntity
  8
MAIN0
  6
CONTINUOUS
 62
5
100
AcDbPoint
 10
62.16353517567575
 20
374.4388756030487
 30
0.0000000000000000
  0
POINT
  5
38D
100
AcDbEntity
  8
MAIN0
  6
CONTINUOUS
 62
5
100
AcDbPoint
 10
76.16353517567575
 20
366.4388756030487
 30
0.0000000000000000
  0
LINE
  5
38E
100
AcDbEntity
  8
MAIN0
  6
CONTINUOUS
 62
4
100
AcDbLine
 10
59.76546464813225
 20
365.4388756030485
 30
0.0000000000000000
 11
295.1252538418709
 21
365.4388756030485
 31
0.0000000000000000
  0
POINT
  5
38F
100
AcDbEntity
  8
MAIN0
  6
CONTINUOUS
 62
5
100
AcDbPoint
 10
62.16353517567575
 20
366.4388756030487
 30
0.0000000000000000
  0
POINT
  5
390
100
AcDbEntity
  8
MAIN0
  6
CONTINUOUS
 62
5
100
AcDbPoint
 10
76.16353517567575
 20
358.4388756030487
 30
0.0000000000000000
  0
LINE
  5
391
100
AcDbEntity
  8
MAIN0
  6
CONTINUOUS
 62
4
100
AcDbLine
 10
59.76546464813225
 20
357.4388756030485
 30
0.0000000000000000
 11
295.1252538418709
 21
357.4388756030485
 31
0.0000000000000000
  0
POINT
  5
392
100
AcDbEntity
  8
MAIN0
  6
CONTINUOUS
 62
5
100
AcDbPoint
 10
62.16353517567575
 20
358.4388756030487
 30
0.0000000000000000
  0
POINT
  5
393
100
AcDbEntity
  8
MAIN0
  6
CONTINUOUS
 62
5
100
AcDbPoint
 10
76.16353517567575
 20
350.4388756030487
 30
0.0000000000000000
  0
LINE
  5
394
100
AcDbEntity
  8
MAIN0
  6
CONTINUOUS
 62
4
100
AcDbLine
 10
59.76546464813225
 20
349.4388756030485
 30
0.0000000000000000
 11
295.1252538418709
 21
349.4388756030485
 31
0.0000000000000000
  0
POINT
  5
395
100
AcDbEntity
  8
MAIN0
  6
CONTINUOUS
 62
5
100
AcDbPoint
 10
62.16353517567575
 20
350.4388756030487
 30
0.0000000000000000
  0
POINT
  5
396
100
AcDbEntity
  8
MAIN0
  6
CONTINUOUS
 62
5
100
AcDbPoint
 10
76.16353517567575
 20
342.4388756030487
 30
0.0000000000000000
  0
LINE
  5
397
100
AcDbEntity
  8
MAIN0
  6
CONTINUOUS
 62
4
100
AcDbLine
 10
59.76546464813225
 20
341.4388756030485
 30
0.0000000000000000
 11
295.1252538418709
 21
341.4388756030485
 31
0.0000000000000000
  0
POINT
  5
398
100
AcDbEntity
  8
MAIN0
  6
CONTINUOUS
 62
5
100
AcDbPoint
 10
62.16353517567575
 20
342.4388756030487
 30
0.0000000000000000
  0
MTEXT
  5
399
100
AcDbEntity
  8
MAIN0
  6
CONTINUOUS
 62
4
100
AcDbMText
 10
62.16353517567575
 20
364.6388754123138
 30
0.0000000000000000
 40
6.199999809265137
 41
0.0000000000000000
 44
0.6677419652551825
 71
     1
 72
     1
  1
{\H0.88x;{9)}}
 11
1.000000000000000
 21
0.0000000000000000
 31
0.0000000000000000
  7
STANDARD
  0
MTEXT
  5
39A
100
AcDbEntity
  8
MAIN0
  6
CONTINUOUS
 62
4
100
AcDbMText
 10
76.16353517567575
 20
396.4388756030487
 30
0.0000000000000000
 40
6.000000000000000
 41
0.0000000000000000
 44
0.8000000000000000
 71
     1
 72
     1
  1
{\H0.59x;{鋼管・銅管での配管はロータリジョイントに無理な力がかかることがあり、不具合の原因となります。}}
 11
1.000000000000000
 21
0.0000000000000000
 31
0.0000000000000000
  7
KNJYOKO
  0
MTEXT
  5
39B
100
AcDbEntity
  8
MAIN0
  6
CONTINUOUS
 62
4
100
AcDbMText
 10
76.16353517567575
 20
388.4388756030487
 30
0.0000000000000000
 40
6.000000000000000
 41
0.0000000000000000
 44
0.8000000000000000
 71
     1
 72
     1
  1
{\H0.63x;{USING STEEL PIPES OR COPPER PIPES MAY CAUSE PROBLEMS \PBECAUSE EXCESSIVE FORCE MAY BE APPLIED TO THE \PROTARY JOINT.}}
 11
1.000000000000000
 21
0.0000000000000000
 31
0.0000000000000000
  7
STANDARD
  0
MTEXT
  5
39C
100
AcDbEntity
  8
MAIN0
  6
CONTINUOUS
 62
4
100
AcDbMText
 10
76.16353517567575
 20
364.4388756030487
 30
0.0000000000000000
 40
6.000000000000000
 41
0.0000000000000000
 44
0.8000000000000000
 71
     1
 72
     1
  1
{\H0.59x;{連続回転は発熱による内部パッキンの劣化の原因となります。}}
 11
1.000000000000000
 21
0.0000000000000000
 31
0.0000000000000000
  7
KNJYOKO
  0
MTEXT
  5
39D
100
AcDbEntity
  8
MAIN0
  6
CONTINUOUS
 62
4
100
AcDbMText
 10
76.16353517567575
 20
356.4388756030487
 30
0.0000000000000000
 40
6.000000000000000
 41
0.0000000000000000
 44
0.8000000000000000
 71
     1
 72
     1
  1
{\H0.63x;{DO NOT USE CONTINUOUS ROTATION BECAUSE IT MAY CAUSE\PDETERIORATION OF PACKING DUE TO HEAT GENERATION.}}
 11
1.000000000000000
 21
0.0000000000000000
 31
0.0000000000000000
  7
STANDARD
  0
MTEXT
  5
39E
100
AcDbEntity
  8
MAIN0
  6
CONTINUOUS
 62
4
100
AcDbMText
 10
62.16353517567575
 20
396.6388754123138
 30
0.0000000000000000
 40
6.199999809265137
 41
0.0000000000000000
 44
0.6677419652551825
 71
     1
 72
     1
  1
{\H0.88x;{8)}}
 11
1.000000000000000
 21
0.0000000000000000
 31
0.0000000000000000
  7
STANDARD
  0
CIRCLE
  5
39F
100
AcDbEntity
  8
MAIN0
  6
CONTINUOUS
 62
4
100
AcDbCircle
 10
664.7742896582391
 20
247.9013201865475
 30
0.0000000000000000
 40
2.500000000000000
  0
CIRCLE
  5
3A0
100
AcDbEntity
  8
MAIN0
  6
CONTINUOUS
 62
4
100
AcDbCircle
 10
664.7742896582391
 20
247.9013201865475
 30
0.0000000000000000
 40
2.066987200000000
  0
LINE
  5
3A1
100
AcDbEntity
  8
MAIN0
  6
CONTINUOUS
 62
4
100
AcDbLine
 10
664.7742896582391
 20
249.3446958595215
 30
0.0000000000000000
 11
663.5242896582391
 21
248.6230080230345
 31
0.0000000000000000
  0
LINE
  5
3A2
100
AcDbEntity
  8
MAIN0
  6
CONTINUOUS
 62
4
100
AcDbLine
 10
663.5242896582391
 20
248.6230080230345
 30
0.0000000000000000
 11
663.5242896582391
 21
247.1796323500604
 31
0.0000000000000000
  0
LINE
  5
3A3
100
AcDbEntity
  8
MAIN0
  6
CONTINUOUS
 62
4
100
AcDbLine
 10
663.5242896582391
 20
247.1796323500604
 30
0.0000000000000000
 11
664.7742896582391
 21
246.4579445135734
 31
0.0000000000000000
  0
LINE
  5
3A4
100
AcDbEntity
  8
MAIN0
  6
CONTINUOUS
 62
4
100
AcDbLine
 10
664.7742896582391
 20
246.4579445135734
 30
0.0000000000000000
 11
666.0242896582391
 21
247.1796323500604
 31
0.0000000000000000
  0
LINE
  5
3A5
100
AcDbEntity
  8
MAIN0
  6
CONTINUOUS
 62
4
100
AcDbLine
 10
666.0242896582391
 20
247.1796323500604
 30
0.0000000000000000
 11
666.0242896582391
 21
248.6230080230345
 31
0.0000000000000000
  0
LINE
  5
3A6
100
AcDbEntity
  8
MAIN0
  6
CONTINUOUS
 62
4
100
AcDbLine
 10
666.0242896582391
 20
248.6230080230345
 30
0.0000000000000000
 11
664.7742896582391
 21
249.3446958595216
 31
0.0000000000000000
  0
CIRCLE
  5
3A7
100
AcDbEntity
  8
MAIN0
  6
CONTINUOUS
 62
4
100
AcDbCircle
 10
660.2742896582391
 20
243.4013201865475
 30
0.0000000000000000
 40
2.500000000000000
  0
CIRCLE
  5
3A8
100
AcDbEntity
  8
MAIN0
  6
CONTINUOUS
 62
4
100
AcDbCircle
 10
660.2742896582391
 20
243.4013201865475
 30
0.0000000000000000
 40
2.066987200000000
  0
LINE
  5
3A9
100
AcDbEntity
  8
MAIN0
  6
CONTINUOUS
 62
4
100
AcDbLine
 10
660.2742896582391
 20
244.8446958595216
 30
0.0000000000000000
 11
659.0242896582391
 21
244.1230080230345
 31
0.0000000000000000
  0
LINE
  5
3AA
100
AcDbEntity
  8
MAIN0
  6
CONTINUOUS
 62
4
100
AcDbLine
 10
659.0242896582391
 20
244.1230080230345
 30
0.0000000000000000
 11
659.0242896582391
 21
242.6796323500604
 31
0.0000000000000000
  0
LINE
  5
3AB
100
AcDbEntity
  8
MAIN0
  6
CONTINUOUS
 62
4
100
AcDbLine
 10
659.0242896582391
 20
242.6796323500604
 30
0.0000000000000000
 11
660.2742896582391
 21
241.9579445135734
 31
0.0000000000000000
  0
LINE
  5
3AC
100
AcDbEntity
  8
MAIN0
  6
CONTINUOUS
 62
4
100
AcDbLine
 10
660.2742896582391
 20
241.9579445135734
 30
0.0000000000000000
 11
661.5242896582391
 21
242.6796323500604
 31
0.0000000000000000
  0
LINE
  5
3AD
100
AcDbEntity
  8
MAIN0
  6
CONTINUOUS
 62
4
100
AcDbLine
 10
661.5242896582391
 20
242.6796323500604
 30
0.0000000000000000
 11
661.5242896582391
 21
244.1230080230345
 31
0.0000000000000000
  0
LINE
  5
3AE
100
AcDbEntity
  8
MAIN0
  6
CONTINUOUS
 62
4
100
AcDbLine
 10
661.5242896582391
 20
244.1230080230345
 30
0.0000000000000000
 11
660.2742896582391
 21
244.8446958595216
 31
0.0000000000000000
  0
CIRCLE
  5
3AF
100
AcDbEntity
  8
MAIN0
  6
CONTINUOUS
 62
4
100
AcDbCircle
 10
655.7742896582391
 20
247.9013201865475
 30
0.0000000000000000
 40
2.500000000000000
  0
CIRCLE
  5
3B0
100
AcDbEntity
  8
MAIN0
  6
CONTINUOUS
 62
4
100
AcDbCircle
 10
655.7742896582391
 20
247.9013201865475
 30
0.0000000000000000
 40
2.066987200000000
  0
LINE
  5
3B1
100
AcDbEntity
  8
MAIN0
  6
CONTINUOUS
 62
4
100
AcDbLine
 10
655.7742896582391
 20
249.3446958595216
 30
0.0000000000000000
 11
654.5242896582391
 21
248.6230080230345
 31
0.0000000000000000
  0
LINE
  5
3B2
100
AcDbEntity
  8
MAIN0
  6
CONTINUOUS
 62
4
100
AcDbLine
 10
654.5242896582391
 20
248.6230080230345
 30
0.0000000000000000
 11
654.5242896582391
 21
247.1796323500604
 31
0.0000000000000000
  0
LINE
  5
3B3
100
AcDbEntity
  8
MAIN0
  6
CONTINUOUS
 62
4
100
AcDbLine
 10
654.5242896582391
 20
247.1796323500604
 30
0.0000000000000000
 11
655.7742896582391
 21
246.4579445135734
 31
0.0000000000000000
  0
LINE
  5
3B4
100
AcDbEntity
  8
MAIN0
  6
CONTINUOUS
 62
4
100
AcDbLine
 10
655.7742896582391
 20
246.4579445135734
 30
0.0000000000000000
 11
657.0242896582391
 21
247.1796323500604
 31
0.0000000000000000
  0
LINE
  5
3B5
100
AcDbEntity
  8
MAIN0
  6
CONTINUOUS
 62
4
100
AcDbLine
 10
657.0242896582391
 20
247.1796323500604
 30
0.0000000000000000
 11
657.0242896582391
 21
248.6230080230345
 31
0.0000000000000000
  0
LINE
  5
3B6
100
AcDbEntity
  8
MAIN0
  6
CONTINUOUS
 62
4
100
AcDbLine
 10
657.0242896582391
 20
248.6230080230345
 30
0.0000000000000000
 11
655.7742896582391
 21
249.3446958595216
 31
0.0000000000000000
  0
CIRCLE
  5
3B7
100
AcDbEntity
  8
MAIN0
  6
CONTINUOUS
 62
4
100
AcDbCircle
 10
660.2742896582391
 20
252.4013201865475
 30
0.0000000000000000
 40
2.500000000000000
  0
CIRCLE
  5
3B8
100
AcDbEntity
  8
MAIN0
  6
CONTINUOUS
 62
4
100
AcDbCircle
 10
660.2742896582391
 20
252.4013201865475
 30
0.0000000000000000
 40
2.066987200000000
  0
LINE
  5
3B9
100
AcDbEntity
  8
MAIN0
  6
CONTINUOUS
 62
4
100
AcDbLine
 10
660.2742896582391
 20
253.8446958595216
 30
0.0000000000000000
 11
659.0242896582391
 21
253.1230080230345
 31
0.0000000000000000
  0
LINE
  5
3BA
100
AcDbEntity
  8
MAIN0
  6
CONTINUOUS
 62
4
100
AcDbLine
 10
659.0242896582391
 20
253.1230080230345
 30
0.0000000000000000
 11
659.0242896582391
 21
251.6796323500604
 31
0.0000000000000000
  0
LINE
  5
3BB
100
AcDbEntity
  8
MAIN0
  6
CONTINUOUS
 62
4
100
AcDbLine
 10
659.0242896582391
 20
251.6796323500604
 30
0.0000000000000000
 11
660.2742896582391
 21
250.9579445135734
 31
0.0000000000000000
  0
LINE
  5
3BC
100
AcDbEntity
  8
MAIN0
  6
CONTINUOUS
 62
4
100
AcDbLine
 10
660.2742896582391
 20
250.9579445135734
 30
0.0000000000000000
 11
661.5242896582391
 21
251.6796323500604
 31
0.0000000000000000
  0
LINE
  5
3BD
100
AcDbEntity
  8
MAIN0
  6
CONTINUOUS
 62
4
100
AcDbLine
 10
661.5242896582391
 20
251.6796323500604
 30
0.0000000000000000
 11
661.5242896582391
 21
253.1230080230345
 31
0.0000000000000000
  0
LINE
  5
3BE
100
AcDbEntity
  8
MAIN0
  6
CONTINUOUS
 62
4
100
AcDbLine
 10
661.5242896582391
 20
253.1230080230345
 30
0.0000000000000000
 11
660.2742896582391
 21
253.8446958595216
 31
0.0000000000000000
  0
CIRCLE
  5
3BF
100
AcDbEntity
  8
MAIN0
  6
CONTINUOUS
 62
4
100
AcDbCircle
 10
167.0549143980649
 20
324.9006151357386
 30
0.0000000000000000
 40
6.250000000000000
  0
CIRCLE
  5
3C0
100
AcDbEntity
  8
MAIN0
  6
CONTINUOUS
 62
3
100
AcDbCircle
 10
167.0549143980649
 20
324.9006151357386
 30
0.0000000000000000
 40
5.000000000000000
  0
LINE
  5
3C1
100
AcDbEntity
  8
MAIN0
  6
CONTINUOUS
 62
3
100
AcDbLine
 10
167.0549143980649
 20
322.0138637897904
 30
0.0000000000000000
 11
169.5549143980649
 21
323.4572394627645
 31
0.0000000000000000
  0
LINE
  5
3C2
100
AcDbEntity
  8
MAIN0
  6
CONTINUOUS
 62
3
100
AcDbLine
 10
169.5549143980649
 20
323.4572394627645
 30
0.0000000000000000
 11
169.5549143980649
 21
326.3439908087127
 31
0.0000000000000000
  0
LINE
  5
3C3
100
AcDbEntity
  8
MAIN0
  6
CONTINUOUS
 62
3
100
AcDbLine
 10
169.5549143980649
 20
326.3439908087127
 30
0.0000000000000000
 11
167.0549143980651
 21
327.7873664816866
 31
0.0000000000000000
  0
LINE
  5
3C4
100
AcDbEntity
  8
MAIN0
  6
CONTINUOUS
 62
3
100
AcDbLine
 10
167.0549143980649
 20
327.7873664816867
 30
0.0000000000000000
 11
164.5549143980649
 21
326.3439908087127
 31
0.0000000000000000
  0
LINE
  5
3C5
100
AcDbEntity
  8
MAIN0
  6
CONTINUOUS
 62
3
100
AcDbLine
 10
164.5549143980649
 20
326.3439908087127
 30
0.0000000000000000
 11
164.5549143980649
 21
323.4572394627645
 31
0.0000000000000000
  0
LINE
  5
3C6
100
AcDbEntity
  8
MAIN0
  6
CONTINUOUS
 62
3
100
AcDbLine
 10
164.5549143980650
 20
323.4572394627647
 30
0.0000000000000000
 11
167.0549143980650
 21
322.0138637897906
 31
0.0000000000000000
  0
CIRCLE
  5
3C7
100
AcDbEntity
  8
MAIN0
  6
CONTINUOUS
 62
4
100
AcDbCircle
 10
196.9338972207490
 20
324.9006151357386
 30
0.0000000000000000
 40
6.250000000000000
  0
CIRCLE
  5
3C8
100
AcDbEntity
  8
MAIN0
  6
CONTINUOUS
 62
3
100
AcDbCircle
 10
196.9338972207490
 20
324.9006151357386
 30
0.0000000000000000
 40
5.000000000000000
  0
LINE
  5
3C9
100
AcDbEntity
  8
MAIN0
  6
CONTINUOUS
 62
3
100
AcDbLine
 10
196.9338972207488
 20
322.0138637897906
 30
0.0000000000000000
 11
199.4338972207488
 21
323.4572394627646
 31
0.0000000000000000
  0
LINE
  5
3CA
100
AcDbEntity
  8
MAIN0
  6
CONTINUOUS
 62
3
100
AcDbLine
 10
199.4338972207490
 20
323.4572394627645
 30
0.0000000000000000
 11
199.4338972207490
 21
326.3439908087127
 31
0.0000000000000000
  0
LINE
  5
3CB
100
AcDbEntity
  8
MAIN0
  6
CONTINUOUS
 62
3
100
AcDbLine
 10
199.4338972207489
 20
326.3439908087128
 30
0.0000000000000000
 11
196.9338972207490
 21
327.7873664816867
 31
0.0000000000000000
  0
LINE
  5
3CC
100
AcDbEntity
  8
MAIN0
  6
CONTINUOUS
 62
3
100
AcDbLine
 10
196.9338972207486
 20
327.7873664816867
 30
0.0000000000000000
 11
194.4338972207488
 21
326.3439908087128
 31
0.0000000000000000
  0
LINE
  5
3CD
100
AcDbEntity
  8
MAIN0
  6
CONTINUOUS
 62
3
100
AcDbLine
 10
194.4338972207490
 20
326.3439908087127
 30
0.0000000000000000
 11
194.4338972207490
 21
323.4572394627645
 31
0.0000000000000000
  0
LINE
  5
3CE
100
AcDbEntity
  8
MAIN0
  6
CONTINUOUS
 62
3
100
AcDbLine
 10
194.4338972207489
 20
323.4572394627646
 30
0.0000000000000000
 11
196.9338972207489
 21
322.0138637897906
 31
0.0000000000000000
  0
LINE
  5
3CF
100
AcDbEntity
  8
MAIN0
  6
CONTINUOUS
 62
3
100
AcDbLine
 10
160.9944058094056
 20
269.5763786088256
 30
0.0000000000000000
 11
160.9944058094056
 21
274.9763786088255
 31
0.0000000000000000
  0
LINE
  5
3D0
100
AcDbEntity
  8
MAIN0
  6
CONTINUOUS
 62
3
100
AcDbLine
 10
160.9944058094054
 20
274.9763786088254
 30
0.0000000000000000
 11
162.0336362939466
 21
275.5763786088253
 31
0.0000000000000000
  0
LINE
  5
3D1
100
AcDbEntity
  8
MAIN0
  6
CONTINUOUS
 62
3
100
AcDbLine
 10
162.0336362939469
 20
275.5763786088256
 30
0.0000000000000000
 11
169.9551753248642
 21
275.5763786088256
 31
0.0000000000000000
  0
LINE
  5
3D2
100
AcDbEntity
  8
MAIN0
  6
CONTINUOUS
 62
3
100
AcDbLine
 10
169.9551753248646
 20
275.5763786088257
 30
0.0000000000000000
 11
170.9944058094060
 21
274.9763786088257
 31
0.0000000000000000
  0
LINE
  5
3D3
100
AcDbEntity
  8
MAIN0
  6
CONTINUOUS
 62
3
100
AcDbLine
 10
170.9944058094056
 20
274.9763786088255
 30
0.0000000000000000
 11
170.9944058094056
 21
269.5763786088256
 31
0.0000000000000000
  0
LINE
  5
3D4
100
AcDbEntity
  8
MAIN0
  6
CONTINUOUS
 62
3
100
AcDbLine
 10
160.9944058094056
 20
274.9763786088255
 30
0.0000000000000000
 11
170.9944058094056
 21
274.9763786088255
 31
0.0000000000000000
  0
LINE
  5
3D5
100
AcDbEntity
  8
MAIN0
  6
CONTINUOUS
 62
3
100
AcDbLine
 10
162.9944058094056
 20
261.9006151356879
 30
0.0000000000000000
 11
162.9944058094056
 21
256.5763786088258
 31
0.0000000000000000
  0
LINE
  5
3D6
100
AcDbEntity
  8
MAIN0
  6
CONTINUOUS
 62
3
100
AcDbLine
 10
162.9944058094056
 20
269.5763786088256
 30
0.0000000000000000
 11
162.9944058094056
 21
266.4006151356879
 31
0.0000000000000000
  0
LINE
  5
3D7
100
AcDbEntity
  8
MAIN0
  6
CONTINUOUS
 62
4
100
AcDbLine
 10
163.5356718094058
 20
261.9006151356879
 30
0.0000000000000000
 11
163.5356718094058
 21
256.5763786088258
 31
0.0000000000000000
  0
LINE
  5
3D8
100
AcDbEntity
  8
MAIN0
  6
CONTINUOUS
 62
4
100
AcDbLine
 10
163.5356718094058
 20
269.5763786088256
 30
0.0000000000000000
 11
163.5356718094058
 21
266.4006151356879
 31
0.0000000000000000
  0
LINE
  5
3D9
100
AcDbEntity
  8
MAIN0
  6
CONTINUOUS
 62
4
100
AcDbLine
 10
168.4531398094059
 20
261.9006151356879
 30
0.0000000000000000
 11
168.4531398094059
 21
256.5763786088258
 31
0.0000000000000000
  0
LINE
  5
3DA
100
AcDbEntity
  8
MAIN0
  6
CONTINUOUS
 62
4
100
AcDbLine
 10
168.4531398094059
 20
269.5763786088256
 30
0.0000000000000000
 11
168.4531398094059
 21
266.4006151356879
 31
0.0000000000000000
  0
LINE
  5
3DB
100
AcDbEntity
  8
MAIN0
  6
CONTINUOUS
 62
3
100
AcDbLine
 10
168.9944058094056
 20
256.5763786088258
 30
0.0000000000000000
 11
168.9944058094056
 21
261.9006151356879
 31
0.0000000000000000
  0
LINE
  5
3DC
100
AcDbEntity
  8
MAIN0
  6
CONTINUOUS
 62
3
100
AcDbLine
 10
168.9944058094056
 20
266.4006151356879
 30
0.0000000000000000
 11
168.9944058094056
 21
269.5763786088256
 31
0.0000000000000000
  0
LINE
  5
3DD
100
AcDbEntity
  8
MAIN0
  6
CONTINUOUS
 62
3
100
AcDbLine
 10
170.9944058094431
 20
251.5763786088258
 30
0.0000000000000000
 11
170.9944058094431
 21
255.7430452754924
 31
0.0000000000000000
  0
LINE
  5
3DE
100
AcDbEntity
  8
MAIN0
  6
CONTINUOUS
 62
3
100
AcDbLine
 10
160.9944058094431
 20
251.5763786088258
 30
0.0000000000000000
 11
160.9944058094431
 21
255.7430452754924
 31
0.0000000000000000
  0
LINE
  5
3DF
100
AcDbEntity
  8
MAIN0
  6
CONTINUOUS
 62
3
100
AcDbLine
 10
165.9944058094431
 20
255.7430452754924
 30
0.0000000000000000
 11
165.9944058094431
 21
251.5763786088258
 31
0.0000000000000000
  0
LINE
  5
3E0
100
AcDbEntity
  8
MAIN0
  6
CONTINUOUS
 62
3
100
AcDbLine
 10
168.4944058094431
 20
256.5763786088259
 30
0.0000000000000000
 11
163.4944058094431
 21
256.5763786088259
 31
0.0000000000000000
  0
LINE
  5
3E1
100
AcDbEntity
  8
MAIN0
  6
CONTINUOUS
 62
3
100
AcDbLine
 10
192.9944058093653
 20
269.5763786088656
 30
0.0000000000000000
 11
192.9944058093653
 21
274.9763786088656
 31
0.0000000000000000
  0
LINE
  5
3E2
100
AcDbEntity
  8
MAIN0
  6
CONTINUOUS
 62
3
100
AcDbLine
 10
192.9944058093651
 20
274.9763786088655
 30
0.0000000000000000
 11
194.0336362939063
 21
275.5763786088654
 31
0.0000000000000000
  0
LINE
  5
3E3
100
AcDbEntity
  8
MAIN0
  6
CONTINUOUS
 62
3
100
AcDbLine
 10
194.0336362939067
 20
275.5763786088656
 30
0.0000000000000000
 11
201.9551753248240
 21
275.5763786088656
 31
0.0000000000000000
  0
LINE
  5
3E4
100
AcDbEntity
  8
MAIN0
  6
CONTINUOUS
 62
3
100
AcDbLine
 10
201.9551753248244
 20
275.5763786088656
 30
0.0000000000000000
 11
202.9944058093658
 21
274.9763786088656
 31
0.0000000000000000
  0
LINE
  5
3E5
100
AcDbEntity
  8
MAIN0
  6
CONTINUOUS
 62
3
100
AcDbLine
 10
202.9944058093653
 20
274.9763786088656
 30
0.0000000000000000
 11
202.9944058093653
 21
269.5763786088656
 31
0.0000000000000000
  0
LINE
  5
3E6
100
AcDbEntity
  8
MAIN0
  6
CONTINUOUS
 62
3
100
AcDbLine
 10
192.9944058093653
 20
274.9763786088656
 30
0.0000000000000000
 11
202.9944058093653
 21
274.9763786088656
 31
0.0000000000000000
  0
LINE
  5
3E7
100
AcDbEntity
  8
MAIN0
  6
CONTINUOUS
 62
3
100
AcDbLine
 10
194.9944058093653
 20
261.9006151357280
 30
0.0000000000000000
 11
194.9944058093653
 21
256.5763786088658
 31
0.0000000000000000
  0
LINE
  5
3E8
100
AcDbEntity
  8
MAIN0
  6
CONTINUOUS
 62
3
100
AcDbLine
 10
194.9944058093653
 20
269.5763786088656
 30
0.0000000000000000
 11
194.9944058093653
 21
266.4006151357279
 31
0.0000000000000000
  0
LINE
  5
3E9
100
AcDbEntity
  8
MAIN0
  6
CONTINUOUS
 62
4
100
AcDbLine
 10
195.5356718093655
 20
261.9006151357280
 30
0.0000000000000000
 11
195.5356718093655
 21
256.5763786088658
 31
0.0000000000000000
  0
LINE
  5
3EA
100
AcDbEntity
  8
MAIN0
  6
CONTINUOUS
 62
4
100
AcDbLine
 10
195.5356718093655
 20
269.5763786088656
 30
0.0000000000000000
 11
195.5356718093655
 21
266.4006151357279
 31
0.0000000000000000
  0
LINE
  5
3EB
100
AcDbEntity
  8
MAIN0
  6
CONTINUOUS
 62
4
100
AcDbLine
 10
200.4531398093656
 20
261.9006151357279
 30
0.0000000000000000
 11
200.4531398093656
 21
256.5763786088658
 31
0.0000000000000000
  0
LINE
  5
3EC
100
AcDbEntity
  8
MAIN0
  6
CONTINUOUS
 62
4
100
AcDbLine
 10
200.4531398093656
 20
269.5763786088656
 30
0.0000000000000000
 11
200.4531398093656
 21
266.4006151357279
 31
0.0000000000000000
  0
LINE
  5
3ED
100
AcDbEntity
  8
MAIN0
  6
CONTINUOUS
 62
3
100
AcDbLine
 10
200.9944058093653
 20
256.5763786088658
 30
0.0000000000000000
 11
200.9944058093653
 21
261.9006151357279
 31
0.0000000000000000
  0
LINE
  5
3EE
100
AcDbEntity
  8
MAIN0
  6
CONTINUOUS
 62
3
100
AcDbLine
 10
200.9944058093653
 20
266.4006151357279
 30
0.0000000000000000
 11
200.9944058093653
 21
269.5763786088656
 31
0.0000000000000000
  0
LINE
  5
3EF
100
AcDbEntity
  8
MAIN0
  6
CONTINUOUS
 62
3
100
AcDbLine
 10
202.9944058094026
 20
251.5763786088658
 30
0.0000000000000000
 11
202.9944058094026
 21
255.7430452755324
 31
0.0000000000000000
  0
LINE
  5
3F0
100
AcDbEntity
  8
MAIN0
  6
CONTINUOUS
 62
3
100
AcDbLine
 10
192.9944058094026
 20
251.5763786088658
 30
0.0000000000000000
 11
192.9944058094026
 21
255.7430452755324
 31
0.0000000000000000
  0
LINE
  5
3F1
100
AcDbEntity
  8
MAIN0
  6
CONTINUOUS
 62
3
100
AcDbLine
 10
197.9944058094026
 20
255.7430452755324
 30
0.0000000000000000
 11
197.9944058094026
 21
251.5763786088658
 31
0.0000000000000000
  0
LINE
  5
3F2
100
AcDbEntity
  8
MAIN0
  6
CONTINUOUS
 62
3
100
AcDbLine
 10
200.4944058094026
 20
256.5763786088659
 30
0.0000000000000000
 11
195.4944058094029
 21
256.5763786088659
 31
0.0000000000000000
  0
CIRCLE
  5
3F3
100
AcDbEntity
  8
MAIN0
  6
CONTINUOUS
 62
4
100
AcDbCircle
 10
181.9944058094260
 20
215.0763786089123
 30
0.0000000000000000
 40
4.250000000000000
  0
LINE
  5
3F4
100
AcDbEntity
  8
MAIN0
  6
CONTINUOUS
 62
4
100
AcDbLine
 10
181.9944058094259
 20
212.7669775321538
 30
0.0000000000000000
 11
183.9944058094258
 21
213.9216780705330
 31
0.0000000000000000
  0
LINE
  5
3F5
100
AcDbEntity
  8
MAIN0
  6
CONTINUOUS
 62
4
100
AcDbLine
 10
183.9944058094260
 20
213.9216780705330
 30
0.0000000000000000
 11
183.9944058094260
 21
216.2310791472916
 31
0.0000000000000000
  0
LINE
  5
3F6
100
AcDbEntity
  8
MAIN0
  6
CONTINUOUS
 62
4
100
AcDbLine
 10
183.9944058094262
 20
216.2310791472915
 30
0.0000000000000000
 11
181.9944058094262
 21
217.3857796856708
 31
0.0000000000000000
  0
LINE
  5
3F7
100
AcDbEntity
  8
MAIN0
  6
CONTINUOUS
 62
4
100
AcDbLine
 10
181.9944058094258
 20
217.3857796856707
 30
0.0000000000000000
 11
179.9944058094259
 21
216.2310791472915
 31
0.0000000000000000
  0
LINE
  5
3F8
100
AcDbEntity
  8
MAIN0
  6
CONTINUOUS
 62
4
100
AcDbLine
 10
179.9944058094260
 20
216.2310791472916
 30
0.0000000000000000
 11
179.9944058094260
 21
213.9216780705330
 31
0.0000000000000000
  0
LINE
  5
3F9
100
AcDbEntity
  8
MAIN0
  6
CONTINUOUS
 62
4
100
AcDbLine
 10
179.9944058094262
 20
213.9216780705330
 30
0.0000000000000000
 11
181.9944058094262
 21
212.7669775321538
 31
0.0000000000000000
  0
CIRCLE
  5
3FA
100
AcDbEntity
  8
MAIN0
  6
CONTINUOUS
 62
4
100
AcDbCircle
 10
181.9944058093872
 20
246.0763786089123
 30
0.0000000000000000
 40
4.250000000000000
  0
LINE
  5
3FB
100
AcDbEntity
  8
MAIN0
  6
CONTINUOUS
 62
4
100
AcDbLine
 10
181.9944058093871
 20
243.7669775321537
 30
0.0000000000000000
 11
183.9944058093872
 21
244.9216780705330
 31
0.0000000000000000
  0
LINE
  5
3FC
100
AcDbEntity
  8
MAIN0
  6
CONTINUOUS
 62
4
100
AcDbLine
 10
183.9944058093872
 20
244.9216780705330
 30
0.0000000000000000
 11
183.9944058093872
 21
247.2310791472916
 31
0.0000000000000000
  0
LINE
  5
3FD
100
AcDbEntity
  8
MAIN0
  6
CONTINUOUS
 62
4
100
AcDbLine
 10
183.9944058093874
 20
247.2310791472915
 30
0.0000000000000000
 11
181.9944058093873
 21
248.3857796856708
 31
0.0000000000000000
  0
LINE
  5
3FE
100
AcDbEntity
  8
MAIN0
  6
CONTINUOUS
 62
4
100
AcDbLine
 10
181.9944058093872
 20
248.3857796856707
 30
0.0000000000000000
 11
179.9944058093871
 21
247.2310791472914
 31
0.0000000000000000
  0
LINE
  5
3FF
100
AcDbEntity
  8
MAIN0
  6
CONTINUOUS
 62
4
100
AcDbLine
 10
179.9944058093872
 20
247.2310791472916
 30
0.0000000000000000
 11
179.9944058093872
 21
244.9216780705330
 31
0.0000000000000000
  0
LINE
  5
400
100
AcDbEntity
  8
MAIN0
  6
CONTINUOUS
 62
4
100
AcDbLine
 10
179.9944058093874
 20
244.9216780705330
 30
0.0000000000000000
 11
181.9944058093873
 21
243.7669775321539
 31
0.0000000000000000
  0
LINE
  5
401
100
AcDbEntity
  8
MAIN0
  6
CENTER
 62
4
100
AcDbLine
 10
168.9944058111813
 20
224.5763786096896
 30
0.0000000000000000
 11
168.9944058111921
 21
205.7066908898445
 31
0.0000000000000000
  0
LINE
  5
402
100
AcDbEntity
  8
MAIN0
  6
CENTER
 62
4
100
AcDbLine
 10
194.9944058111812
 20
224.5763786096896
 30
0.0000000000000000
 11
194.9944058111919
 21
205.7066908898593
 31
0.0000000000000000
  0
LINE
  5
403
100
AcDbEntity
  8
MAIN0
  6
CENTER
 62
4
100
AcDbLine
 10
142.9944058111811
 20
224.5763786096896
 30
0.0000000000000000
 11
142.9944058111919
 21
205.7066908898296
 31
0.0000000000000000
  0
LINE
  5
404
100
AcDbEntity
  8
MAIN0
  6
CENTER
 62
4
100
AcDbLine
 10
220.9944058111814
 20
224.5763786096896
 30
0.0000000000000000
 11
220.9944058111921
 21
205.7066908898741
 31
0.0000000000000000
  0
LINE
  5
405
100
AcDbEntity
  8
MAIN0
  6
CENTER
 62
4
100
AcDbLine
 10
181.9944058093846
 20
248.4871636149314
 30
0.0000000000000000
 11
181.9944058093947
 21
240.4327381169483
 31
0.0000000000000000
  0
LINE
  5
406
100
AcDbEntity
  8
MAIN0
  6
CENTER
 62
4
100
AcDbLine
 10
181.9944058093846
 20
248.4871636149314
 30
0.0000000000000000
 11
181.9944058093947
 21
240.4327381169483
 31
0.0000000000000000
  0
LINE
  5
407
100
AcDbEntity
  8
MAIN0
  6
CONTINUOUS
 62
3
100
AcDbLine
 10
131.9944058111660
 20
250.9763786089123
 30
0.0000000000000000
 11
131.9944058111893
 21
210.1763786089123
 31
0.0000000000000000
  0
LINE
  5
408
100
AcDbEntity
  8
MAIN0
  6
CONTINUOUS
 62
3
100
AcDbLine
 10
231.9944058111663
 20
250.9763786089122
 30
0.0000000000000000
 11
231.9944058111895
 21
210.1763786089122
 31
0.0000000000000000
  0
LINE
  5
409
100
AcDbEntity
  8
MAIN0
  6
CONTINUOUS
 62
3
100
AcDbLine
 10
231.3944058111658
 20
251.5763786089123
 30
0.0000000000000000
 11
132.5944058111660
 21
251.5763786089123
 31
0.0000000000000000
  0
LINE
  5
40A
100
AcDbEntity
  8
MAIN0
  6
CONTINUOUS
 62
3
100
AcDbLine
 10
231.3944058111899
 20
209.5763786089123
 30
0.0000000000000000
 11
132.5944058111896
 21
209.5763786089123
 31
0.0000000000000000
  0
LINE
  5
40B
100
AcDbEntity
  8
MAIN0
  6
HIDDEN
 62
4
100
AcDbLine
 10
201.2791558111901
 20
218.9763786089123
 30
0.0000000000000000
 11
201.5729058111901
 21
209.5763786089123
 31
0.0000000000000000
  0
LINE
  5
40C
100
AcDbEntity
  8
MAIN0
  6
HIDDEN
 62
4
100
AcDbLine
 10
200.7169058111901
 20
209.5763786089123
 30
0.0000000000000000
 11
200.4231558111901
 21
218.9763786089123
 31
0.0000000000000000
  0
LINE
  5
40D
100
AcDbEntity
  8
MAIN0
  6
HIDDEN
 62
4
100
AcDbLine
 10
188.7096558111900
 20
218.9763786089123
 30
0.0000000000000000
 11
201.2791558111896
 21
218.9763786089123
 31
0.0000000000000000
  0
LINE
  5
40E
100
AcDbEntity
  8
MAIN0
  6
HIDDEN
 62
4
100
AcDbLine
 10
200.3944058111899
 20
222.5763786096896
 30
0.0000000000000000
 11
200.3944058111899
 21
218.9763786089123
 31
0.0000000000000000
  0
LINE
  5
40F
100
AcDbEntity
  8
MAIN0
  6
HIDDEN
 62
4
100
AcDbLine
 10
189.5944058111897
 20
218.9763786089123
 30
0.0000000000000000
 11
189.5944058111897
 21
222.5763786096896
 31
0.0000000000000000
  0
LINE
  5
410
100
AcDbEntity
  8
MAIN0
  6
HIDDEN
 62
4
100
AcDbLine
 10
188.4159058111899
 20
209.5763786089122
 30
0.0000000000000000
 11
188.7096558111900
 21
218.9763786089123
 31
0.0000000000000000
  0
LINE
  5
411
100
AcDbEntity
  8
MAIN0
  6
HIDDEN
 62
4
100
AcDbLine
 10
189.2719058111899
 20
209.5763786089123
 30
0.0000000000000000
 11
189.5656558111900
 21
218.9763786089123
 31
0.0000000000000000
  0
POINT
  5
412
100
AcDbEntity
  8
MAIN0
  6
CONTINUOUS
 62
5
100
AcDbPoint
 10
194.9944058111898
 20
209.5763786089123
 30
0.0000000000000000
  0
LINE
  5
413
100
AcDbEntity
  8
MAIN0
  6
CONTINUOUS
 62
3
100
AcDbLine
 10
132.5944058111899
 20
209.5763786089121
 30
0.0000000000000000
 11
131.9944058111893
 21
210.1763786089122
 31
0.0000000000000000
  0
LINE
  5
414
100
AcDbEntity
  8
MAIN0
  6
CONTINUOUS
 62
3
100
AcDbLine
 10
132.5944058111658
 20
251.5763786089128
 30
0.0000000000000000
 11
131.9944058111663
 21
250.9763786089128
 31
0.0000000000000000
  0
LINE
  5
415
100
AcDbEntity
  8
MAIN0
  6
CONTINUOUS
 62
3
100
AcDbLine
 10
231.9944058111892
 20
210.1763786089124
 30
0.0000000000000000
 11
231.3944058111896
 21
209.5763786089124
 31
0.0000000000000000
  0
LINE
  5
416
100
AcDbEntity
  8
MAIN0
  6
CONTINUOUS
 62
3
100
AcDbLine
 10
231.9944058111662
 20
250.9763786089124
 30
0.0000000000000000
 11
231.3944058111657
 21
251.5763786089123
 31
0.0000000000000000
  0
CIRCLE
  5
417
100
AcDbEntity
  8
MAIN0
  6
CONTINUOUS
 62
4
100
AcDbCircle
 10
197.9944058094067
 20
230.5763786089123
 30
0.0000000000000000
 40
3.000000000000000
  0
CIRCLE
  5
418
100
AcDbEntity
  8
MAIN0
  6
CONTINUOUS
 62
3
100
AcDbCircle
 10
197.9944058094067
 20
230.5763786089123
 30
0.0000000000000000
 40
2.500000000000000
  0
POINT
  5
419
100
AcDbEntity
  8
MAIN0
  6
CONTINUOUS
 62
5
100
AcDbPoint
 10
197.9944058094067
 20
230.5763786089123
 30
0.0000000000000000
  0
POINT
  5
41A
100
AcDbEntity
  8
MAIN0
  6
CONTINUOUS
 62
5
100
AcDbPoint
 10
165.9944058093806
 20
251.5763786088722
 30
0.0000000000000000
  0
CIRCLE
  5
41B
100
AcDbEntity
  8
MAIN0
  6
CONTINUOUS
 62
4
100
AcDbCircle
 10
165.9944058094067
 20
230.5763786088722
 30
0.0000000000000000
 40
3.000000000000000
  0
CIRCLE
  5
41C
100
AcDbEntity
  8
MAIN0
  6
CONTINUOUS
 62
3
100
AcDbCircle
 10
165.9944058094067
 20
230.5763786088722
 30
0.0000000000000000
 40
2.500000000000000
  0
POINT
  5
41D
100
AcDbEntity
  8
MAIN0
  6
CONTINUOUS
 62
5
100
AcDbPoint
 10
165.9944058094067
 20
230.5763786088722
 30
0.0000000000000000
  0
POINT
  5
41E
100
AcDbEntity
  8
MAIN0
  6
CONTINUOUS
 62
5
100
AcDbPoint
 10
168.9944058111898
 20
209.5763786089123
 30
0.0000000000000000
  0
LINE
  5
41F
100
AcDbEntity
  8
MAIN0
  6
HIDDEN
 62
4
100
AcDbLine
 10
162.4159058111898
 20
209.5763786089123
 30
0.0000000000000000
 11
162.7096558111899
 21
218.9763786089123
 31
0.0000000000000000
  0
LINE
  5
420
100
AcDbEntity
  8
MAIN0
  6
HIDDEN
 62
4
100
AcDbLine
 10
162.7096558111900
 20
218.9763786089123
 30
0.0000000000000000
 11
175.2791558111898
 21
218.9763786089123
 31
0.0000000000000000
  0
LINE
  5
421
100
AcDbEntity
  8
MAIN0
  6
HIDDEN
 62
4
100
AcDbLine
 10
175.2791558111900
 20
218.9763786089123
 30
0.0000000000000000
 11
175.5729058111900
 21
209.5763786089123
 31
0.0000000000000000
  0
LINE
  5
422
100
AcDbEntity
  8
MAIN0
  6
HIDDEN
 62
4
100
AcDbLine
 10
163.2719058111898
 20
209.5763786089123
 30
0.0000000000000000
 11
163.5656558111899
 21
218.9763786089123
 31
0.0000000000000000
  0
LINE
  5
423
100
AcDbEntity
  8
MAIN0
  6
HIDDEN
 62
4
100
AcDbLine
 10
174.7169058111900
 20
209.5763786089123
 30
0.0000000000000000
 11
174.4231558111900
 21
218.9763786089123
 31
0.0000000000000000
  0
LINE
  5
424
100
AcDbEntity
  8
MAIN0
  6
HIDDEN
 62
4
100
AcDbLine
 10
163.5944058111897
 20
218.9763786089123
 30
0.0000000000000000
 11
163.5944058111897
 21
222.5763786096896
 31
0.0000000000000000
  0
LINE
  5
425
100
AcDbEntity
  8
MAIN0
  6
HIDDEN
 62
4
100
AcDbLine
 10
174.3944058111899
 20
222.5763786096896
 30
0.0000000000000000
 11
174.3944058111899
 21
218.9763786089123
 31
0.0000000000000000
  0
POINT
  5
426
100
AcDbEntity
  8
MAIN0
  6
CONTINUOUS
 62
5
100
AcDbPoint
 10
142.9944058111897
 20
209.5763786089123
 30
0.0000000000000000
  0
LINE
  5
427
100
AcDbEntity
  8
MAIN0
  6
HIDDEN
 62
4
100
AcDbLine
 10
136.4159058111897
 20
209.5763786089123
 30
0.0000000000000000
 11
136.7096558111897
 21
218.9763786089123
 31
0.0000000000000000
  0
LINE
  5
428
100
AcDbEntity
  8
MAIN0
  6
HIDDEN
 62
4
100
AcDbLine
 10
136.7096558111899
 20
218.9763786089123
 30
0.0000000000000000
 11
149.2791558111898
 21
218.9763786089123
 31
0.0000000000000000
  0
LINE
  5
429
100
AcDbEntity
  8
MAIN0
  6
HIDDEN
 62
4
100
AcDbLine
 10
149.2791558111898
 20
218.9763786089123
 30
0.0000000000000000
 11
149.5729058111898
 21
209.5763786089123
 31
0.0000000000000000
  0
LINE
  5
42A
100
AcDbEntity
  8
MAIN0
  6
HIDDEN
 62
4
100
AcDbLine
 10
137.2719058111898
 20
209.5763786089123
 30
0.0000000000000000
 11
137.5656558111898
 21
218.9763786089123
 31
0.0000000000000000
  0
LINE
  5
42B
100
AcDbEntity
  8
MAIN0
  6
HIDDEN
 62
4
100
AcDbLine
 10
148.7169058111899
 20
209.5763786089123
 30
0.0000000000000000
 11
148.4231558111899
 21
218.9763786089123
 31
0.0000000000000000
  0
LINE
  5
42C
100
AcDbEntity
  8
MAIN0
  6
HIDDEN
 62
4
100
AcDbLine
 10
137.5944058111896
 20
218.9763786089123
 30
0.0000000000000000
 11
137.5944058111896
 21
222.5763786096896
 31
0.0000000000000000
  0
LINE
  5
42D
100
AcDbEntity
  8
MAIN0
  6
HIDDEN
 62
4
100
AcDbLine
 10
148.3944058111899
 20
222.5763786096896
 30
0.0000000000000000
 11
148.3944058111899
 21
218.9763786089123
 31
0.0000000000000000
  0
POINT
  5
42E
100
AcDbEntity
  8
MAIN0
  6
CONTINUOUS
 62
5
100
AcDbPoint
 10
220.9944058111898
 20
209.5763786089123
 30
0.0000000000000000
  0
LINE
  5
42F
100
AcDbEntity
  8
MAIN0
  6
HIDDEN
 62
4
100
AcDbLine
 10
214.4159058111899
 20
209.5763786089123
 30
0.0000000000000000
 11
214.7096558111899
 21
218.9763786089123
 31
0.0000000000000000
  0
LINE
  5
430
100
AcDbEntity
  8
MAIN0
  6
HIDDEN
 62
4
100
AcDbLine
 10
214.7096558111900
 20
218.9763786089123
 30
0.0000000000000000
 11
227.2791558111900
 21
218.9763786089123
 31
0.0000000000000000
  0
LINE
  5
431
100
AcDbEntity
  8
MAIN0
  6
HIDDEN
 62
4
100
AcDbLine
 10
227.2791558111900
 20
218.9763786089123
 30
0.0000000000000000
 11
227.5729058111901
 21
209.5763786089123
 31
0.0000000000000000
  0
LINE
  5
432
100
AcDbEntity
  8
MAIN0
  6
HIDDEN
 62
4
100
AcDbLine
 10
215.2719058111896
 20
209.5763786089123
 30
0.0000000000000000
 11
215.5656558111897
 21
218.9763786089123
 31
0.0000000000000000
  0
LINE
  5
433
100
AcDbEntity
  8
MAIN0
  6
HIDDEN
 62
4
100
AcDbLine
 10
226.7169058111901
 20
209.5763786089123
 30
0.0000000000000000
 11
226.4231558111900
 21
218.9763786089123
 31
0.0000000000000000
  0
LINE
  5
434
100
AcDbEntity
  8
MAIN0
  6
HIDDEN
 62
4
100
AcDbLine
 10
215.5944058111897
 20
218.9763786089123
 30
0.0000000000000000
 11
215.5944058111897
 21
222.5763786096896
 31
0.0000000000000000
  0
LINE
  5
435
100
AcDbEntity
  8
MAIN0
  6
HIDDEN
 62
4
100
AcDbLine
 10
226.3944058111899
 20
222.5763786096896
 30
0.0000000000000000
 11
226.3944058111899
 21
218.9763786089123
 31
0.0000000000000000
  0
POINT
  5
436
100
AcDbEntity
  8
MAIN0
  6
CONTINUOUS
 62
5
100
AcDbPoint
 10
181.9944058093876
 20
246.0763786089123
 30
0.0000000000000000
  0
POINT
  5
437
100
AcDbEntity
  8
MAIN0
  6
CONTINUOUS
 62
5
100
AcDbPoint
 10
181.9944058094263
 20
215.0763786089123
 30
0.0000000000000000
  0
POINT
  5
438
100
AcDbEntity
  8
MAIN0
  6
CONTINUOUS
 62
5
100
AcDbPoint
 10
181.9944058094263
 20
215.0763786089123
 30
0.0000000000000000
  0
CIRCLE
  5
439
100
AcDbEntity
  8
MAIN0
  6
CONTINUOUS
 62
4
100
AcDbCircle
 10
181.9944058094263
 20
215.0763786089123
 30
0.0000000000000000
 40
4.750000000000000
  0
POINT
  5
43A
100
AcDbEntity
  8
MAIN0
  6
CONTINUOUS
 62
5
100
AcDbPoint
 10
181.9944058093876
 20
246.0763786089123
 30
0.0000000000000000
  0
CIRCLE
  5
43B
100
AcDbEntity
  8
MAIN0
  6
CONTINUOUS
 62
4
100
AcDbCircle
 10
181.9944058093876
 20
246.0763786089123
 30
0.0000000000000000
 40
4.750000000000000
  0
CIRCLE
  5
43C
100
AcDbEntity
  8
MAIN0
  6
PHANTOM
 62
4
100
AcDbCircle
 10
134.2444058106790
 20
313.2818046710609
 30
0.0000000000000000
 40
5.000000000000000
  0
LINE
  5
43D
100
AcDbEntity
  8
MAIN0
  6
PHANTOM
 62
4
100
AcDbLine
 10
132.8010301377435
 20
315.7818046710832
 30
0.0000000000000000
 11
131.3576544647310
 21
313.2818046711054
 31
0.0000000000000000
  0
LINE
  5
43E
100
AcDbEntity
  8
MAIN0
  6
PHANTOM
 62
4
100
AcDbLine
 10
131.3576544647311
 20
313.2818046711051
 30
0.0000000000000000
 11
132.8010301376668
 21
310.7818046710829
 31
0.0000000000000000
  0
LINE
  5
43F
100
AcDbEntity
  8
MAIN0
  6
PHANTOM
 62
4
100
AcDbLine
 10
132.8010301376667
 20
310.7818046710830
 30
0.0000000000000000
 11
135.6877814836146
 21
310.7818046710386
 31
0.0000000000000000
  0
LINE
  5
440
100
AcDbEntity
  8
MAIN0
  6
PHANTOM
 62
4
100
AcDbLine
 10
135.6877814836148
 20
310.7818046710388
 30
0.0000000000000000
 11
137.1311571566273
 21
313.2818046710166
 31
0.0000000000000000
  0
LINE
  5
441
100
AcDbEntity
  8
MAIN0
  6
PHANTOM
 62
4
100
AcDbLine
 10
137.1311571566274
 20
313.2818046710163
 30
0.0000000000000000
 11
135.6877814836919
 21
315.7818046710385
 31
0.0000000000000000
  0
LINE
  5
442
100
AcDbEntity
  8
MAIN0
  6
PHANTOM
 62
4
100
AcDbLine
 10
135.6877814836915
 20
315.7818046710386
 30
0.0000000000000000
 11
132.8010301377434
 21
315.7818046710830
 31
0.0000000000000000
  0
CIRCLE
  5
443
100
AcDbEntity
  8
MAIN0
  6
PHANTOM
 62
4
100
AcDbCircle
 10
99.28897974872587
 20
278.3263786101821
 30
0.0000000000000000
 40
5.000000000000000
  0
LINE
  5
444
100
AcDbEntity
  8
MAIN0
  6
PHANTOM
 62
4
100
AcDbLine
 10
96.78897974874781
 20
279.7697542831945
 30
0.0000000000000000
 11
96.78897974870358
 21
276.8830029372463
 31
0.0000000000000000
  0
LINE
  5
445
100
AcDbEntity
  8
MAIN0
  6
PHANTOM
 62
4
100
AcDbLine
 10
96.78897974870358
 20
276.8830029372463
 30
0.0000000000000000
 11
99.28897974868153
 21
275.4396272642339
 31
0.0000000000000000
  0
LINE
  5
446
100
AcDbEntity
  8
MAIN0
  6
PHANTOM
 62
4
100
AcDbLine
 10
99.28897974868130
 20
275.4396272642338
 30
0.0000000000000000
 11
101.7889797487035
 21
276.8830029371695
 31
0.0000000000000000
  0
LINE
  5
447
100
AcDbEntity
  8
MAIN0
  6
PHANTOM
 62
4
100
AcDbLine
 10
101.7889797487038
 20
276.8830029371696
 30
0.0000000000000000
 11
101.7889797487480
 21
279.7697542831178
 31
0.0000000000000000
  0
LINE
  5
448
100
AcDbEntity
  8
MAIN0
  6
PHANTOM
 62
4
100
AcDbLine
 10
101.7889797487479
 20
279.7697542831177
 30
0.0000000000000000
 11
99.28897974877009
 21
281.2131299561301
 31
0.0000000000000000
  0
LINE
  5
449
100
AcDbEntity
  8
MAIN0
  6
PHANTOM
 62
4
100
AcDbLine
 10
99.28897974876998
 20
281.2131299561301
 30
0.0000000000000000
 11
96.78897974874781
 21
279.7697542831944
 31
0.0000000000000000
  0
CIRCLE
  5
44A
100
AcDbEntity
  8
MAIN0
  6
PHANTOM
 62
4
100
AcDbCircle
 10
86.49440580940666
 20
230.5763786089123
 30
0.0000000000000000
 40
5.000000000000000
  0
LINE
  5
44B
100
AcDbEntity
  8
MAIN0
  6
PHANTOM
 62
4
100
AcDbLine
 10
83.60765446345909
 20
230.5763786089123
 30
0.0000000000000000
 11
85.05103013643316
 21
228.0763786089122
 31
0.0000000000000000
  0
LINE
  5
44C
100
AcDbEntity
  8
MAIN0
  6
PHANTOM
 62
4
100
AcDbLine
 10
85.05103013643259
 20
228.0763786089123
 30
0.0000000000000000
 11
87.93778148238073
 21
228.0763786089123
 31
0.0000000000000000
  0
LINE
  5
44D
100
AcDbEntity
  8
MAIN0
  6
PHANTOM
 62
4
100
AcDbLine
 10
87.93778148238084
 20
228.0763786089122
 30
0.0000000000000000
 11
89.38115715535491
 21
230.5763786089123
 31
0.0000000000000000
  0
LINE
  5
44E
100
AcDbEntity
  8
MAIN0
  6
PHANTOM
 62
4
100
AcDbLine
 10
89.38115715535537
 20
230.5763786089122
 30
0.0000000000000000
 11
87.93778148238130
 21
233.0763786089123
 31
0.0000000000000000
  0
LINE
  5
44F
100
AcDbEntity
  8
MAIN0
  6
PHANTOM
 62
4
100
AcDbLine
 10
87.93778148238073
 20
233.0763786089123
 30
0.0000000000000000
 11
85.05103013643259
 21
233.0763786089123
 31
0.0000000000000000
  0
LINE
  5
450
100
AcDbEntity
  8
MAIN0
  6
PHANTOM
 62
4
100
AcDbLine
 10
85.05103013643259
 20
233.0763786089124
 30
0.0000000000000000
 11
83.60765446345852
 21
230.5763786089123
 31
0.0000000000000000
  0
CIRCLE
  5
451
100
AcDbEntity
  8
MAIN0
  6
PHANTOM
 62
4
100
AcDbCircle
 10
99.28897974725953
 20
182.8263786101821
 30
0.0000000000000000
 40
5.000000000000000
  0
LINE
  5
452
100
AcDbEntity
  8
MAIN0
  6
PHANTOM
 62
4
100
AcDbLine
 10
96.78897974723748
 20
181.3830029372464
 30
0.0000000000000000
 11
99.28897974721554
 21
179.9396272642338
 31
0.0000000000000000
  0
LINE
  5
453
100
AcDbEntity
  8
MAIN0
  6
PHANTOM
 62
4
100
AcDbLine
 10
99.28897974721497
 20
179.9396272642339
 30
0.0000000000000000
 11
101.7889797472370
 21
181.3830029371696
 31
0.0000000000000000
  0
LINE
  5
454
100
AcDbEntity
  8
MAIN0
  6
PHANTOM
 62
4
100
AcDbLine
 10
101.7889797472376
 20
181.3830029371698
 30
0.0000000000000000
 11
101.7889797472819
 21
184.2697542831180
 31
0.0000000000000000
  0
LINE
  5
455
100
AcDbEntity
  8
MAIN0
  6
PHANTOM
 62
4
100
AcDbLine
 10
101.7889797472820
 20
184.2697542831177
 30
0.0000000000000000
 11
99.28897974730398
 21
185.7131299561302
 31
0.0000000000000000
  0
LINE
  5
456
100
AcDbEntity
  8
MAIN0
  6
PHANTOM
 62
4
100
AcDbLine
 10
99.28897974730353
 20
185.7131299561302
 30
0.0000000000000000
 11
96.78897974728136
 21
184.2697542831945
 31
0.0000000000000000
  0
LINE
  5
457
100
AcDbEntity
  8
MAIN0
  6
PHANTOM
 62
4
100
AcDbLine
 10
96.78897974728170
 20
184.2697542831947
 30
0.0000000000000000
 11
96.78897974723736
 21
181.3830029372466
 31
0.0000000000000000
  0
CIRCLE
  5
458
100
AcDbEntity
  8
MAIN0
  6
PHANTOM
 62
4
100
AcDbCircle
 10
134.2444058081338
 20
147.8709525482330
 30
0.0000000000000000
 40
5.000000000000000
  0
LINE
  5
459
100
AcDbEntity
  8
MAIN0
  6
PHANTOM
 62
4
100
AcDbLine
 10
132.8010301351217
 20
145.3709525482553
 30
0.0000000000000000
 11
135.6877814810700
 21
145.3709525482109
 31
0.0000000000000000
  0
LINE
  5
45A
100
AcDbEntity
  8
MAIN0
  6
PHANTOM
 62
4
100
AcDbLine
 10
135.6877814810697
 20
145.3709525482106
 30
0.0000000000000000
 11
137.1311571540822
 21
147.8709525481884
 31
0.0000000000000000
  0
LINE
  5
45B
100
AcDbEntity
  8
MAIN0
  6
PHANTOM
 62
4
100
AcDbLine
 10
137.1311571540823
 20
147.8709525481888
 30
0.0000000000000000
 11
135.6877814811467
 21
150.3709525482111
 31
0.0000000000000000
  0
LINE
  5
45C
100
AcDbEntity
  8
MAIN0
  6
PHANTOM
 62
4
100
AcDbLine
 10
135.6877814811470
 20
150.3709525482108
 30
0.0000000000000000
 11
132.8010301351986
 21
150.3709525482553
 31
0.0000000000000000
  0
LINE
  5
45D
100
AcDbEntity
  8
MAIN0
  6
PHANTOM
 62
4
100
AcDbLine
 10
132.8010301351985
 20
150.3709525482551
 30
0.0000000000000000
 11
131.3576544621860
 21
147.8709525482772
 31
0.0000000000000000
  0
LINE
  5
45E
100
AcDbEntity
  8
MAIN0
  6
PHANTOM
 62
4
100
AcDbLine
 10
131.3576544621861
 20
147.8709525482777
 30
0.0000000000000000
 11
132.8010301351217
 21
145.3709525482555
 31
0.0000000000000000
  0
CIRCLE
  5
45F
100
AcDbEntity
  8
MAIN0
  6
PHANTOM
 62
4
100
AcDbCircle
 10
229.7444058106796
 20
147.8709525482329
 30
0.0000000000000000
 40
5.000000000000000
  0
LINE
  5
460
100
AcDbEntity
  8
MAIN0
  6
PHANTOM
 62
4
100
AcDbLine
 10
231.1877814836922
 20
145.3709525482551
 30
0.0000000000000000
 11
232.6311571566279
 21
147.8709525482776
 31
0.0000000000000000
  0
LINE
  5
461
100
AcDbEntity
  8
MAIN0
  6
PHANTOM
 62
4
100
AcDbLine
 10
232.6311571566274
 20
147.8709525482774
 30
0.0000000000000000
 11
231.1877814836148
 21
150.3709525482552
 31
0.0000000000000000
  0
LINE
  5
462
100
AcDbEntity
  8
MAIN0
  6
PHANTOM
 62
4
100
AcDbLine
 10
231.1877814836150
 20
150.3709525482554
 30
0.0000000000000000
 11
228.3010301376669
 21
150.3709525482110
 31
0.0000000000000000
  0
LINE
  5
463
100
AcDbEntity
  8
MAIN0
  6
PHANTOM
 62
4
100
AcDbLine
 10
228.3010301376672
 20
150.3709525482109
 30
0.0000000000000000
 11
226.8576544647315
 21
147.8709525481885
 31
0.0000000000000000
  0
LINE
  5
464
100
AcDbEntity
  8
MAIN0
  6
PHANTOM
 62
4
100
AcDbLine
 10
226.8576544647311
 20
147.8709525481885
 30
0.0000000000000000
 11
228.3010301377436
 21
145.3709525482107
 31
0.0000000000000000
  0
LINE
  5
465
100
AcDbEntity
  8
MAIN0
  6
PHANTOM
 62
4
100
AcDbLine
 10
228.3010301377438
 20
145.3709525482109
 30
0.0000000000000000
 11
231.1877814836919
 21
145.3709525482553
 31
0.0000000000000000
  0
CIRCLE
  5
466
100
AcDbEntity
  8
MAIN0
  6
PHANTOM
 62
4
100
AcDbCircle
 10
264.6998318715543
 20
182.8263786101824
 30
0.0000000000000000
 40
5.000000000000000
  0
LINE
  5
467
100
AcDbEntity
  8
MAIN0
  6
PHANTOM
 62
4
100
AcDbLine
 10
267.1998318715765
 20
181.3830029372468
 30
0.0000000000000000
 11
267.1998318715321
 21
184.2697542831951
 31
0.0000000000000000
  0
LINE
  5
468
100
AcDbEntity
  8
MAIN0
  6
PHANTOM
 62
4
100
AcDbLine
 10
267.1998318715321
 20
184.2697542831949
 30
0.0000000000000000
 11
264.6998318715100
 21
185.7131299561306
 31
0.0000000000000000
  0
LINE
  5
469
100
AcDbEntity
  8
MAIN0
  6
PHANTOM
 62
4
100
AcDbLine
 10
264.6998318715098
 20
185.7131299561307
 30
0.0000000000000000
 11
262.1998318715320
 21
184.2697542831183
 31
0.0000000000000000
  0
LINE
  5
46A
100
AcDbEntity
  8
MAIN0
  6
PHANTOM
 62
4
100
AcDbLine
 10
262.1998318715321
 20
184.2697542831183
 30
0.0000000000000000
 11
262.1998318715765
 21
181.3830029371700
 31
0.0000000000000000
  0
LINE
  5
46B
100
AcDbEntity
  8
MAIN0
  6
PHANTOM
 62
4
100
AcDbLine
 10
262.1998318715765
 20
181.3830029371700
 30
0.0000000000000000
 11
264.6998318715986
 21
179.9396272642343
 31
0.0000000000000000
  0
LINE
  5
46C
100
AcDbEntity
  8
MAIN0
  6
PHANTOM
 62
4
100
AcDbLine
 10
264.6998318715985
 20
179.9396272642343
 30
0.0000000000000000
 11
267.1998318715764
 21
181.3830029372467
 31
0.0000000000000000
  0
CIRCLE
  5
46D
100
AcDbEntity
  8
MAIN0
  6
PHANTOM
 62
4
100
AcDbCircle
 10
277.4944058094069
 20
230.5763786089123
 30
0.0000000000000000
 40
5.000000000000000
  0
LINE
  5
46E
100
AcDbEntity
  8
MAIN0
  6
PHANTOM
 62
4
100
AcDbLine
 10
280.3811571553552
 20
230.5763786089124
 30
0.0000000000000000
 11
278.9377814823811
 21
233.0763786089125
 31
0.0000000000000000
  0
LINE
  5
46F
100
AcDbEntity
  8
MAIN0
  6
PHANTOM
 62
4
100
AcDbLine
 10
278.9377814823809
 20
233.0763786089122
 30
0.0000000000000000
 11
276.0510301364328
 21
233.0763786089122
 31
0.0000000000000000
  0
LINE
  5
470
100
AcDbEntity
  8
MAIN0
  6
PHANTOM
 62
4
100
AcDbLine
 10
276.0510301364324
 20
233.0763786089123
 30
0.0000000000000000
 11
274.6076544634584
 21
230.5763786089122
 31
0.0000000000000000
  0
LINE
  5
471
100
AcDbEntity
  8
MAIN0
  6
PHANTOM
 62
4
100
AcDbLine
 10
274.6076544634589
 20
230.5763786089125
 30
0.0000000000000000
 11
276.0510301364330
 21
228.0763786089124
 31
0.0000000000000000
  0
LINE
  5
472
100
AcDbEntity
  8
MAIN0
  6
PHANTOM
 62
4
100
AcDbLine
 10
276.0510301364328
 20
228.0763786089122
 30
0.0000000000000000
 11
278.9377814823809
 21
228.0763786089122
 31
0.0000000000000000
  0
LINE
  5
473
100
AcDbEntity
  8
MAIN0
  6
PHANTOM
 62
4
100
AcDbLine
 10
278.9377814823807
 20
228.0763786089121
 30
0.0000000000000000
 11
280.3811571553548
 21
230.5763786089121
 31
0.0000000000000000
  0
CIRCLE
  5
474
100
AcDbEntity
  8
MAIN0
  6
PHANTOM
 62
4
100
AcDbCircle
 10
264.6998318700873
 20
278.3263786101829
 30
0.0000000000000000
 40
5.000000000000000
  0
LINE
  5
475
100
AcDbEntity
  8
MAIN0
  6
PHANTOM
 62
4
100
AcDbLine
 10
267.1998318700654
 20
279.7697542831956
 30
0.0000000000000000
 11
264.6998318700430
 21
281.2131299561314
 31
0.0000000000000000
  0
LINE
  5
476
100
AcDbEntity
  8
MAIN0
  6
PHANTOM
 62
4
100
AcDbLine
 10
264.6998318700434
 20
281.2131299561311
 30
0.0000000000000000
 11
262.1998318700656
 21
279.7697542831186
 31
0.0000000000000000
  0
LINE
  5
477
100
AcDbEntity
  8
MAIN0
  6
PHANTOM
 62
4
100
AcDbLine
 10
262.1998318700650
 20
279.7697542831186
 30
0.0000000000000000
 11
262.1998318701093
 21
276.8830029371705
 31
0.0000000000000000
  0
LINE
  5
478
100
AcDbEntity
  8
MAIN0
  6
PHANTOM
 62
4
100
AcDbLine
 10
262.1998318701096
 20
276.8830029371708
 30
0.0000000000000000
 11
264.6998318701320
 21
275.4396272642350
 31
0.0000000000000000
  0
LINE
  5
479
100
AcDbEntity
  8
MAIN0
  6
PHANTOM
 62
4
100
AcDbLine
 10
264.6998318701321
 20
275.4396272642348
 30
0.0000000000000000
 11
267.1998318701099
 21
276.8830029372473
 31
0.0000000000000000
  0
LINE
  5
47A
100
AcDbEntity
  8
MAIN0
  6
PHANTOM
 62
4
100
AcDbLine
 10
267.1998318701096
 20
276.8830029372473
 30
0.0000000000000000
 11
267.1998318700652
 21
279.7697542831954
 31
0.0000000000000000
  0
CIRCLE
  5
47B
100
AcDbEntity
  8
MAIN0
  6
PHANTOM
 62
4
100
AcDbCircle
 10
229.7444058081337
 20
313.2818046710613
 30
0.0000000000000000
 40
5.000000000000000
  0
LINE
  5
47C
100
AcDbEntity
  8
MAIN0
  6
PHANTOM
 62
4
100
AcDbLine
 10
231.1877814810694
 20
315.7818046710835
 30
0.0000000000000000
 11
228.3010301351210
 21
315.7818046710391
 31
0.0000000000000000
  0
LINE
  5
47D
100
AcDbEntity
  8
MAIN0
  6
PHANTOM
 62
4
100
AcDbLine
 10
228.3010301351214
 20
315.7818046710389
 30
0.0000000000000000
 11
226.8576544621858
 21
313.2818046710167
 31
0.0000000000000000
  0
LINE
  5
47E
100
AcDbEntity
  8
MAIN0
  6
PHANTOM
 62
4
100
AcDbLine
 10
226.8576544621855
 20
313.2818046710171
 30
0.0000000000000000
 11
228.3010301351981
 21
310.7818046710394
 31
0.0000000000000000
  0
LINE
  5
47F
100
AcDbEntity
  8
MAIN0
  6
PHANTOM
 62
4
100
AcDbLine
 10
228.3010301351980
 20
310.7818046710391
 30
0.0000000000000000
 11
231.1877814811464
 21
310.7818046710835
 31
0.0000000000000000
  0
LINE
  5
480
100
AcDbEntity
  8
MAIN0
  6
PHANTOM
 62
4
100
AcDbLine
 10
231.1877814811465
 20
310.7818046710834
 30
0.0000000000000000
 11
232.6311571540821
 21
313.2818046711057
 31
0.0000000000000000
  0
LINE
  5
481
100
AcDbEntity
  8
MAIN0
  6
PHANTOM
 62
4
100
AcDbLine
 10
232.6311571540820
 20
313.2818046711061
 30
0.0000000000000000
 11
231.1877814810695
 21
315.7818046710839
 31
0.0000000000000000
  0
ARC
  5
482
100
AcDbEntity
  8
MAIN0
  6
PHANTOM
 62
4
100
AcDbCircle
 10
181.9944058094069
 20
135.0763786089122
 30
0.0000000000000000
 40
5.000000000000000
100
AcDbArc
 50
356.0730317823948
 51
543.9269682176052
  0
LINE
  5
483
100
AcDbEntity
  8
MAIN0
  6
PHANTOM
 62
4
100
AcDbLine
 10
179.4944058094072
 20
134.7339542222572
 30
0.0000000000000000
 11
179.4944058094073
 21
136.5197542818864
 31
0.0000000000000000
  0
LINE
  5
484
100
AcDbEntity
  8
MAIN0
  6
PHANTOM
 62
4
100
AcDbLine
 10
179.4944058094071
 20
136.5197542818867
 30
0.0000000000000000
 11
181.9944058094071
 21
137.9631299548608
 31
0.0000000000000000
  0
LINE
  5
485
100
AcDbEntity
  8
MAIN0
  6
PHANTOM
 62
4
100
AcDbLine
 10
181.9944058094068
 20
137.9631299548606
 30
0.0000000000000000
 11
184.4944058094069
 21
136.5197542818864
 31
0.0000000000000000
  0
LINE
  5
486
100
AcDbEntity
  8
MAIN0
  6
PHANTOM
 62
4
100
AcDbLine
 10
184.4944058094073
 20
134.7339542222572
 30
0.0000000000000000
 11
184.4944058094073
 21
136.5197542818864
 31
0.0000000000000000
  0
POINT
  5
487
100
AcDbEntity
  8
A0
  6
CONTINUOUS
 62
5
100
AcDbPoint
 10
359.8245775585413
 20
239.3608391576129
 30
0.0000000000000000
  0
POINT
  5
488
100
AcDbEntity
  8
A0
  6
CONTINUOUS
 62
5
100
AcDbPoint
 10
359.8245775585413
 20
239.3608391576129
 30
0.0000000000000000
  0
POINT
  5
489
100
AcDbEntity
  8
A0
  6
CONTINUOUS
 62
5
100
AcDbPoint
 10
359.8245775585413
 20
239.3608391576129
 30
0.0000000000000000
  0
LINE
  5
48A
100
AcDbEntity
  8
A0
  6
CENTER
 62
4
100
AcDbLine
 10
359.8245775585221
 20
214.7866900501039
 30
0.0000000000000000
 11
359.8245775585592
 21
262.2489157448260
 31
0.0000000000000000
  0
CIRCLE
  5
48B
100
AcDbEntity
  8
A0
  6
CONTINUOUS
 62
3
100
AcDbCircle
 10
359.8245775585413
 20
239.3608391576129
 30
0.0000000000000000
 40
17.99999999998732
  0
LINE
  5
48C
100
AcDbEntity
  8
A0
  6
CENTER
 62
4
100
AcDbLine
 10
382.9640121389909
 20
239.3608391575767
 30
0.0000000000000000
 11
334.3052883018316
 21
239.3608391576529
 31
0.0000000000000000
  0
POINT
  5
48D
100
AcDbEntity
  8
A0
  6
CONTINUOUS
 62
5
100
AcDbPoint
 10
359.8245775585413
 20
239.3608391576129
 30
0.0000000000000000
  0
CIRCLE
  5
48E
100
AcDbEntity
  8
A0
  6
CONTINUOUS
 62
3
100
AcDbCircle
 10
359.8245775585413
 20
239.3608391576129
 30
0.0000000000000000
 40
19.49999999999994
  0
POINT
  5
48F
100
AcDbEntity
  8
A0
  6
CONTINUOUS
 62
5
100
AcDbPoint
 10
369.7240724951013
 20
229.4613442209496
 30
0.0000000000000000
  0
POINT
  5
490
100
AcDbEntity
  8
A0
  6
CONTINUOUS
 62
5
100
AcDbPoint
 10
359.8245775585413
 20
239.3608391576129
 30
0.0000000000000000
  0
CIRCLE
  5
491
100
AcDbEntity
  8
A0
  6
CONTINUOUS
 62
3
100
AcDbCircle
 10
372.8245775585414
 20
239.3608391576131
 30
0.0000000000000000
 40
3.700000000000000
  0
CIRCLE
  5
492
100
AcDbEntity
  8
A0
  6
CONTINUOUS
 62
3
100
AcDbCircle
 10
359.8245775585415
 20
226.3608391576130
 30
0.0000000000000000
 40
3.700000000000000
  0
CIRCLE
  5
493
100
AcDbEntity
  8
A0
  6
CONTINUOUS
 62
3
100
AcDbCircle
 10
346.8245775585604
 20
239.3608391576130
 30
0.0000000000000000
 40
3.700000000000000
  0
CIRCLE
  5
494
100
AcDbEntity
  8
A0
  6
CONTINUOUS
 62
3
100
AcDbCircle
 10
359.8245775585413
 20
252.3608391576130
 30
0.0000000000000000
 40
3.700000000000000
  0
CIRCLE
  5
495
100
AcDbEntity
  8
A0
  6
CONTINUOUS
 62
3
100
AcDbCircle
 10
359.8245775585413
 20
252.3608391576130
 30
0.0000000000000000
 40
2.100000000000000
  0
CIRCLE
  5
496
100
AcDbEntity
  8
A0
  6
CONTINUOUS
 62
3
100
AcDbCircle
 10
346.8245775585414
 20
239.3608391576130
 30
0.0000000000000000
 40
2.100000000000000
  0
CIRCLE
  5
497
100
AcDbEntity
  8
A0
  6
CONTINUOUS
 62
3
100
AcDbCircle
 10
359.8245775585415
 20
226.3608391576130
 30
0.0000000000000000
 40
2.100000000000000
  0
CIRCLE
  5
498
100
AcDbEntity
  8
A0
  6
CONTINUOUS
 62
3
100
AcDbCircle
 10
372.8245775585414
 20
239.3608391576131
 30
0.0000000000000000
 40
2.100000000000000
  0
POINT
  5
499
100
AcDbEntity
  8
A0
  6
CONTINUOUS
 62
5
100
AcDbPoint
 10
372.8245775585414
 20
239.3608391576131
 30
0.0000000000000000
  0
POINT
  5
49A
100
AcDbEntity
  8
A0
  6
CONTINUOUS
 62
5
100
AcDbPoint
 10
346.8245775585604
 20
239.3608391576130
 30
0.0000000000000000
  0
ARC
  5
49B
100
AcDbEntity
  8
A0
  6
CENTER
 62
4
100
AcDbCircle
 10
359.8245775585413
 20
239.3608391576130
 30
0.0000000000000000
 40
13.00000000000000
100
AcDbArc
 50
336.2712327964946
 51
384.4661937985605
  0
ARC
  5
49C
100
AcDbEntity
  8
A0
  6
CENTER
 62
4
100
AcDbCircle
 10
359.8245775585413
 20
239.3608391576130
 30
0.0000000000000000
 40
13.00000000000000
100
AcDbArc
 50
243.0959372010576
 51
289.7841818929505
  0
ARC
  5
49D
100
AcDbEntity
  8
A0
  6
CENTER
 62
4
100
AcDbCircle
 10
359.8245775585413
 20
239.3608391576130
 30
0.0000000000000000
 40
13.00000000000000
100
AcDbArc
 50
65.03192747139890
 51
110.5981258716267
  0
ARC
  5
49E
100
AcDbEntity
  8
A0
  6
CENTER
 62
4
100
AcDbCircle
 10
359.8245775585413
 20
239.3608391576130
 30
0.0000000000000000
 40
13.00000000000000
100
AcDbArc
 50
157.2468664293457
 51
204.2545114954535
  0
ARC
  5
49F
100
AcDbEntity
  8
A0
  6
CENTER
 62
4
100
AcDbCircle
 10
359.8245775585413
 20
239.3608391576129
 30
0.0000000000000000
 40
15.50000000000000
100
AcDbArc
 50
14.09561081068851
 51
34.99608178503810
  0
LINE
  5
4A0
100
AcDbEntity
  8
A0
  6
CENTER
 62
4
100
AcDbLine
 10
376.8695028323806
 20
246.5959806805008
 30
0.0000000000000000
 11
371.7872227544729
 21
244.4386807785146
 31
0.0000000000000000
  0
POINT
  5
4A1
100
AcDbEntity
  8
A0
  6
CONTINUOUS
 62
5
100
AcDbPoint
 10
369.7240724951685
 20
249.2603340942090
 30
0.0000000000000000
  0
CIRCLE
  5
4A2
100
AcDbEntity
  8
A0
  6
CONTINUOUS
 62
4
100
AcDbCircle
 10
369.7240724951685
 20
249.2603340942090
 30
0.0000000000000000
 40
2.500000000000000
  0
CIRCLE
  5
4A3
100
AcDbEntity
  8
A0
  6
CONTINUOUS
 62
3
100
AcDbCircle
 10
369.7240724951685
 20
249.2603340942090
 30
0.0000000000000000
 40
2.100000000000000
  0
POINT
  5
4A4
100
AcDbEntity
  8
A0
  6
CONTINUOUS
 62
5
100
AcDbPoint
 10
349.9250826219374
 20
249.2603340942323
 30
0.0000000000000000
  0
CIRCLE
  5
4A5
100
AcDbEntity
  8
A0
  6
CONTINUOUS
 62
4
100
AcDbCircle
 10
349.9250826219374
 20
249.2603340942323
 30
0.0000000000000000
 40
2.500000000000000
  0
CIRCLE
  5
4A6
100
AcDbEntity
  8
A0
  6
CONTINUOUS
 62
3
100
AcDbCircle
 10
349.9250826219374
 20
249.2603340942323
 30
0.0000000000000000
 40
2.100000000000000
  0
POINT
  5
4A7
100
AcDbEntity
  8
A0
  6
CONTINUOUS
 62
5
100
AcDbPoint
 10
349.9250826219142
 20
229.4613442210167
 30
0.0000000000000000
  0
CIRCLE
  5
4A8
100
AcDbEntity
  8
A0
  6
CONTINUOUS
 62
4
100
AcDbCircle
 10
349.9250826219142
 20
229.4613442210167
 30
0.0000000000000000
 40
2.500000000000000
  0
CIRCLE
  5
4A9
100
AcDbEntity
  8
A0
  6
CONTINUOUS
 62
3
100
AcDbCircle
 10
349.9250826219142
 20
229.4613442210167
 30
0.0000000000000000
 40
2.100000000000000
  0
POINT
  5
4AA
100
AcDbEntity
  8
A0
  6
CONTINUOUS
 62
5
100
AcDbPoint
 10
369.7240724951013
 20
229.4613442209496
 30
0.0000000000000000
  0
CIRCLE
  5
4AB
100
AcDbEntity
  8
A0
  6
CONTINUOUS
 62
4
100
AcDbCircle
 10
369.7240724951013
 20
229.4613442209496
 30
0.0000000000000000
 40
2.500000000000000
  0
CIRCLE
  5
4AC
100
AcDbEntity
  8
A0
  6
CONTINUOUS
 62
3
100
AcDbCircle
 10
369.7240724951013
 20
229.4613442209496
 30
0.0000000000000000
 40
2.100000000000000
  0
LINE
  5
4AD
100
AcDbEntity
  8
A0
  6
CENTER
 62
4
100
AcDbLine
 10
352.9412093226395
 20
232.4774709217326
 30
0.0000000000000000
 11
347.0098506263695
 21
226.5461122254812
 31
0.0000000000000000
  0
LINE
  5
4AE
100
AcDbEntity
  8
A0
  6
CENTER
 62
4
100
AcDbLine
 10
372.6486223567028
 20
252.1848839557343
 30
0.0000000000000000
 11
366.8129312341567
 21
246.3491928332064
 31
0.0000000000000000
  0
LINE
  5
4AF
100
AcDbEntity
  8
A0
  6
CENTER
 62
4
100
AcDbLine
 10
352.6106799836555
 20
246.5747367325100
 30
0.0000000000000000
 11
347.0494106558583
 21
252.1360060603159
 31
0.0000000000000000
  0
LINE
  5
4B0
100
AcDbEntity
  8
A0
  6
CENTER
 62
4
100
AcDbLine
 10
372.7360161729928
 20
226.4494005431411
 30
0.0000000000000000
 11
366.7089899030154
 21
232.4764268131280
 31
0.0000000000000000
  0
ARC
  5
4B1
100
AcDbEntity
  8
A0
  6
CENTER
 62
4
100
AcDbCircle
 10
359.8245775585413
 20
239.3608391576129
 30
0.0000000000000000
 40
14.00000000000000
100
AcDbArc
 50
118.8919481339138
 51
156.1757520032352
  0
ARC
  5
4B2
100
AcDbEntity
  8
A0
  6
CENTER
 62
4
100
AcDbCircle
 10
359.8245775585413
 20
239.3608391576129
 30
0.0000000000000000
 40
14.00000000000000
100
AcDbArc
 50
210.2592093804091
 51
247.8652170316697
  0
ARC
  5
4B3
100
AcDbEntity
  8
A0
  6
CENTER
 62
4
100
AcDbCircle
 10
359.8245775585413
 20
239.3608391576129
 30
0.0000000000000000
 40
14.00000000000000
100
AcDbArc
 50
300.3473106963250
 51
334.9569069201158
  0
ARC
  5
4B4
100
AcDbEntity
  8
A0
  6
CENTER
 62
4
100
AcDbCircle
 10
359.8245775585413
 20
239.3608391576129
 30
0.0000000000000000
 40
14.00000000000000
100
AcDbArc
 50
27.61358647579260
 51
67.95159715101637
  0
MTEXT
  5
4B5
100
AcDbEntity
  8
A0
  6
CONTINUOUS
 62
4
100
AcDbMText
 10
353.6390918036273
 20
256.0613465380730
 30
0.0000000000000000
 40
3.099999904632568
 41
0.0000000000000000
 44
0.6677419652551825
 71
     1
 72
     1
  1
{\H0.81x;{A}}
 11
1.000000000000000
 21
0.0000000000000000
 31
0.0000000000000000
  7
STANDARD
  0
MTEXT
  5
4B6
100
AcDbEntity
  8
A0
  6
CONTINUOUS
 62
4
100
AcDbMText
 10
343.6612924708458
 20
235.4622465885256
 30
0.0000000000000000
 40
3.099999904632568
 41
0.0000000000000000
 44
0.6677419652551825
 71
     1
 72
     1
  1
{\H0.81x;{B}}
 11
1.000000000000000
 21
0.0000000000000000
 31
0.0000000000000000
  7
STANDARD
  0
MTEXT
  5
4B7
100
AcDbEntity
  8
A0
  6
CONTINUOUS
 62
4
100
AcDbMText
 10
363.7619969203164
 20
225.8851865186136
 30
0.0000000000000000
 40
3.099999904632568
 41
0.0000000000000000
 44
0.6677419652551825
 71
     1
 72
     1
  1
{\H0.81x;{C}}
 11
1.000000000000000
 21
0.0000000000000000
 31
0.0000000000000000
  7
STANDARD
  0
MTEXT
  5
4B8
100
AcDbEntity
  8
A0
  6
CONTINUOUS
 62
4
100
AcDbMText
 10
373.6739669759918
 20
235.6199291142192
 30
0.0000000000000000
 40
3.099999904632568
 41
0.0000000000000000
 44
0.6677419652551825
 71
     1
 72
     1
  1
{\H0.81x;{D}}
 11
1.000000000000000
 21
0.0000000000000000
 31
0.0000000000000000
  7
STANDARD
  0
CIRCLE
  5
4B9
100
AcDbEntity
  8
A0
  6
CONTINUOUS
 62
3
100
AcDbCircle
 10
359.8245775585413
 20
239.3608391576129
 30
0.0000000000000000
 40
8.000000000000000
  0
MTEXT
  5
4BA
100
AcDbEntity
  8
A0
  6
CONTINUOUS
 62
4
100
AcDbMText
 10
387.5265544139413
 20
238.3938023227389
 30
0.0000000000000000
 40
4.000000000000000
 41
0.0000000000000000
 44
0.6749999999999999
 71
     1
 72
     1
  1
{\H0.84x;{★}}
 11
1.000000000000000
 21
0.0000000000000000
 31
0.0000000000000000
  7
KNJYOKO
  0
CIRCLE
  5
4BB
100
AcDbEntity
  8
A0
  6
CONTINUOUS
 62
3
100
AcDbCircle
 10
374.0924027870636
 20
245.4171716491743
 30
0.0000000000000000
 40
1.500000000000000
  0
LEADER
  5
4BC
100
AcDbEntity
  8
A0
  6
CONTINUOUS
 62
4
100
AcDbLeader
  3
A002
 73
     0
 75
     1
 40
3.000000000000000
 41
17.09899960660937
 76
     3
 10
349.1625315387337
 20
251.6411986106433
 30
0.0000000000000000
 10
344.5842147249468
 20
266.0340885050073
 30
0.0000000000000000
 10
342.9032147249468
 20
266.0340885050073
 30
0.0000000000000000
340
4BD
213
0.0000000000000000
223
-0.5000000000000000
233
0.0000000000000000
1001
ACAD
1000
DSTYLE
1002
{
1070
   147
1040
0.0
1070
    77
1070
     1
1070
   341
1005
13
1070
    41
1040
2.000000
1002
}
  0
MTEXT
  5
4BD
102
{ACAD_REACTORS
330
4BC
102
}
100
AcDbEntity
  8
A0
  6
CONTINUOUS
 62
4
100
AcDbMText
 10
325.8042151183374
 20
269.5340885050073
 30
0.0000000000000000
 40
3.000000000000000
 41
0.0000000000000000
 44
0.8000000000000000
 71
     1
 72
     1
  1
{\H0.61x;{4-M5ネジ深12\PDEPTH 12}}
 11
1.000000000000000
 21
0.0000000000000000
 31
0.0000000000000000
  7
KNJYOKO
  0
MULTILEADER
  5
4BE
100
AcDbEntity
  8
A0
  6
CONTINUOUS
 62
4
100
AcDbMLeader
270
     2
300
CONTEXT_DATA{
 10
382.9237050089244
 20
229.9368542644460
 30
0.0000000000000000
 41
3.000000000000000
140
2.000000000000000
145
0.01000000000000000
174
     6
175
     6
290
     1
304
{\H0.62x;{スプリングピン　3Ｘ10\PSPRINGPIN　3×10}}
 11
0.0000000000000000
 21
0.0000000000000000
 31
1.000000000000000
340
69
 12
382.9237050089244
 22
233.4368542644460
 32
0.0000000000000000
 13
1.000000000000000
 23
0.0000000000000000
 33
0.0000000000000000
 42
0.0000000000000000
 43
0.0000000000000000
 44
0.0000000000000000
 45
1.000000000000000
170
     1
 90
-1023410171
171
     1
172
     1
 91
-1073741824
141
0.0000000000000000
 92
     0
291
     0
292
     0
173
     0
293
     0
142
0.0000000000000000
143
0.0000000000000000
294
     0
295
     0
296
     0
110
374.7214643029369
120
374.7214643029369
130
0.0000000000000000
111
1.000000000000000
121
0.0000000000000000
131
0.0000000000000000
112
6.123233995736766e-017
122
1.000000000000000
132
0.0000000000000000
302
LEADER{
290
1
 10
381.2437050089244
 20
229.9368542644460
 30
0.0000000000000000
 11
1.000000000000000
 21
0.0000000000000000
 31
0.0000000000000000
 90
0
 40
1.680000000000000
304
LEADER_LINE{
 10
374.7214643029369
 20
244.0554515570675
 30
0.0000000000000000
 91
0
305
}
271
0
303
}
301
}
340
67
170
     1
 91
-1023410172
341
68
171
    -1
290
     1
291
     1
 41
0.0000000000000000
342
13
 42
2.000000000000000
172
     2
174
     1
  0
LINE
  5
4BF
100
AcDbEntity
  8
A0
  6
CONTINUOUS
 62
4
100
AcDbLine
 10
359.8245775585414
 20
239.3608391576128
 30
0.0000000000000000
 11
392.1296922436861
 21
258.9990282919565
 31
0.0000000000000000
  0
LINE
  5
4C0
100
AcDbEntity
  8
A0
  6
CONTINUOUS
 62
4
100
AcDbLine
 10
371.0486774549758
 20
246.8861020462747
 30
0.0000000000000000
 11
373.0693497539056
 21
247.4122992421506
 31
0.0000000000000000
  0
LINE
  5
4C1
100
AcDbEntity
  8
A0
  6
CONTINUOUS
 62
4
100
AcDbLine
 10
373.0693497539056
 20
247.4122992421506
 30
0.0000000000000000
 11
371.6720163249996
 21
245.8607002871781
 31
0.0000000000000000
  0
MTEXT
  5
4C2
100
AcDbEntity
  8
A0
  6
CONTINUOUS
 62
4
100
AcDbMText
 10
382.1713768770395
 20
253.5305326760679
 30
0.0000000000000000
 40
3.099999904632568
 41
0.0000000000000000
 44
0.7741935722041460
 71
     8
 72
     1
  1
{Ｒ15.5}
 11
0.8545014319589852
 21
0.5194490377121165
 31
0.0000000000000000
  7
KNJYOKO
  0
MTEXT
  5
4C3
100
AcDbEntity
  8
A0
  6
CONTINUOUS
 62
4
100
AcDbMText
 10
389.0790088170670
 20
257.9052038006147
 30
0.0000000000000000
 40
2.799999952316284
 41
0.0000000000000000
 44
0.7500000127724241
 71
     8
 72
     1
  1
{\U+00B10.1}
 11
0.8545014319589852
 21
0.5194490377121165
 31
0.0000000000000000
  7
STANDARD
  0
LINE
  5
4C4
100
AcDbEntity
  8
A0
  6
CONTINUOUS
 62
4
100
AcDbLine
 10
383.7640121509119
 20
239.3608391575832
 30
0.0000000000000000
 11
389.4213744335933
 21
239.3608391576291
 31
0.0000000000000000
  0
ARC
  5
4C5
100
AcDbEntity
  8
A0
  6
CONTINUOUS
 62
4
100
AcDbCircle
 10
359.8245775585413
 20
239.3608391576129
 30
0.0000000000000000
 40
27.59679687505206
100
AcDbArc
 50
0.0000000000000000
 51
22.99999999991026
  0
LINE
  5
4C6
100
AcDbEntity
  8
A0
  6
CONTINUOUS
 62
4
100
AcDbLine
 10
386.8213744097515
 20
241.3608391576129
 30
0.0000000000000000
 11
387.4213744335933
 21
239.3608391576129
 31
0.0000000000000000
  0
LINE
  5
4C7
100
AcDbEntity
  8
A0
  6
CONTINUOUS
 62
4
100
AcDbLine
 10
387.4213744335933
 20
239.3608391576129
 30
0.0000000000000000
 11
388.0213744574352
 21
241.3608391576129
 31
0.0000000000000000
  0
LINE
  5
4C8
100
AcDbEntity
  8
A0
  6
CONTINUOUS
 62
4
100
AcDbLine
 10
385.4567223447420
 20
248.0683183499369
 30
0.0000000000000000
 11
385.2275630217847
 21
250.1437667432514
 31
0.0000000000000000
  0
LINE
  5
4C9
100
AcDbEntity
  8
A0
  6
CONTINUOUS
 62
4
100
AcDbLine
 10
385.2275630217847
 20
250.1437667432514
 30
0.0000000000000000
 11
386.5613282127787
 21
248.5371957227538
 31
0.0000000000000000
  0
MTEXT
  5
4CA
100
AcDbEntity
  8
A0
  6
CONTINUOUS
 62
4
100
AcDbMText
 10
386.3773982325016
 20
244.7630715798936
 30
0.0000000000000000
 40
3.099999904632568
 41
0.0000000000000000
 44
0.7741935722041460
 71
     8
 72
     1
  1
{\H0.57x;{23\U+00B0}}
 11
-0.1993679344164296
 21
0.9799247046209858
 31
0.0000000000000000
  7
STANDARD
  0
LINE
  5
4CB
100
AcDbEntity
  8
A0
  6
CONTINUOUS
 62
4
100
AcDbLine
 10
377.6059067261163
 20
246.9085655879490
 30
0.0000000000000000
 11
387.0685727286909
 21
250.9252290002271
 31
0.0000000000000000
  0
LINE
  5
4CC
100
AcDbEntity
  8
A0
  6
CONTINUOUS
 62
4
100
AcDbLine
 10
359.8245775585598
 20
263.0489157567470
 30
0.0000000000000000
 11
359.8245775585633
 21
267.4758463574244
 31
0.0000000000000000
  0
ARC
  5
4CD
100
AcDbEntity
  8
A0
  6
CONTINUOUS
 62
4
100
AcDbCircle
 10
359.8245775585413
 20
239.3608391576129
 30
0.0000000000000000
 40
26.11500719981148
100
AcDbArc
 50
89.99999999995522
 51
134.9999999999552
  0
LINE
  5
4CE
100
AcDbEntity
  8
A0
  6
CONTINUOUS
 62
4
100
AcDbLine
 10
357.8245775585613
 20
264.8758463335841
 30
0.0000000000000000
 11
359.8245775585617
 21
265.4758463574244
 31
0.0000000000000000
  0
LINE
  5
4CF
100
AcDbEntity
  8
A0
  6
CONTINUOUS
 62
4
100
AcDbLine
 10
359.8245775585617
 20
265.4758463574244
 30
0.0000000000000000
 11
357.8245775585622
 21
266.0758463812678
 31
0.0000000000000000
  0
LINE
  5
4D0
100
AcDbEntity
  8
A0
  6
CONTINUOUS
 62
4
100
AcDbLine
 10
343.1969565247781
 20
258.8168873161505
 30
0.0000000000000000
 11
341.3584788768335
 21
257.8269378393495
 31
0.0000000000000000
  0
LINE
  5
4D1
100
AcDbEntity
  8
A0
  6
CONTINUOUS
 62
4
100
AcDbLine
 10
341.3584788768335
 20
257.8269378393495
 30
0.0000000000000000
 11
342.3484283536374
 21
259.6654154872925
 31
0.0000000000000000
  0
MTEXT
  5
4D2
100
AcDbEntity
  8
A0
  6
CONTINUOUS
 62
4
100
AcDbMText
 10
350.1942916438526
 20
264.1724534027072
 30
0.0000000000000000
 40
3.099999904632568
 41
0.0000000000000000
 44
0.7741935722041460
 71
     8
 72
     1
  1
{\H0.57x;{45\U+00B0}}
 11
0.9322415003994453
 21
0.3618366826801713
 31
0.0000000000000000
  7
STANDARD
  0
LINE
  5
4D3
100
AcDbEntity
  8
A0
  6
CONTINUOUS
 62
4
100
AcDbLine
 10
346.4837252224801
 20
252.7016914936949
 30
0.0000000000000000
 11
339.9442653144615
 21
259.2411514017237
 31
0.0000000000000000
  0
LINE
  5
4D4
100
AcDbEntity
  8
A0
  6
CONTINUOUS
 62
3
100
AcDbLine
 10
252.4215299385810
 20
251.3608391575643
 30
0.0000000000000000
 11
252.4215299385655
 21
258.8608391575580
 31
0.0000000000000000
  0
LINE
  5
4D5
100
AcDbEntity
  8
A0
  6
CENTER
 62
4
100
AcDbLine
 10
260.4215272086367
 20
246.4830607028202
 30
0.0000000000000000
 11
260.4215272086366
 21
260.7521076334345
 31
0.0000000000000000
  0
POINT
  5
4D6
100
AcDbEntity
  8
A0
  6
CONTINUOUS
 62
5
100
AcDbPoint
 10
260.4215272086366
 20
258.8608391575581
 30
0.0000000000000000
  0
LINE
  5
4D7
100
AcDbEntity
  8
A0
  6
CONTINUOUS
 62
3
100
AcDbLine
 10
263.3215272086366
 20
258.8608391575582
 30
0.0000000000000000
 11
262.5215272086366
 21
258.0608391575582
 31
0.0000000000000000
  0
LINE
  5
4D8
100
AcDbEntity
  8
A0
  6
CONTINUOUS
 62
3
100
AcDbLine
 10
262.5215272086367
 20
258.0608391575581
 30
0.0000000000000000
 11
258.3215272086367
 21
258.0608391575581
 31
0.0000000000000000
  0
LINE
  5
4D9
100
AcDbEntity
  8
A0
  6
CONTINUOUS
 62
3
100
AcDbLine
 10
258.3215272086367
 20
258.0608391575580
 30
0.0000000000000000
 11
257.5215272086366
 21
258.8608391575580
 31
0.0000000000000000
  0
LINE
  5
4DA
100
AcDbEntity
  8
A0
  6
CONTINUOUS
 62
4
100
AcDbLine
 10
262.9215272086366
 20
258.4608391575580
 30
0.0000000000000000
 11
262.9215272086366
 21
253.8608391575581
 31
0.0000000000000000
  0
LINE
  5
4DB
100
AcDbEntity
  8
A0
  6
CONTINUOUS
 62
3
100
AcDbLine
 10
262.9215272086366
 20
253.8608391575581
 30
0.0000000000000000
 11
257.9215272086366
 21
253.8608391575581
 31
0.0000000000000000
  0
LINE
  5
4DC
100
AcDbEntity
  8
A0
  6
CONTINUOUS
 62
4
100
AcDbLine
 10
257.9215272086366
 20
253.8608391575581
 30
0.0000000000000000
 11
257.9215272086366
 21
258.4608391575580
 31
0.0000000000000000
  0
LINE
  5
4DD
100
AcDbEntity
  8
A0
  6
CONTINUOUS
 62
3
100
AcDbLine
 10
258.3215272086367
 20
247.0510595135885
 30
0.0000000000000000
 11
258.3215272086367
 21
258.0608391575581
 31
0.0000000000000000
  0
LINE
  5
4DE
100
AcDbEntity
  8
A0
  6
CONTINUOUS
 62
3
100
AcDbLine
 10
271.4215272086366
 20
248.6608391575581
 30
0.0000000000000000
 11
271.4215272086366
 21
256.0608391575581
 31
0.0000000000000000
  0
LINE
  5
4DF
100
AcDbEntity
  8
A0
  6
CONTINUOUS
 62
3
100
AcDbLine
 10
262.9215272086366
 20
254.4608391575580
 30
0.0000000000000000
 11
271.4215272086367
 21
254.4608391575580
 31
0.0000000000000000
  0
LINE
  5
4E0
100
AcDbEntity
  8
A0
  6
CONTINUOUS
 62
3
100
AcDbLine
 10
262.5215272086367
 20
250.2608391575581
 30
0.0000000000000000
 11
271.4215272086366
 21
250.2608391575581
 31
0.0000000000000000
  0
LINE
  5
4E1
100
AcDbEntity
  8
A0
  6
CONTINUOUS
 62
3
100
AcDbLine
 10
252.4215299385810
 20
227.3608391575519
 30
0.0000000000000000
 11
252.4215299385655
 21
219.8608391575580
 31
0.0000000000000000
  0
LINE
  5
4E2
100
AcDbEntity
  8
A0
  6
CONTINUOUS
 62
3
100
AcDbLine
 10
271.4215272086366
 20
256.0608391575581
 30
0.0000000000000000
 11
272.4215272086366
 21
256.0608391575581
 31
0.0000000000000000
  0
LINE
  5
4E3
100
AcDbEntity
  8
A0
  6
CONTINUOUS
 62
3
100
AcDbLine
 10
271.4215272086366
 20
248.6608391575581
 30
0.0000000000000000
 11
272.4215272086366
 21
248.6608391575581
 31
0.0000000000000000
  0
ELLIPSE
  5
4E4
100
AcDbEntity
  8
A0
  6
CONTINUOUS
 62
4
100
AcDbEllipse
 10
271.9215272086366
 20
255.3608391575581
 30
0.0000000000000000
 11
0.0000000000000000
 21
-0.7000000000000000
 31
0.0000000000000000
210
0.0000000000000000
220
0.0000000000000000
230
1.000000000000000
 40
0.7142857142857143
 41
0.0000000000000000
 42
6.283185307179586
  0
ELLIPSE
  5
4E5
100
AcDbEntity
  8
A0
  6
CONTINUOUS
 62
4
100
AcDbEllipse
 10
271.9215272086367
 20
249.3608391575581
 30
0.0000000000000000
 11
0.0000000000000000
 21
-0.7000000000000000
 31
0.0000000000000000
210
0.0000000000000000
220
0.0000000000000000
230
1.000000000000000
 40
0.7142857142857143
 41
0.0000000000000000
 42
6.283185307179586
  0
LINE
  5
4E6
100
AcDbEntity
  8
A0
  6
CONTINUOUS
 62
4
100
AcDbLine
 10
247.4215299385769
 20
221.3608391575581
 30
0.0000000000000000
 11
251.0215299385769
 21
221.3608391575581
 31
0.0000000000000000
  0
LINE
  5
4E7
100
AcDbEntity
  8
A0
  6
CONTINUOUS
 62
4
100
AcDbLine
 10
251.0215299385770
 20
221.3608391575581
 30
0.0000000000000000
 11
251.4215299385770
 21
222.0536594805857
 31
0.0000000000000000
  0
LINE
  5
4E8
100
AcDbEntity
  8
A0
  6
CONTINUOUS
 62
4
100
AcDbLine
 10
251.4215299385769
 20
222.0536594805857
 30
0.0000000000000000
 11
251.4215299385769
 21
227.6680188345306
 31
0.0000000000000000
  0
LINE
  5
4E9
100
AcDbEntity
  8
A0
  6
CONTINUOUS
 62
4
100
AcDbLine
 10
251.4215299385770
 20
227.6680188345306
 30
0.0000000000000000
 11
251.0215299385770
 21
228.3608391575581
 31
0.0000000000000000
  0
LINE
  5
4EA
100
AcDbEntity
  8
A0
  6
CONTINUOUS
 62
4
100
AcDbLine
 10
251.0215299385769
 20
228.3608391575581
 30
0.0000000000000000
 11
247.4215299385769
 21
228.3608391575581
 31
0.0000000000000000
  0
LINE
  5
4EB
100
AcDbEntity
  8
A0
  6
CONTINUOUS
 62
4
100
AcDbLine
 10
251.0215299385769
 20
221.3608391575581
 30
0.0000000000000000
 11
251.0215299385769
 21
228.3608391575581
 31
0.0000000000000000
  0
ARC
  5
4EC
100
AcDbEntity
  8
A0
  6
CONTINUOUS
 62
3
100
AcDbCircle
 10
249.4215299385820
 20
227.3608391575582
 30
0.0000000000000000
 40
3.000000000000000
100
AcDbArc
 50
0.0000000000000000
 51
90.00000000000000
  0
ARC
  5
4ED
100
AcDbEntity
  8
A0
  6
CONTINUOUS
 62
3
100
AcDbCircle
 10
249.4215299385820
 20
251.3608391575581
 30
0.0000000000000000
 40
3.000000000000000
100
AcDbArc
 50
270.0000000000000
 51
360.0000000000000
  0
LINE
  5
4EE
100
AcDbEntity
  8
A0
  6
CONTINUOUS
 62
3
100
AcDbLine
 10
262.5215272086367
 20
248.1706467466343
 30
0.0000000000000000
 11
262.5215272086367
 21
250.2608391575581
 31
0.0000000000000000
  0
LINE
  5
4EF
100
AcDbEntity
  8
A0
  6
CONTINUOUS
 62
3
100
AcDbLine
 10
262.5215272086367
 20
253.8608391575581
 30
0.0000000000000000
 11
262.5215272086367
 21
258.0608391575581
 31
0.0000000000000000
  0
LINE
  5
4F0
100
AcDbEntity
  8
A0
  6
CONTINUOUS
 62
3
100
AcDbLine
 10
261.6087384121661
 20
251.1736279540863
 30
0.0000000000000000
 11
262.5215272086945
 21
250.2608391575580
 31
0.0000000000000000
  0
LINE
  5
4F1
100
AcDbEntity
  8
A0
  6
CONTINUOUS
 62
3
100
AcDbLine
 10
268.4215272086366
 20
257.3608391575581
 30
0.0000000000000000
 11
272.4215272086366
 21
257.3608391575581
 31
0.0000000000000000
  0
LINE
  5
4F2
100
AcDbEntity
  8
A0
  6
CONTINUOUS
 62
3
100
AcDbLine
 10
252.4215299385655
 20
258.8608391575581
 30
0.0000000000000000
 11
266.9215272087003
 21
258.8608391575581
 31
0.0000000000000000
  0
LINE
  5
4F3
100
AcDbEntity
  8
A0
  6
CONTINUOUS
 62
3
100
AcDbLine
 10
268.4215272086366
 20
221.3608391575582
 30
0.0000000000000000
 11
272.4215272086366
 21
221.3608391575582
 31
0.0000000000000000
  0
LINE
  5
4F4
100
AcDbEntity
  8
A0
  6
CONTINUOUS
 62
3
100
AcDbLine
 10
252.4215299385655
 20
219.8608391575581
 30
0.0000000000000000
 11
266.9215272087787
 21
219.8608391575581
 31
0.0000000000000000
  0
LINE
  5
4F5
100
AcDbEntity
  8
A0
  6
CONTINUOUS
 62
3
100
AcDbLine
 10
266.9215272087002
 20
258.8608391575581
 30
0.0000000000000000
 11
268.4215272087011
 21
257.3608391575581
 31
0.0000000000000000
  0
LINE
  5
4F6
100
AcDbEntity
  8
A0
  6
CONTINUOUS
 62
3
100
AcDbLine
 10
266.9215272087787
 20
219.8608391575580
 30
0.0000000000000000
 11
268.4215272087780
 21
221.3608391575581
 31
0.0000000000000000
  0
LINE
  5
4F7
100
AcDbEntity
  8
A0
  6
CENTER
 62
4
100
AcDbLine
 10
257.8669523863518
 20
252.3608391575580
 30
0.0000000000000000
 11
274.5814416607491
 21
252.3608391575580
 31
0.0000000000000000
  0
LINE
  5
4F8
100
AcDbEntity
  8
A0
  6
CENTER
 62
4
100
AcDbLine
 10
253.3854623077288
 20
225.3608391575581
 30
0.0000000000000000
 11
274.1174010412081
 21
225.3608391575581
 31
0.0000000000000000
  0
LINE
  5
4F9
100
AcDbEntity
  8
A0
  6
CONTINUOUS
 62
3
100
AcDbLine
 10
272.4215272086367
 20
221.3608391575582
 30
0.0000000000000000
 11
272.4215272086366
 21
257.3608391575580
 31
0.0000000000000000
  0
POINT
  5
4FA
100
AcDbEntity
  8
A0
  6
CONTINUOUS
 62
5
100
AcDbPoint
 10
277.4215272086367
 20
239.3608391575581
 30
0.0000000000000000
  0
POINT
  5
4FB
100
AcDbEntity
  8
A0
  6
CONTINUOUS
 62
5
100
AcDbPoint
 10
272.4215272086367
 20
225.3608391576032
 30
0.0000000000000000
  0
POINT
  5
4FC
100
AcDbEntity
  8
A0
  6
CONTINUOUS
 62
5
100
AcDbPoint
 10
272.4215272086367
 20
222.3608391576032
 30
0.0000000000000000
  0
LINE
  5
4FD
100
AcDbEntity
  8
A0
  6
CONTINUOUS
 62
3
100
AcDbLine
 10
243.4032268526203
 20
219.8608391575581
 30
0.0000000000000000
 11
247.4215299385656
 21
219.8608391575581
 31
0.0000000000000000
  0
LINE
  5
4FE
100
AcDbEntity
  8
A0
  6
CONTINUOUS
 62
3
100
AcDbLine
 10
243.4032268526203
 20
258.8608391575581
 30
0.0000000000000000
 11
247.4215299385655
 21
258.8608391575581
 31
0.0000000000000000
  0
LINE
  5
4FF
100
AcDbEntity
  8
A0
  6
CENTER
 62
4
100
AcDbLine
 10
242.1941462417358
 20
224.8608391575582
 30
0.0000000000000000
 11
253.9941959560224
 21
224.8608391575582
 31
0.0000000000000000
  0
LINE
  5
500
100
AcDbEntity
  8
A0
  6
CONTINUOUS
 62
3
100
AcDbLine
 10
247.4215299385656
 20
219.8608391575581
 30
0.0000000000000000
 11
247.4215299385655
 21
258.8608391575580
 31
0.0000000000000000
  0
LINE
  5
501
100
AcDbEntity
  8
A0
  6
CONTINUOUS
 62
3
100
AcDbLine
 10
247.4215299385654
 20
248.3608391575581
 30
0.0000000000000000
 11
249.4215299385820
 21
248.3608391575581
 31
0.0000000000000000
  0
LINE
  5
502
100
AcDbEntity
  8
A0
  6
CONTINUOUS
 62
3
100
AcDbLine
 10
247.4215299385655
 20
230.3608391575582
 30
0.0000000000000000
 11
249.4215299385820
 21
230.3608391575582
 31
0.0000000000000000
  0
SPLINE
  5
503
100
AcDbEntity
  8
A0
  6
CONTINUOUS
 62
4
100
AcDbSpline
210
0.0000000000000000
220
0.0000000000000000
230
1.000000000000000
 70
     8
 71
     3
 72
    10
 73
     6
 74
     0
 42
1.000000000000000e-007
 43
1.000000000000000e-007
 12
0.9861774767599627
 22
-0.4391568106059935
 32
0.0000000000000000
 13
0.9422228071065320
 23
-0.6387227211637310
 33
0.0000000000000000
 40
0.0000000000000000
 40
0.0000000000000000
 40
0.0000000000000000
 40
0.0000000000000000
 40
2.280187732648579
 40
5.331592873492782
 40
8.600742640701249
 40
8.600742640701249
 40
8.600742640701249
 40
8.600742640701249
 10
256.2209701494582
 20
247.6183847294194
 30
0.0000000000000000
 10
256.9705267443657
 20
247.2845980720017
 30
0.0000000000000000
 10
258.7231590133964
 20
246.5041296314108
 30
0.0000000000000000
 10
261.2279742438528
 20
249.1992501467545
 30
0.0000000000000000
 10
263.2130979064982
 20
247.8535561367092
 30
0.0000000000000000
 10
264.2398537300017
 20
247.1575293916415
 30
0.0000000000000000
  0
POINT
  5
504
100
AcDbEntity
  8
A0
  6
CONTINUOUS
 62
5
100
AcDbPoint
 10
272.4215272086367
 20
223.8608391575581
 30
0.0000000000000000
  0
POINT
  5
505
100
AcDbEntity
  8
A0
  6
CONTINUOUS
 62
5
100
AcDbPoint
 10
279.4215272086367
 20
223.8608391575581
 30
0.0000000000000000
  0
MTEXT
  5
506
100
AcDbEntity
  8
A0
  6
CONTINUOUS
 62
4
100
AcDbMText
 10
316.7650285347036
 20
228.6035584523931
 30
0.0000000000000000
 40
3.000000000000000
 41
0.0000000000000000
 44
0.8000000000000000
 71
     1
 72
     1
  1
{\H0.59x;{（テーブルセンタ穴）}}
 11
6.123233995736766e-017
 21
1.000000000000000
 31
0.0000000000000000
  7
KNJYOKO
  0
LINE
  5
507
100
AcDbEntity
  8
A0
  6
CENTER
 62
4
100
AcDbLine
 10
280.7072165509366
 20
239.3608391576704
 30
0.0000000000000000
 11
237.9147282137103
 21
239.3608391577374
 31
0.0000000000000000
  0
POINT
  5
508
100
AcDbEntity
  8
A0
  6
CONTINUOUS
 62
5
100
AcDbPoint
 10
272.4215272086367
 20
225.3608391575581
 30
0.0000000000000000
  0
LINE
  5
509
100
AcDbEntity
  8
A0
  6
CONTINUOUS
 62
3
100
AcDbLine
 10
272.4215272086366
 20
222.4608391575582
 30
0.0000000000000000
 11
271.6215272086366
 21
223.2608391575582
 31
0.0000000000000000
  0
LINE
  5
50A
100
AcDbEntity
  8
A0
  6
CONTINUOUS
 62
3
100
AcDbLine
 10
271.6215272086367
 20
223.2608391575581
 30
0.0000000000000000
 11
271.6215272086367
 21
227.4608391575581
 31
0.0000000000000000
  0
LINE
  5
50B
100
AcDbEntity
  8
A0
  6
CONTINUOUS
 62
3
100
AcDbLine
 10
271.6215272086367
 20
227.4608391575582
 30
0.0000000000000000
 11
272.4215272086367
 21
228.2608391575581
 31
0.0000000000000000
  0
LINE
  5
50C
100
AcDbEntity
  8
A0
  6
CONTINUOUS
 62
4
100
AcDbLine
 10
272.0215272086367
 20
222.8608391575581
 30
0.0000000000000000
 11
260.4215272086367
 21
222.8608391575581
 31
0.0000000000000000
  0
LINE
  5
50D
100
AcDbEntity
  8
A0
  6
CONTINUOUS
 62
3
100
AcDbLine
 10
260.4215272086367
 20
222.8608391575581
 30
0.0000000000000000
 11
260.4215272086367
 21
227.8608391575581
 31
0.0000000000000000
  0
LINE
  5
50E
100
AcDbEntity
  8
A0
  6
CONTINUOUS
 62
4
100
AcDbLine
 10
260.4215272086367
 20
227.8608391575581
 30
0.0000000000000000
 11
272.0215272086367
 21
227.8608391575581
 31
0.0000000000000000
  0
LINE
  5
50F
100
AcDbEntity
  8
A0
  6
CONTINUOUS
 62
3
100
AcDbLine
 10
271.6215272086367
 20
223.2608391575581
 30
0.0000000000000000
 11
255.4215272086367
 21
223.2608391575581
 31
0.0000000000000000
  0
LINE
  5
510
100
AcDbEntity
  8
A0
  6
CONTINUOUS
 62
3
100
AcDbLine
 10
255.4215272086367
 20
223.2608391575581
 30
0.0000000000000000
 11
255.4215272086367
 21
227.4608391575581
 31
0.0000000000000000
  0
LINE
  5
511
100
AcDbEntity
  8
A0
  6
CONTINUOUS
 62
3
100
AcDbLine
 10
255.4215272086367
 20
227.4608391575581
 30
0.0000000000000000
 11
271.6215272086367
 21
227.4608391575581
 31
0.0000000000000000
  0
LINE
  5
512
100
AcDbEntity
  8
A0
  6
CONTINUOUS
 62
3
100
AcDbLine
 10
255.4215272086366
 20
223.2608391575582
 30
0.0000000000000000
 11
254.2090916433384
 21
225.3608391575581
 31
0.0000000000000000
  0
LINE
  5
513
100
AcDbEntity
  8
A0
  6
CONTINUOUS
 62
3
100
AcDbLine
 10
254.2090916433385
 20
225.3608391575581
 30
0.0000000000000000
 11
255.4215272086367
 21
227.4608391575581
 31
0.0000000000000000
  0
LINE
  5
514
100
AcDbEntity
  8
A0
  6
CONTINUOUS
 62
3
100
AcDbLine
 10
271.4215272086367
 20
247.3608391576834
 30
0.0000000000000000
 11
272.4215272086367
 21
247.3608391576834
 31
0.0000000000000000
  0
LINE
  5
515
100
AcDbEntity
  8
A0
  6
CONTINUOUS
 62
3
100
AcDbLine
 10
271.4215272086367
 20
231.3608391576834
 30
0.0000000000000000
 11
272.4215272086367
 21
231.3608391576834
 31
0.0000000000000000
  0
LINE
  5
516
100
AcDbEntity
  8
A0
  6
CONTINUOUS
 62
3
100
AcDbLine
 10
271.4215272086367
 20
231.3608391576834
 30
0.0000000000000000
 11
271.4215272086367
 21
247.3608391576832
 31
0.0000000000000000
  0
MTEXT
  5
517
100
AcDbEntity
  8
A0
  6
CONTINUOUS
 62
4
100
AcDbMText
 10
320.8369055154140
 20
219.1898435146904
 30
0.0000000000000000
 40
3.000000000000000
 41
0.0000000000000000
 44
0.8000000000000000
 71
     1
 72
     1
  1
{\H0.63x;{(CENTER HOLE OF TABLE)}}
 11
6.123233995736766e-017
 21
1.000000000000000
 31
0.0000000000000000
  7
STANDARD
  0
POINT
  5
518
100
AcDbEntity
  8
A0
  6
CONTINUOUS
 62
5
100
AcDbPoint
 10
277.4215272086367
 20
239.3608391575581
 30
0.0000000000000000
  0
MULTILEADER
  5
519
100
AcDbEntity
  8
A0
  6
CONTINUOUS
 62
4
100
AcDbMLeader
270
     2
300
CONTEXT_DATA{
 10
289.8909352780826
 20
270.3566904701372
 30
0.0000000000000000
 41
3.000000000000000
140
2.000000000000000
145
0.01000000000000000
174
     6
175
     6
290
     1
304
{\H0.59x;{４ーＯリング　Ｓ５\P4-ＯRING S5\P}
 11
0.0000000000000000
 21
0.0000000000000000
 31
1.000000000000000
340
69
 12
289.8909352780826
 22
273.8566904701372
 32
0.0000000000000000
 13
1.000000000000000
 23
0.0000000000000000
 33
0.0000000000000000
 42
0.0000000000000000
 43
0.0000000000000000
 44
0.0000000000000000
 45
1.000000000000000
170
     1
 90
-1023410171
171
     1
172
     1
 91
-1073741824
141
0.0000000000000000
 92
     0
291
     0
292
     0
173
     0
293
     0
142
0.0000000000000000
143
0.0000000000000000
294
     0
295
     0
296
     0
110
272.3387885491795
120
272.3387885491795
130
0.0000000000000000
111
1.000000000000000
121
0.0000000000000000
131
0.0000000000000000
112
6.123233995736766e-017
122
1.000000000000000
132
0.0000000000000000
302
LEADER{
290
1
 10
288.2109352780826
 20
270.3566904701372
 30
0.0000000000000000
 11
1.000000000000000
 21
0.0000000000000000
 31
0.0000000000000000
 90
0
 40
1.680000000000000
304
LEADER_LINE{
 10
272.3387885491795
 20
255.6965206692088
 30
0.0000000000000000
 91
0
305
}
271
0
303
}
301
}
340
67
170
     1
 91
-1023410172
341
68
171
    -1
290
     1
291
     1
 41
0.0000000000000000
342
13
 42
2.000000000000000
172
     2
174
     1
  0
LINE
  5
51A
100
AcDbEntity
  8
A0
  6
CONTINUOUS
 62
4
100
AcDbLine
 10
265.5416501261684
 20
247.2608391575581
 30
0.0000000000000000
 11
265.5416501261684
 21
273.1322392277485
 31
0.0000000000000000
  0
LINE
  5
51B
100
AcDbEntity
  8
A0
  6
CONTINUOUS
 62
4
100
AcDbLine
 10
264.9416501023266
 20
248.2608391575581
 30
0.0000000000000000
 11
265.5416501261684
 21
250.2608391575581
 31
0.0000000000000000
  0
LINE
  5
51C
100
AcDbEntity
  8
A0
  6
CONTINUOUS
 62
4
100
AcDbLine
 10
265.5416501261684
 20
250.2608391575581
 30
0.0000000000000000
 11
266.1416501500103
 21
248.2608391575581
 31
0.0000000000000000
  0
LINE
  5
51D
100
AcDbEntity
  8
A0
  6
CONTINUOUS
 62
4
100
AcDbLine
 10
264.9416501023266
 20
256.4608391575580
 30
0.0000000000000000
 11
265.5416501261684
 21
254.4608391575580
 31
0.0000000000000000
  0
LINE
  5
51E
100
AcDbEntity
  8
A0
  6
CONTINUOUS
 62
4
100
AcDbLine
 10
265.5416501261684
 20
254.4608391575580
 30
0.0000000000000000
 11
266.1416501500103
 21
256.4608391575580
 31
0.0000000000000000
  0
MTEXT
  5
51F
100
AcDbEntity
  8
A0
  6
CONTINUOUS
 62
4
100
AcDbMText
 10
265.0416501261684
 20
269.1822395919443
 30
0.0000000000000000
 40
3.099999904632568
 41
0.0000000000000000
 44
0.7741935722041460
 71
     8
 72
     1
  1
{\U+22054.2}
 11
6.123233995736766e-017
 21
1.000000000000000
 31
0.0000000000000000
  7
STANDARD
  0
LINE
  5
520
100
AcDbEntity
  8
A0
  6
CONTINUOUS
 62
4
100
AcDbLine
 10
273.2215272205576
 20
221.3608391575582
 30
0.0000000000000000
 11
306.9215272086367
 21
221.3608391575582
 31
0.0000000000000000
  0
LINE
  5
521
100
AcDbEntity
  8
A0
  6
CONTINUOUS
 62
4
100
AcDbLine
 10
304.9215272086367
 20
221.3608391575582
 30
0.0000000000000000
 11
304.9215272086367
 21
257.3608391575581
 31
0.0000000000000000
  0
LINE
  5
522
100
AcDbEntity
  8
A0
  6
CONTINUOUS
 62
4
100
AcDbLine
 10
304.3215271847948
 20
223.3608391575582
 30
0.0000000000000000
 11
304.9215272086367
 21
221.3608391575582
 31
0.0000000000000000
  0
LINE
  5
523
100
AcDbEntity
  8
A0
  6
CONTINUOUS
 62
4
100
AcDbLine
 10
304.9215272086367
 20
221.3608391575582
 30
0.0000000000000000
 11
305.5215272324786
 21
223.3608391575582
 31
0.0000000000000000
  0
LINE
  5
524
100
AcDbEntity
  8
A0
  6
CONTINUOUS
 62
4
100
AcDbLine
 10
304.3215271847948
 20
255.3608391575581
 30
0.0000000000000000
 11
304.9215272086367
 21
257.3608391575581
 31
0.0000000000000000
  0
LINE
  5
525
100
AcDbEntity
  8
A0
  6
CONTINUOUS
 62
4
100
AcDbLine
 10
304.9215272086367
 20
257.3608391575581
 30
0.0000000000000000
 11
305.5215272324786
 21
255.3608391575581
 31
0.0000000000000000
  0
MTEXT
  5
526
100
AcDbEntity
  8
A0
  6
CONTINUOUS
 62
4
100
AcDbMText
 10
304.4215272086367
 20
239.3608391575581
 30
0.0000000000000000
 40
3.099999904632568
 41
0.0000000000000000
 44
0.7741935722041460
 71
     8
 72
     1
  1
{\U+220536h7}
 11
6.123233995736766e-017
 21
1.000000000000000
 31
0.0000000000000000
  7
STANDARD
  0
LINE
  5
527
100
AcDbEntity
  8
A0
  6
CONTINUOUS
 62
4
100
AcDbLine
 10
273.2215272205576
 20
257.3608391575581
 30
0.0000000000000000
 11
306.9215272086367
 21
257.3608391575581
 31
0.0000000000000000
  0
LINE
  5
528
100
AcDbEntity
  8
A0
  6
CONTINUOUS
 62
4
100
AcDbLine
 10
293.9215272086092
 20
232.8202407654320
 30
0.0000000000000000
 11
293.9215272086398
 21
252.3608391575278
 31
0.0000000000000000
  0
LINE
  5
529
100
AcDbEntity
  8
A0
  6
CONTINUOUS
 62
4
100
AcDbLine
 10
293.3215271847948
 20
250.3608391575287
 30
0.0000000000000000
 11
293.9215272086398
 21
252.3608391575278
 31
0.0000000000000000
  0
LINE
  5
52A
100
AcDbEntity
  8
A0
  6
CONTINUOUS
 62
4
100
AcDbLine
 10
293.9215272086398
 20
252.3608391575278
 30
0.0000000000000000
 11
294.5215272324786
 21
250.3608391575268
 31
0.0000000000000000
  0
MTEXT
  5
52B
100
AcDbEntity
  8
A0
  6
CONTINUOUS
 62
4
100
AcDbMText
 10
293.4215272085600
 20
236.2202407450809
 30
0.0000000000000000
 40
3.099999904632568
 41
0.0000000000000000
 44
0.7741935722041460
 71
     8
 72
     1
  1
{\U+220526}
 11
6.123233995736766e-017
 21
1.000000000000000
 31
0.0000000000000000
  7
STANDARD
  0
MTEXT
  5
52C
100
AcDbEntity
  8
A0
  6
CONTINUOUS
 62
4
100
AcDbMText
 10
293.2715272324121
 20
242.7952408337430
 30
0.0000000000000000
 40
2.799999952316284
 41
0.0000000000000000
 44
0.7500000127724241
 71
     8
 72
     1
  1
{\U+00B10.2}
 11
6.123233995736766e-017
 21
1.000000000000000
 31
0.0000000000000000
  7
STANDARD
  0
LINE
  5
52D
100
AcDbEntity
  8
A0
  6
CONTINUOUS
 62
4
100
AcDbLine
 10
275.3814416726701
 20
252.3608391575568
 30
0.0000000000000000
 11
295.9215272086398
 21
252.3608391575246
 31
0.0000000000000000
  0
LINE
  5
52E
100
AcDbEntity
  8
A0
  6
CONTINUOUS
 62
4
100
AcDbLine
 10
299.4215272086545
 20
245.2908246190658
 30
0.0000000000000000
 11
299.4215272086234
 21
225.3608391575185
 31
0.0000000000000000
  0
LINE
  5
52F
100
AcDbEntity
  8
A0
  6
CONTINUOUS
 62
4
100
AcDbLine
 10
300.0215272324684
 20
227.3608391575176
 30
0.0000000000000000
 11
299.4215272086234
 21
225.3608391575185
 31
0.0000000000000000
  0
LINE
  5
530
100
AcDbEntity
  8
A0
  6
CONTINUOUS
 62
4
100
AcDbLine
 10
299.4215272086234
 20
225.3608391575185
 30
0.0000000000000000
 11
298.8215271847847
 21
227.3608391575195
 31
0.0000000000000000
  0
MTEXT
  5
531
100
AcDbEntity
  8
A0
  6
CONTINUOUS
 62
4
100
AcDbMText
 10
298.9215272085846
 20
235.5408239929598
 30
0.0000000000000000
 40
3.099999904632568
 41
0.0000000000000000
 44
0.7741935722041460
 71
     8
 72
     1
  1
{\U+220528}
 11
6.123233995736766e-017
 21
1.000000000000000
 31
0.0000000000000000
  7
STANDARD
  0
MTEXT
  5
532
100
AcDbEntity
  8
A0
  6
CONTINUOUS
 62
4
100
AcDbMText
 10
298.7715272324368
 20
242.1158240816220
 30
0.0000000000000000
 40
2.799999952316284
 41
0.0000000000000000
 44
0.7500000127724241
 71
     8
 72
     1
  1
{\U+00B10.2}
 11
6.123233995736766e-017
 21
1.000000000000000
 31
0.0000000000000000
  7
STANDARD
  0
LINE
  5
533
100
AcDbEntity
  8
A0
  6
CONTINUOUS
 62
4
100
AcDbLine
 10
274.9174010531290
 20
225.3608391575569
 30
0.0000000000000000
 11
301.4215272086234
 21
225.3608391575154
 31
0.0000000000000000
  0
LINE
  5
534
100
AcDbEntity
  8
A0
  6
CONTINUOUS
 62
4
100
AcDbLine
 10
273.2215272205576
 20
256.0608391575581
 30
0.0000000000000000
 11
290.4215272086367
 21
256.0608391575581
 31
0.0000000000000000
  0
LINE
  5
535
100
AcDbEntity
  8
A0
  6
CONTINUOUS
 62
4
100
AcDbLine
 10
288.4215272086367
 20
259.0608391575581
 30
0.0000000000000000
 11
288.4215272086367
 21
231.0359974674946
 31
0.0000000000000000
  0
LINE
  5
536
100
AcDbEntity
  8
A0
  6
CONTINUOUS
 62
4
100
AcDbLine
 10
289.0215272324786
 20
258.0608391575581
 30
0.0000000000000000
 11
288.4215272086367
 21
256.0608391575581
 31
0.0000000000000000
  0
LINE
  5
537
100
AcDbEntity
  8
A0
  6
CONTINUOUS
 62
4
100
AcDbLine
 10
288.4215272086367
 20
256.0608391575581
 30
0.0000000000000000
 11
287.8215271847948
 21
258.0608391575581
 31
0.0000000000000000
  0
LINE
  5
538
100
AcDbEntity
  8
A0
  6
CONTINUOUS
 62
4
100
AcDbLine
 10
289.0215272324786
 20
246.6608391575581
 30
0.0000000000000000
 11
288.4215272086367
 21
248.6608391575581
 31
0.0000000000000000
  0
LINE
  5
539
100
AcDbEntity
  8
A0
  6
CONTINUOUS
 62
4
100
AcDbLine
 10
288.4215272086367
 20
248.6608391575581
 30
0.0000000000000000
 11
287.8215271847948
 21
246.6608391575581
 31
0.0000000000000000
  0
MTEXT
  5
53A
100
AcDbEntity
  8
A0
  6
CONTINUOUS
 62
4
100
AcDbMText
 10
287.9215272086367
 20
234.9859972475515
 30
0.0000000000000000
 40
3.099999904632568
 41
0.0000000000000000
 44
0.7741935722041460
 71
     8
 72
     1
  1
{\U+22057.4}
 11
6.123233995736766e-017
 21
1.000000000000000
 31
0.0000000000000000
  7
STANDARD
  0
MTEXT
  5
53B
100
AcDbEntity
  8
A0
  6
CONTINUOUS
 62
4
100
AcDbMText
 10
285.1215272563204
 20
243.0109973615454
 30
0.0000000000000000
 40
2.799999952316284
 41
0.0000000000000000
 44
0.7500000127724241
 71
     8
 72
     1
  1
{+0.05}
 11
6.123233995736766e-017
 21
1.000000000000000
 31
0.0000000000000000
  7
STANDARD
  0
MTEXT
  5
53C
100
AcDbEntity
  8
A0
  6
CONTINUOUS
 62
4
100
AcDbMText
 10
287.9215272086367
 20
243.4359973734663
 30
0.0000000000000000
 40
2.799999952316284
 41
0.0000000000000000
 44
0.7500000127724241
 71
     8
 72
     1
  1
{ 0   }
 11
6.123233995736766e-017
 21
1.000000000000000
 31
0.0000000000000000
  7
STANDARD
  0
LINE
  5
53D
100
AcDbEntity
  8
A0
  6
CONTINUOUS
 62
4
100
AcDbLine
 10
273.2215272205576
 20
248.6608391575581
 30
0.0000000000000000
 11
290.4215272086367
 21
248.6608391575581
 31
0.0000000000000000
  0
LINE
  5
53E
100
AcDbEntity
  8
A0
  6
CONTINUOUS
 62
4
100
AcDbLine
 10
271.4215272086366
 20
256.8608391694791
 30
0.0000000000000000
 11
271.4215272086366
 21
272.8591687213182
 31
0.0000000000000000
  0
LINE
  5
53F
100
AcDbEntity
  8
A0
  6
CONTINUOUS
 62
4
100
AcDbLine
 10
268.4215272086366
 20
270.8591687213182
 30
0.0000000000000000
 11
283.0825236457094
 21
270.8591687213182
 31
0.0000000000000000
  0
LINE
  5
540
100
AcDbEntity
  8
A0
  6
CONTINUOUS
 62
4
100
AcDbLine
 10
269.4215272086366
 20
271.4591687451600
 30
0.0000000000000000
 11
271.4215272086366
 21
270.8591687213182
 31
0.0000000000000000
  0
LINE
  5
541
100
AcDbEntity
  8
A0
  6
CONTINUOUS
 62
4
100
AcDbLine
 10
271.4215272086366
 20
270.8591687213182
 30
0.0000000000000000
 11
269.4215272086366
 21
270.2591686974763
 31
0.0000000000000000
  0
LINE
  5
542
100
AcDbEntity
  8
A0
  6
CONTINUOUS
 62
4
100
AcDbLine
 10
274.4215272086366
 20
271.4591687451600
 30
0.0000000000000000
 11
272.4215272086366
 21
270.8591687213182
 31
0.0000000000000000
  0
LINE
  5
543
100
AcDbEntity
  8
A0
  6
CONTINUOUS
 62
4
100
AcDbLine
 10
272.4215272086366
 20
270.8591687213182
 30
0.0000000000000000
 11
274.4215272086366
 21
270.2591686974763
 31
0.0000000000000000
  0
MTEXT
  5
544
100
AcDbEntity
  8
A0
  6
CONTINUOUS
 62
4
100
AcDbMText
 10
275.6825232469200
 20
271.3591687213182
 30
0.0000000000000000
 40
3.099999904632568
 41
0.0000000000000000
 44
0.7741935722041460
 71
     8
 72
     1
  1
{\H0.67x;{1}}
 11
1.000000000000000
 21
0.0000000000000000
 31
0.0000000000000000
  7
STANDARD
  0
MTEXT
  5
545
100
AcDbEntity
  8
A0
  6
CONTINUOUS
 62
4
100
AcDbMText
 10
278.5325232968389
 20
274.1591686736344
 30
0.0000000000000000
 40
2.799999952316284
 41
0.0000000000000000
 44
0.7500000127724241
 71
     8
 72
     1
  1
{ 0}
 11
1.000000000000000
 21
0.0000000000000000
 31
0.0000000000000000
  7
STANDARD
  0
MTEXT
  5
546
100
AcDbEntity
  8
A0
  6
CONTINUOUS
 62
4
100
AcDbMText
 10
279.9075233340918
 20
271.3591687213182
 30
0.0000000000000000
 40
2.799999952316284
 41
0.0000000000000000
 44
0.7500000127724241
 71
     8
 72
     1
  1
{-0.1}
 11
1.000000000000000
 21
0.0000000000000000
 31
0.0000000000000000
  7
STANDARD
  0
LINE
  5
547
100
AcDbEntity
  8
A0
  6
CONTINUOUS
 62
4
100
AcDbLine
 10
272.4215272086366
 20
258.1608391694790
 30
0.0000000000000000
 11
272.4215272086366
 21
272.8591687213182
 31
0.0000000000000000
  0
LINE
  5
548
100
AcDbEntity
  8
A0
  6
CONTINUOUS
 62
4
100
AcDbLine
 10
244.9038369095813
 20
219.3608391576580
 30
0.0000000000000000
 11
231.8907810052006
 21
219.3608391576580
 31
0.0000000000000000
  0
LINE
  5
549
100
AcDbEntity
  8
A0
  6
CONTINUOUS
 62
4
100
AcDbLine
 10
233.8907810052006
 20
219.3608391576580
 30
0.0000000000000000
 11
233.8907810052006
 21
259.3608391576577
 31
0.0000000000000000
  0
LINE
  5
54A
100
AcDbEntity
  8
A0
  6
CONTINUOUS
 62
4
100
AcDbLine
 10
233.2907809813587
 20
221.3608391576580
 30
0.0000000000000000
 11
233.8907810052006
 21
219.3608391576580
 31
0.0000000000000000
  0
LINE
  5
54B
100
AcDbEntity
  8
A0
  6
CONTINUOUS
 62
4
100
AcDbLine
 10
233.8907810052006
 20
219.3608391576580
 30
0.0000000000000000
 11
234.4907810290424
 21
221.3608391576580
 31
0.0000000000000000
  0
LINE
  5
54C
100
AcDbEntity
  8
A0
  6
CONTINUOUS
 62
4
100
AcDbLine
 10
233.2907809813587
 20
257.3608391576577
 30
0.0000000000000000
 11
233.8907810052006
 21
259.3608391576577
 31
0.0000000000000000
  0
LINE
  5
54D
100
AcDbEntity
  8
A0
  6
CONTINUOUS
 62
4
100
AcDbLine
 10
233.8907810052006
 20
259.3608391576577
 30
0.0000000000000000
 11
234.4907810290424
 21
257.3608391576577
 31
0.0000000000000000
  0
MTEXT
  5
54E
100
AcDbEntity
  8
A0
  6
CONTINUOUS
 62
4
100
AcDbMText
 10
233.3907810052006
 20
239.3608391576578
 30
0.0000000000000000
 40
3.099999904632568
 41
0.0000000000000000
 44
0.7741935722041460
 71
     8
 72
     1
  1
{（\U+220540）}
 11
6.123233995736766e-017
 21
1.000000000000000
 31
0.0000000000000000
  7
KNJYOKO
  0
LINE
  5
54F
100
AcDbEntity
  8
A0
  6
CONTINUOUS
 62
4
100
AcDbLine
 10
244.9038369095813
 20
259.3608391576577
 30
0.0000000000000000
 11
231.8907810052006
 21
259.3608391576577
 31
0.0000000000000000
  0
LINE
  5
550
100
AcDbEntity
  8
A0
  6
CONTINUOUS
 62
4
100
AcDbLine
 10
277.4215272086367
 20
208.9994142615801
 30
0.0000000000000000
 11
277.4215272086367
 21
207.4149063539858
 31
0.0000000000000000
  0
LINE
  5
551
100
AcDbEntity
  8
A0
  6
CONTINUOUS
 62
4
100
AcDbLine
 10
280.4215272086367
 20
209.4149063539858
 30
0.0000000000000000
 11
272.4215272086367
 21
209.4149063539858
 31
0.0000000000000000
  0
LINE
  5
552
100
AcDbEntity
  8
A0
  6
CONTINUOUS
 62
4
100
AcDbLine
 10
279.4215272086367
 20
208.8149063301439
 30
0.0000000000000000
 11
277.4215272086367
 21
209.4149063539858
 31
0.0000000000000000
  0
LINE
  5
553
100
AcDbEntity
  8
A0
  6
CONTINUOUS
 62
4
100
AcDbLine
 10
277.4215272086367
 20
209.4149063539858
 30
0.0000000000000000
 11
279.4215272086367
 21
210.0149063778276
 31
0.0000000000000000
  0
POLYLINE
  5
554
100
AcDbEntity
  8
A0
  6
CONTINUOUS
 62
4
100
AcDb2dPolyline
 66
     1
 10
0.0000000000000000
 20
0.0000000000000000
 30
0.0000000000000000
 70
     1
 40
0.5000000000000000
 41
0.5000000000000000
  0
VERTEX
  5
555
100
AcDbEntity
  8
A0
  6
CONTINUOUS
 62
4
100
AcDbVertex
100
AcDb2dVertex
 10
272.6715272086367
 20
209.4149063539858
 30
0.0000000000000000
 42
1.000000000000000
  0
VERTEX
  5
556
100
AcDbEntity
  8
A0
  6
CONTINUOUS
 62
4
100
AcDbVertex
100
AcDb2dVertex
 10
272.1715272086367
 20
209.4149063539858
 30
0.0000000000000000
 42
1.000000000000000
  0
SEQEND
  5
557
100
AcDbEntity
  8
A0
  6
CONTINUOUS
 62
4
  0
MTEXT
  5
558
100
AcDbEntity
  8
A0
  6
CONTINUOUS
 62
4
100
AcDbMText
 10
274.9215272086367
 20
209.9149063539858
 30
0.0000000000000000
 40
3.099999904632568
 41
0.0000000000000000
 44
0.7741935722041460
 71
     8
 72
     1
  1
{\H0.67x;{5}}
 11
1.000000000000000
 21
0.0000000000000000
 31
0.0000000000000000
  7
STANDARD
  0
LINE
  5
559
100
AcDbEntity
  8
A0
  6
CONTINUOUS
 62
4
100
AcDbLine
 10
272.4215272086367
 20
220.5608391456372
 30
0.0000000000000000
 11
272.4215272086367
 21
207.4149063539858
 31
0.0000000000000000
  0
LINE
  5
55A
100
AcDbEntity
  8
A0
  6
CONTINUOUS
 62
4
100
AcDbLine
 10
272.4215272086367
 20
209.4149063539858
 30
0.0000000000000000
 11
265.4215272086366
 21
209.4149063539858
 31
0.0000000000000000
  0
POLYLINE
  5
55B
100
AcDbEntity
  8
A0
  6
CONTINUOUS
 62
4
100
AcDb2dPolyline
 66
     1
 10
0.0000000000000000
 20
0.0000000000000000
 30
0.0000000000000000
 70
     1
 40
0.5000000000000000
 41
0.5000000000000000
  0
VERTEX
  5
55C
100
AcDbEntity
  8
A0
  6
CONTINUOUS
 62
4
100
AcDbVertex
100
AcDb2dVertex
 10
272.6715272086367
 20
209.4149063539858
 30
0.0000000000000000
 42
1.000000000000000
  0
VERTEX
  5
55D
100
AcDbEntity
  8
A0
  6
CONTINUOUS
 62
4
100
AcDbVertex
100
AcDb2dVertex
 10
272.1715272086367
 20
209.4149063539858
 30
0.0000000000000000
 42
1.000000000000000
  0
SEQEND
  5
55E
100
AcDbEntity
  8
A0
  6
CONTINUOUS
 62
4
  0
LINE
  5
55F
100
AcDbEntity
  8
A0
  6
CONTINUOUS
 62
4
100
AcDbLine
 10
266.4215272086366
 20
208.8149063301439
 30
0.0000000000000000
 11
268.4215272086366
 21
209.4149063539858
 31
0.0000000000000000
  0
LINE
  5
560
100
AcDbEntity
  8
A0
  6
CONTINUOUS
 62
4
100
AcDbLine
 10
268.4215272086366
 20
209.4149063539858
 30
0.0000000000000000
 11
266.4215272086366
 21
210.0149063778276
 31
0.0000000000000000
  0
MTEXT
  5
561
100
AcDbEntity
  8
A0
  6
CONTINUOUS
 62
4
100
AcDbMText
 10
270.4215272086367
 20
209.9149063539858
 30
0.0000000000000000
 40
3.099999904632568
 41
0.0000000000000000
 44
0.7741935722041460
 71
     8
 72
     1
  1
{\H0.67x;{4}}
 11
1.000000000000000
 21
0.0000000000000000
 31
0.0000000000000000
  7
STANDARD
  0
LINE
  5
562
100
AcDbEntity
  8
A0
  6
CONTINUOUS
 62
4
100
AcDbLine
 10
268.4215272086366
 20
220.5608391456373
 30
0.0000000000000000
 11
268.4215272086366
 21
207.4149063539858
 31
0.0000000000000000
  0
LINE
  5
563
100
AcDbEntity
  8
A0
  6
CONTINUOUS
 62
4
100
AcDbLine
 10
277.6215272204443
 20
214.3608391576424
 30
0.0000000000000000
 11
317.9215272086367
 21
214.3608391576424
 31
0.0000000000000000
  0
LINE
  5
564
100
AcDbEntity
  8
A0
  6
CONTINUOUS
 62
4
100
AcDbLine
 10
315.9215272086367
 20
214.3608391576424
 30
0.0000000000000000
 11
315.9215272086367
 21
264.3608391576283
 31
0.0000000000000000
  0
LINE
  5
565
100
AcDbEntity
  8
A0
  6
CONTINUOUS
 62
4
100
AcDbLine
 10
315.3215271847948
 20
216.3608391576424
 30
0.0000000000000000
 11
315.9215272086367
 21
214.3608391576424
 31
0.0000000000000000
  0
LINE
  5
566
100
AcDbEntity
  8
A0
  6
CONTINUOUS
 62
4
100
AcDbLine
 10
315.9215272086367
 20
214.3608391576424
 30
0.0000000000000000
 11
316.5215272324786
 21
216.3608391576424
 31
0.0000000000000000
  0
LINE
  5
567
100
AcDbEntity
  8
A0
  6
CONTINUOUS
 62
4
100
AcDbLine
 10
315.3215271847948
 20
262.3608391576283
 30
0.0000000000000000
 11
315.9215272086367
 21
264.3608391576283
 31
0.0000000000000000
  0
LINE
  5
568
100
AcDbEntity
  8
A0
  6
CONTINUOUS
 62
4
100
AcDbLine
 10
315.9215272086367
 20
264.3608391576283
 30
0.0000000000000000
 11
316.5215272324786
 21
262.3608391576283
 31
0.0000000000000000
  0
MTEXT
  5
569
100
AcDbEntity
  8
A0
  6
CONTINUOUS
 62
4
100
AcDbMText
 10
315.4215272086367
 20
239.3608391576354
 30
0.0000000000000000
 40
3.099999904632568
 41
0.0000000000000000
 44
0.7741935722041460
 71
     8
 72
     1
  1
{\U+220550H7}
 11
6.123233995736766e-017
 21
1.000000000000000
 31
0.0000000000000000
  7
STANDARD
  0
LINE
  5
56A
100
AcDbEntity
  8
A0
  6
CONTINUOUS
 62
4
100
AcDbLine
 10
277.6215272204444
 20
264.3608391576283
 30
0.0000000000000000
 11
317.9215272086367
 21
264.3608391576283
 31
0.0000000000000000
  0
LINE
  5
56B
100
AcDbEntity
  8
A0
  6
CONTINUOUS
 62
4
100
AcDbLine
 10
267.7215272206212
 20
258.8608391575581
 30
0.0000000000000000
 11
312.4215272086367
 21
258.8608391575581
 31
0.0000000000000000
  0
LINE
  5
56C
100
AcDbEntity
  8
A0
  6
CONTINUOUS
 62
4
100
AcDbLine
 10
310.4215272086367
 20
258.8608391575581
 30
0.0000000000000000
 11
310.4215272086367
 21
219.8608391575581
 31
0.0000000000000000
  0
LINE
  5
56D
100
AcDbEntity
  8
A0
  6
CONTINUOUS
 62
4
100
AcDbLine
 10
311.0215272324786
 20
256.8608391575581
 30
0.0000000000000000
 11
310.4215272086367
 21
258.8608391575581
 31
0.0000000000000000
  0
LINE
  5
56E
100
AcDbEntity
  8
A0
  6
CONTINUOUS
 62
4
100
AcDbLine
 10
310.4215272086367
 20
258.8608391575581
 30
0.0000000000000000
 11
309.8215271847948
 21
256.8608391575581
 31
0.0000000000000000
  0
LINE
  5
56F
100
AcDbEntity
  8
A0
  6
CONTINUOUS
 62
4
100
AcDbLine
 10
311.0215272324786
 20
221.8608391575581
 30
0.0000000000000000
 11
310.4215272086367
 21
219.8608391575581
 31
0.0000000000000000
  0
LINE
  5
570
100
AcDbEntity
  8
A0
  6
CONTINUOUS
 62
4
100
AcDbLine
 10
310.4215272086367
 20
219.8608391575581
 30
0.0000000000000000
 11
309.8215271847948
 21
221.8608391575581
 31
0.0000000000000000
  0
MTEXT
  5
571
100
AcDbEntity
  8
A0
  6
CONTINUOUS
 62
4
100
AcDbMText
 10
309.9215272086367
 20
239.3608391575581
 30
0.0000000000000000
 40
3.099999904632568
 41
0.0000000000000000
 44
0.7741935722041460
 71
     8
 72
     1
  1
{\U+220539}
 11
6.123233995736766e-017
 21
1.000000000000000
 31
0.0000000000000000
  7
STANDARD
  0
LINE
  5
572
100
AcDbEntity
  8
A0
  6
CONTINUOUS
 62
4
100
AcDbLine
 10
267.7215272206996
 20
219.8608391575581
 30
0.0000000000000000
 11
312.4215272086367
 21
219.8608391575581
 31
0.0000000000000000
  0
POINT
  5
573
100
AcDbEntity
  8
A0
  6
CONTINUOUS
 62
5
100
AcDbPoint
 10
359.8245775585413
 20
234.8608391576129
 30
0.0000000000000000
  0
LINE
  5
574
100
AcDbEntity
  8
A0
  6
CONTINUOUS
 62
4
100
AcDbLine
 10
334.2533777439878
 20
252.6932337993720
 30
0.0000000000000000
 11
372.2385768415344
 21
232.8883881688571
 31
0.0000000000000000
  0
LINE
  5
575
100
AcDbEntity
  8
A0
  6
CONTINUOUS
 62
4
100
AcDbLine
 10
349.4613975122307
 20
245.4406828526728
 30
0.0000000000000000
 11
347.4105782755482
 21
245.8332901463687
 31
0.0000000000000000
  0
LINE
  5
576
100
AcDbEntity
  8
A0
  6
CONTINUOUS
 62
4
100
AcDbLine
 10
347.4105782755482
 20
245.8332901463687
 30
0.0000000000000000
 11
348.9066159768637
 21
244.3766257289915
 31
0.0000000000000000
  0
LINE
  5
577
100
AcDbEntity
  8
A0
  6
CONTINUOUS
 62
4
100
AcDbLine
 10
370.7425391402189
 20
234.3450525862342
 30
0.0000000000000000
 11
372.2385768415344
 21
232.8883881688571
 31
0.0000000000000000
  0
LINE
  5
578
100
AcDbEntity
  8
A0
  6
CONTINUOUS
 62
4
100
AcDbLine
 10
372.2385768415344
 20
232.8883881688571
 30
0.0000000000000000
 11
370.1877576048519
 21
233.2809954625530
 31
0.0000000000000000
  0
MTEXT
  5
579
100
AcDbEntity
  8
A0
  6
CONTINUOUS
 62
4
100
AcDbMText
 10
337.4993647170925
 20
251.5647101645468
 30
0.0000000000000000
 40
3.099999904632568
 41
0.0000000000000000
 44
0.7741935722041460
 71
     8
 72
     1
  1
{\U+220528}
 11
0.8867142344995096
 21
-0.4623179277682715
 31
0.0000000000000000
  7
STANDARD
  0
POINT
  5
57A
100
AcDbEntity
  8
A0
  6
CONTINUOUS
 62
5
100
AcDbPoint
 10
364.3245775585413
 20
239.3608391576129
 30
0.0000000000000000
  0
POINT
  5
57B
100
AcDbEntity
  8
A0
  6
CONTINUOUS
 62
5
100
AcDbPoint
 10
359.8245775585413
 20
243.8608391576129
 30
0.0000000000000000
  0
POINT
  5
57C
100
AcDbEntity
  8
A0
  6
CONTINUOUS
 62
5
100
AcDbPoint
 10
355.3245775585413
 20
239.3608391576129
 30
0.0000000000000000
  0
LINE
  5
57D
100
AcDbEntity
  8
A0
  6
CONTINUOUS
 62
4
100
AcDbLine
 10
277.4215272086367
 20
208.9994142615801
 30
0.0000000000000000
 11
277.4215272086367
 21
201.1830490639188
 31
0.0000000000000000
  0
LINE
  5
57E
100
AcDbEntity
  8
A0
  6
CONTINUOUS
 62
4
100
AcDbLine
 10
277.4215272086367
 20
203.1830490639188
 30
0.0000000000000000
 11
267.9215272106914
 21
203.1830490639188
 31
0.0000000000000000
  0
LINE
  5
57F
100
AcDbEntity
  8
A0
  6
CONTINUOUS
 62
4
100
AcDbLine
 10
275.4215272086367
 20
202.5830490400770
 30
0.0000000000000000
 11
277.4215272086367
 21
203.1830490639188
 31
0.0000000000000000
  0
LINE
  5
580
100
AcDbEntity
  8
A0
  6
CONTINUOUS
 62
4
100
AcDbLine
 10
277.4215272086367
 20
203.1830490639188
 30
0.0000000000000000
 11
275.4215272086367
 21
203.7830490877607
 31
0.0000000000000000
  0
LINE
  5
581
100
AcDbEntity
  8
A0
  6
CONTINUOUS
 62
4
100
AcDbLine
 10
269.9215272106914
 20
202.5830490400770
 30
0.0000000000000000
 11
267.9215272106914
 21
203.1830490639188
 31
0.0000000000000000
  0
LINE
  5
582
100
AcDbEntity
  8
A0
  6
CONTINUOUS
 62
4
100
AcDbLine
 10
267.9215272106914
 20
203.1830490639188
 30
0.0000000000000000
 11
269.9215272106914
 21
203.7830490877607
 31
0.0000000000000000
  0
MTEXT
  5
583
100
AcDbEntity
  8
A0
  6
CONTINUOUS
 62
4
100
AcDbMText
 10
272.6715272096641
 20
203.6830490639188
 30
0.0000000000000000
 40
3.099999904632568
 41
0.0000000000000000
 44
0.7741935722041460
 71
     8
 72
     1
  1
{\H0.58x;{9.5}}
 11
1.000000000000000
 21
0.0000000000000000
 31
0.0000000000000000
  7
STANDARD
  0
LINE
  5
584
100
AcDbEntity
  8
A0
  6
CONTINUOUS
 62
4
100
AcDbLine
 10
267.9215272106914
 20
214.4845995765232
 30
0.0000000000000000
 11
267.9215272106914
 21
201.1830490639188
 31
0.0000000000000000
  0
MTEXT
  5
585
100
AcDbEntity
  8
A0
  6
CONTINUOUS
 62
3
100
AcDbMText
 10
333.5102863332913
 20
211.2591396372825
 30
0.0000000000000000
 40
4.000000000000000
 41
0.0000000000000000
 44
0.6749999999999999
 71
     1
 72
     1
  1
{\H0.94x;{ポ－ト接続部詳細 \P}
 11
1.000000000000000
 21
0.0000000000000000
 31
0.0000000000000000
  7
KNJYOKO
  0
MTEXT
  5
586
100
AcDbEntity
  8
A0
  6
CONTINUOUS
 62
4
100
AcDbMText
 10
370.3644126053367
 20
210.5680849209730
 30
0.0000000000000000
 40
3.099999904632568
 41
0.0000000000000000
 44
0.6677419652551825
 71
     1
 72
     1
  1
{\H0.92x;{(S=1:1)}}
 11
1.000000000000000
 21
0.0000000000000000
 31
0.0000000000000000
  7
STANDARD
  0
LINE
  5
587
100
AcDbEntity
  8
A0
  6
CONTINUOUS
 62
4
100
AcDbLine
 10
330.3877819080593
 20
206.3610808560840
 30
0.0000000000000000
 11
391.8147019585036
 21
206.3610808560840
 31
0.0000000000000000
  0
MTEXT
  5
588
100
AcDbEntity
  8
A0
  6
CONTINUOUS
 62
4
100
AcDbMText
 10
335.5964543365955
 20
205.3669300220566
 30
0.0000000000000000
 40
3.099999904632568
 41
0.0000000000000000
 44
0.6677419652551825
 71
     1
 72
     1
  1
{\H0.94x;{CONNECT WITH PORTS}}
 11
1.000000000000000
 21
0.0000000000000000
 31
0.0000000000000000
  7
STANDARD
  0
LINE
  5
589
100
AcDbEntity
  8
A0
  6
PHANTOM
 62
4
100
AcDbLine
 10
245.7038369215022
 20
259.3608391576577
 30
0.0000000000000000
 11
266.9215272106914
 21
259.3608391576577
 31
0.0000000000000000
  0
LINE
  5
58A
100
AcDbEntity
  8
A0
  6
PHANTOM
 62
4
100
AcDbLine
 10
267.9215272106918
 20
260.3608391576578
 30
0.0000000000000000
 11
266.9215272106919
 21
259.3608391576580
 31
0.0000000000000000
  0
LINE
  5
58B
100
AcDbEntity
  8
A0
  6
PHANTOM
 62
4
100
AcDbLine
 10
267.9215272106914
 20
260.3608391576579
 30
0.0000000000000000
 11
267.9215272106914
 21
263.4370787270789
 31
0.0000000000000000
  0
LINE
  5
58C
100
AcDbEntity
  8
A0
  6
PHANTOM
 62
4
100
AcDbLine
 10
266.3215272107224
 20
264.3608391577622
 30
0.0000000000000000
 11
267.9215272106909
 21
263.4370787270799
 31
0.0000000000000000
  0
LINE
  5
58D
100
AcDbEntity
  8
A0
  6
PHANTOM
 62
4
100
AcDbLine
 10
266.3215272107228
 20
264.3608391577616
 30
0.0000000000000000
 11
245.7038369215022
 21
264.3608391577616
 31
0.0000000000000000
  0
LINE
  5
58E
100
AcDbEntity
  8
A0
  6
PHANTOM
 62
4
100
AcDbLine
 10
266.3215272105237
 20
214.3608391577888
 30
0.0000000000000000
 11
245.7038369214734
 21
214.3608391579074
 31
0.0000000000000000
  0
LINE
  5
58F
100
AcDbEntity
  8
A0
  6
PHANTOM
 62
4
100
AcDbLine
 10
266.3215272105231
 20
214.3608391577885
 30
0.0000000000000000
 11
267.9215272105000
 21
215.2845995884583
 31
0.0000000000000000
  0
LINE
  5
590
100
AcDbEntity
  8
A0
  6
PHANTOM
 62
4
100
AcDbLine
 10
267.9215272106914
 20
215.2845995884441
 30
0.0000000000000000
 11
267.9215272106914
 21
218.3608391576585
 31
0.0000000000000000
  0
LINE
  5
591
100
AcDbEntity
  8
A0
  6
PHANTOM
 62
4
100
AcDbLine
 10
267.9215272106919
 20
218.3608391576584
 30
0.0000000000000000
 11
266.9215272106919
 21
219.3608391576584
 31
0.0000000000000000
  0
LINE
  5
592
100
AcDbEntity
  8
A0
  6
PHANTOM
 62
4
100
AcDbLine
 10
245.7038369215022
 20
219.3608391576580
 30
0.0000000000000000
 11
266.9215272106914
 21
219.3608391576580
 31
0.0000000000000000
  0
LINE
  5
593
100
AcDbEntity
  8
A0
  6
PHANTOM
 62
4
100
AcDbLine
 10
267.9215272106914
 20
264.3608391576481
 30
0.0000000000000000
 11
276.8215272085234
 21
264.3608391576283
 31
0.0000000000000000
  0
LINE
  5
594
100
AcDbEntity
  8
A0
  6
PHANTOM
 62
4
100
AcDbLine
 10
276.8215272085232
 20
264.3608391576281
 30
0.0000000000000000
 11
277.4215272085237
 21
264.9608391576271
 31
0.0000000000000000
  0
LINE
  5
595
100
AcDbEntity
  8
A0
  6
PHANTOM
 62
4
100
AcDbLine
 10
267.9215272106914
 20
214.3608391576225
 30
0.0000000000000000
 11
276.8215272085234
 21
214.3608391576424
 31
0.0000000000000000
  0
LINE
  5
596
100
AcDbEntity
  8
A0
  6
PHANTOM
 62
4
100
AcDbLine
 10
276.8215272085243
 20
214.3608391576426
 30
0.0000000000000000
 11
277.4215272085243
 21
213.7608391576437
 31
0.0000000000000000
  0
LINE
  5
597
100
AcDbEntity
  8
A0
  6
PHANTOM
 62
4
100
AcDbLine
 10
277.4215272086367
 20
209.7994142735010
 30
0.0000000000000000
 11
277.4215272086367
 21
269.0628654766407
 31
0.0000000000000000
  0
CIRCLE
  5
598
100
AcDbEntity
  8
A0
  6
CONTINUOUS
 62
4
100
AcDbCircle
 10
359.8245775585413
 20
234.8608391576129
 30
0.0000000000000000
 40
2.500000000000000
  0
CIRCLE
  5
599
100
AcDbEntity
  8
A0
  6
CONTINUOUS
 62
4
100
AcDbCircle
 10
359.8245775585413
 20
234.8608391576129
 30
0.0000000000000000
 40
2.066987200000000
  0
LINE
  5
59A
100
AcDbEntity
  8
A0
  6
CONTINUOUS
 62
4
100
AcDbLine
 10
359.8245775585413
 20
236.3042148305869
 30
0.0000000000000000
 11
358.5745775585413
 21
235.5825269940999
 31
0.0000000000000000
  0
LINE
  5
59B
100
AcDbEntity
  8
A0
  6
CONTINUOUS
 62
4
100
AcDbLine
 10
358.5745775585413
 20
235.5825269940999
 30
0.0000000000000000
 11
358.5745775585413
 21
234.1391513211258
 31
0.0000000000000000
  0
LINE
  5
59C
100
AcDbEntity
  8
A0
  6
CONTINUOUS
 62
4
100
AcDbLine
 10
358.5745775585413
 20
234.1391513211258
 30
0.0000000000000000
 11
359.8245775585413
 21
233.4174634846388
 31
0.0000000000000000
  0
LINE
  5
59D
100
AcDbEntity
  8
A0
  6
CONTINUOUS
 62
4
100
AcDbLine
 10
359.8245775585413
 20
233.4174634846388
 30
0.0000000000000000
 11
361.0745775585413
 21
234.1391513211258
 31
0.0000000000000000
  0
LINE
  5
59E
100
AcDbEntity
  8
A0
  6
CONTINUOUS
 62
4
100
AcDbLine
 10
361.0745775585413
 20
234.1391513211258
 30
0.0000000000000000
 11
361.0745775585413
 21
235.5825269940999
 31
0.0000000000000000
  0
LINE
  5
59F
100
AcDbEntity
  8
A0
  6
CONTINUOUS
 62
4
100
AcDbLine
 10
361.0745775585413
 20
235.5825269940999
 30
0.0000000000000000
 11
359.8245775585413
 21
236.3042148305869
 31
0.0000000000000000
  0
LINE
  5
5A0
100
AcDbEntity
  8
A0
  6
CONTINUOUS
 62
4
100
AcDbLine
 10
365.7679532315154
 20
239.3608391576129
 30
0.0000000000000000
 11
365.0462653950283
 21
240.6108391576129
 31
0.0000000000000000
  0
LINE
  5
5A1
100
AcDbEntity
  8
A0
  6
CONTINUOUS
 62
4
100
AcDbLine
 10
365.0462653950283
 20
240.6108391576129
 30
0.0000000000000000
 11
363.6028897220543
 21
240.6108391576129
 31
0.0000000000000000
  0
LINE
  5
5A2
100
AcDbEntity
  8
A0
  6
CONTINUOUS
 62
4
100
AcDbLine
 10
363.6028897220543
 20
240.6108391576129
 30
0.0000000000000000
 11
362.8812018855672
 21
239.3608391576129
 31
0.0000000000000000
  0
LINE
  5
5A3
100
AcDbEntity
  8
A0
  6
CONTINUOUS
 62
4
100
AcDbLine
 10
362.8812018855672
 20
239.3608391576129
 30
0.0000000000000000
 11
363.6028897220543
 21
238.1108391576129
 31
0.0000000000000000
  0
LINE
  5
5A4
100
AcDbEntity
  8
A0
  6
CONTINUOUS
 62
4
100
AcDbLine
 10
363.6028897220543
 20
238.1108391576129
 30
0.0000000000000000
 11
365.0462653950283
 21
238.1108391576129
 31
0.0000000000000000
  0
LINE
  5
5A5
100
AcDbEntity
  8
A0
  6
CONTINUOUS
 62
4
100
AcDbLine
 10
365.0462653950283
 20
238.1108391576129
 30
0.0000000000000000
 11
365.7679532315154
 21
239.3608391576129
 31
0.0000000000000000
  0
CIRCLE
  5
5A6
100
AcDbEntity
  8
A0
  6
CONTINUOUS
 62
4
100
AcDbCircle
 10
364.3245775585413
 20
239.3608391576129
 30
0.0000000000000000
 40
2.066987200000000
  0
CIRCLE
  5
5A7
100
AcDbEntity
  8
A0
  6
CONTINUOUS
 62
4
100
AcDbCircle
 10
364.3245775585413
 20
239.3608391576129
 30
0.0000000000000000
 40
2.500000000000000
  0
LINE
  5
5A8
100
AcDbEntity
  8
A0
  6
CONTINUOUS
 62
4
100
AcDbLine
 10
359.8245775585413
 20
245.3042148305869
 30
0.0000000000000000
 11
358.5745775585413
 21
244.5825269940999
 31
0.0000000000000000
  0
LINE
  5
5A9
100
AcDbEntity
  8
A0
  6
CONTINUOUS
 62
4
100
AcDbLine
 10
358.5745775585413
 20
244.5825269940999
 30
0.0000000000000000
 11
358.5745775585413
 21
243.1391513211258
 31
0.0000000000000000
  0
LINE
  5
5AA
100
AcDbEntity
  8
A0
  6
CONTINUOUS
 62
4
100
AcDbLine
 10
358.5745775585413
 20
243.1391513211258
 30
0.0000000000000000
 11
359.8245775585413
 21
242.4174634846388
 31
0.0000000000000000
  0
LINE
  5
5AB
100
AcDbEntity
  8
A0
  6
CONTINUOUS
 62
4
100
AcDbLine
 10
359.8245775585413
 20
242.4174634846388
 30
0.0000000000000000
 11
361.0745775585413
 21
243.1391513211258
 31
0.0000000000000000
  0
LINE
  5
5AC
100
AcDbEntity
  8
A0
  6
CONTINUOUS
 62
4
100
AcDbLine
 10
361.0745775585413
 20
243.1391513211258
 30
0.0000000000000000
 11
361.0745775585413
 21
244.5825269940999
 31
0.0000000000000000
  0
LINE
  5
5AD
100
AcDbEntity
  8
A0
  6
CONTINUOUS
 62
4
100
AcDbLine
 10
361.0745775585413
 20
244.5825269940999
 30
0.0000000000000000
 11
359.8245775585413
 21
245.3042148305869
 31
0.0000000000000000
  0
CIRCLE
  5
5AE
100
AcDbEntity
  8
A0
  6
CONTINUOUS
 62
4
100
AcDbCircle
 10
359.8245775585413
 20
243.8608391576129
 30
0.0000000000000000
 40
2.066987200000000
  0
CIRCLE
  5
5AF
100
AcDbEntity
  8
A0
  6
CONTINUOUS
 62
4
100
AcDbCircle
 10
359.8245775585413
 20
243.8608391576129
 30
0.0000000000000000
 40
2.500000000000000
  0
LINE
  5
5B0
100
AcDbEntity
  8
A0
  6
CONTINUOUS
 62
4
100
AcDbLine
 10
353.8812018855672
 20
239.3608391576129
 30
0.0000000000000000
 11
354.6028897220543
 21
238.1108391576129
 31
0.0000000000000000
  0
LINE
  5
5B1
100
AcDbEntity
  8
A0
  6
CONTINUOUS
 62
4
100
AcDbLine
 10
354.6028897220543
 20
238.1108391576129
 30
0.0000000000000000
 11
356.0462653950283
 21
238.1108391576129
 31
0.0000000000000000
  0
LINE
  5
5B2
100
AcDbEntity
  8
A0
  6
CONTINUOUS
 62
4
100
AcDbLine
 10
356.0462653950283
 20
238.1108391576129
 30
0.0000000000000000
 11
356.7679532315154
 21
239.3608391576129
 31
0.0000000000000000
  0
LINE
  5
5B3
100
AcDbEntity
  8
A0
  6
CONTINUOUS
 62
4
100
AcDbLine
 10
356.7679532315154
 20
239.3608391576129
 30
0.0000000000000000
 11
356.0462653950283
 21
240.6108391576129
 31
0.0000000000000000
  0
LINE
  5
5B4
100
AcDbEntity
  8
A0
  6
CONTINUOUS
 62
4
100
AcDbLine
 10
356.0462653950283
 20
240.6108391576129
 30
0.0000000000000000
 11
354.6028897220543
 21
240.6108391576129
 31
0.0000000000000000
  0
LINE
  5
5B5
100
AcDbEntity
  8
A0
  6
CONTINUOUS
 62
4
100
AcDbLine
 10
354.6028897220543
 20
240.6108391576129
 30
0.0000000000000000
 11
353.8812018855672
 21
239.3608391576129
 31
0.0000000000000000
  0
CIRCLE
  5
5B6
100
AcDbEntity
  8
A0
  6
CONTINUOUS
 62
4
100
AcDbCircle
 10
355.3245775585413
 20
239.3608391576129
 30
0.0000000000000000
 40
2.066987200000000
  0
CIRCLE
  5
5B7
100
AcDbEntity
  8
A0
  6
CONTINUOUS
 62
4
100
AcDbCircle
 10
355.3245775585413
 20
239.3608391576129
 30
0.0000000000000000
 40
2.500000000000000
  0
LINE
  5
5B8
100
AcDbEntity
  8
WAKU0
  6
CONTINUOUS
 62
3
100
AcDbLine
 10
240.0000000000000
 20
51.00000000000000
 30
0.0000000000000000
 11
410.0000000000000
 21
51.00000000000000
 31
0.0000000000000000
  0
LINE
  5
5B9
100
AcDbEntity
  8
WAKU0
  6
CONTINUOUS
 62
3
100
AcDbLine
 10
240.0000000000000
 20
51.00000000000000
 30
0.0000000000000000
 11
240.0000000000000
 21
12.00000000000000
 31
0.0000000000000000
  0
LINE
  5
5BA
100
AcDbEntity
  8
WAKU0
  6
CONTINUOUS
 62
4
100
AcDbLine
 10
312.0000000000000
 20
51.00000000000000
 30
0.0000000000000000
 11
312.0000000000000
 21
12.00000000000000
 31
0.0000000000000000
  0
LINE
  5
5BB
100
AcDbEntity
  8
WAKU0
  6
CONTINUOUS
 62
4
100
AcDbLine
 10
332.0000000000000
 20
51.00000000000000
 30
0.0000000000000000
 11
332.0000000000000
 21
12.00000000000000
 31
0.0000000000000000
  0
LINE
  5
5BC
100
AcDbEntity
  8
WAKU0
  6
CONTINUOUS
 62
4
100
AcDbLine
 10
344.0000000000000
 20
51.00000000000000
 30
0.0000000000000000
 11
344.0000000000000
 21
12.00000000000000
 31
0.0000000000000000
  0
LINE
  5
5BD
100
AcDbEntity
  8
WAKU0
  6
CONTINUOUS
 62
4
100
AcDbLine
 10
344.0000000000000
 20
37.00000000000000
 30
0.0000000000000000
 11
410.0000000000000
 21
37.00000000000000
 31
0.0000000000000000
  0
LINE
  5
5BE
100
AcDbEntity
  8
WAKU0
  6
CONTINUOUS
 62
4
100
AcDbLine
 10
332.0000000000000
 20
23.00000000000000
 30
0.0000000000000000
 11
410.0000000000000
 21
23.00000000000000
 31
0.0000000000000000
  0
LINE
  5
5BF
100
AcDbEntity
  8
WAKU0
  6
CONTINUOUS
 62
4
100
AcDbLine
 10
375.0000000000000
 20
51.00000000000000
 30
0.0000000000000000
 11
375.0000000000000
 21
44.00000000000000
 31
0.0000000000000000
  0
LINE
  5
5C0
100
AcDbEntity
  8
WAKU0
  6
CONTINUOUS
 62
4
100
AcDbLine
 10
387.0000000000000
 20
51.00000000000000
 30
0.0000000000000000
 11
387.0000000000000
 21
44.00000000000000
 31
0.0000000000000000
  0
LINE
  5
5C1
100
AcDbEntity
  8
WAKU0
  6
CONTINUOUS
 62
4
100
AcDbLine
 10
312.0000000000000
 20
31.50000000000000
 30
0.0000000000000000
 11
332.0000000000000
 21
31.50000000000000
 31
0.0000000000000000
  0
LINE
  5
5C2
100
AcDbEntity
  8
WAKU0
  6
CONTINUOUS
 62
4
100
AcDbLine
 10
332.0000000000000
 20
44.00000000000000
 30
0.0000000000000000
 11
410.0000000000000
 21
44.00000000000000
 31
0.0000000000000000
  0
LINE
  5
5C3
100
AcDbEntity
  8
WAKU0
  6
CONTINUOUS
 62
4
100
AcDbLine
 10
240.0000000000000
 20
37.00000000000000
 30
0.0000000000000000
 11
312.0000000000000
 21
37.00000000000000
 31
0.0000000000000000
  0
LINE
  5
5C4
100
AcDbEntity
  8
WAKU0
  6
CONTINUOUS
 62
4
100
AcDbLine
 10
240.0000000000000
 20
23.00000000000000
 30
0.0000000000000000
 11
312.0000000000000
 21
23.00000000000000
 31
0.0000000000000000
  0
LINE
  5
5C5
100
AcDbEntity
  8
WAKU0
  6
CONTINUOUS
 62
4
100
AcDbLine
 10
288.0000000000000
 20
37.00000000000000
 30
0.0000000000000000
 11
288.0000000000000
 21
12.00000000000000
 31
0.0000000000000000
  0
LINE
  5
5C6
100
AcDbEntity
  8
WAKU0
  6
CONTINUOUS
 62
4
100
AcDbLine
 10
264.0000000000000
 20
37.00000000000000
 30
0.0000000000000000
 11
264.0000000000000
 21
23.00000000000000
 31
0.0000000000000000
  0
LINE
  5
5C7
100
AcDbEntity
  8
WAKU0
  6
CONTINUOUS
 62
4
100
AcDbLine
 10
300.0000000000000
 20
26.00000000000000
 30
0.0000000000000000
 11
300.0000000000000
 21
23.00000000000000
 31
0.0000000000000000
  0
LINE
  5
5C8
100
AcDbEntity
  8
WAKU0
  6
CONTINUOUS
 62
4
100
AcDbLine
 10
276.0000000000000
 20
26.00000000000000
 30
0.0000000000000000
 11
276.0000000000000
 21
23.00000000000000
 31
0.0000000000000000
  0
LINE
  5
5C9
100
AcDbEntity
  8
WAKU0
  6
CONTINUOUS
 62
4
100
AcDbLine
 10
252.0000000000000
 20
26.00000000000000
 30
0.0000000000000000
 11
252.0000000000000
 21
23.00000000000000
 31
0.0000000000000000
  0
LINE
  5
5CA
100
AcDbEntity
  8
WAKU0
  6
CONTINUOUS
 62
4
100
AcDbLine
 10
258.0000000000000
 20
51.00000000000000
 30
0.0000000000000000
 11
258.0000000000000
 21
37.00000000000000
 31
0.0000000000000000
  0
LINE
  5
5CB
100
AcDbEntity
  8
WAKU0
  6
CONTINUOUS
 62
4
100
AcDbLine
 10
240.0000000000000
 20
45.00000000000000
 30
0.0000000000000000
 11
312.0000000000000
 21
45.00000000000000
 31
0.0000000000000000
  0
LINE
  5
5CC
100
AcDbEntity
  8
WAKU0
  6
HIDDEN
 62
4
100
AcDbLine
 10
360.5000000000000
 20
23.00000000000000
 30
0.0000000000000000
 11
360.5000000000000
 21
12.00000000000000
 31
0.0000000000000000
  0
LINE
  5
5CD
100
AcDbEntity
  8
WAKU0
  6
HIDDEN
 62
4
100
AcDbLine
 10
372.9000000000000
 20
23.00000000000000
 30
0.0000000000000000
 11
372.9000000000000
 21
12.00000000000000
 31
0.0000000000000000
  0
MTEXT
  5
5CE
100
AcDbEntity
  8
WAKU0
  6
CONTINUOUS
 62
4
100
AcDbMText
 10
344.4820000243485
 20
49.04999995231628
 30
0.0000000000000000
 40
3.099999904632568
 41
0.0000000000000000
 44
0.8806452252986423
 71
     1
 72
     1
  1
{\H0.93x;{RJ40H14W09}}
 11
1.000000000000000
 21
0.0000000000000000
 31
0.0000000000000000
  7
STANDARD
  0
MTEXT
  5
5CF
100
AcDbEntity
  8
WAKU0
  6
CONTINUOUS
 62
4
100
AcDbMText
 10
348.4499999843538
 20
42.04999995231628
 30
0.0000000000000000
 40
3.099999904632568
 41
0.0000000000000000
 44
0.8806452252986423
 71
     1
 72
     1
  1
{\H0.71x;{ロータリジョイント　ＲＯＴＡＲＹ　ＪＯＩＮＴ}}
 11
1.000000000000000
 21
0.0000000000000000
 31
0.0000000000000000
  7
KNJYOKO
  0
MTEXT
  5
5D0
100
AcDbEntity
  8
WAKU0
  6
CONTINUOUS
 62
4
100
AcDbMText
 10
351.0899994075298
 20
34.23333326975504
 30
0.0000000000000000
 40
3.099999904632568
 41
0.0000000000000000
 44
1.038709733984847
 71
     1
 72
     1
  1
{\H0.94x;{ＲＪ４０Ｈ１４Ｗ０９　ガイケイ\P　ＯＵＴＳＩＤＥ　ＶＩＥＷ}}
 11
1.000000000000000
 21
0.0000000000000000
 31
0.0000000000000000
  7
KNJYOKO
  0
MTEXT
  5
5D1
100
AcDbEntity
  8
WAKU0
  6
CONTINUOUS
 62
4
100
AcDbMText
 10
318.0049998760223
 20
39.29999995231628
 30
0.0000000000000000
 40
3.099999904632568
 41
0.0000000000000000
 44
1.412903306188993
 71
     1
 72
     1
  1
{\H0.90x;{1:2}}
 11
1.000000000000000
 21
0.0000000000000000
 31
0.0000000000000000
  7
STANDARD
  0
MTEXT
  5
5D2
100
AcDbEntity
  8
WAKU0
  6
CONTINUOUS
 62
2
100
AcDbMText
 10
374.4000001549721
 20
20.15000009536743
 30
0.0000000000000000
 40
5.300000190734863
 41
0.0000000000000000
 44
0.8660377154786555
 71
     1
 72
     1
  1
{\H0.90x;{4035}}
 11
1.000000000000000
 21
0.0000000000000000
 31
0.0000000000000000
  7
STANDARD
  0
MTEXT
  5
5D3
100
AcDbEntity
  8
WAKU0
  6
CONTINUOUS
 62
2
100
AcDbMText
 10
362.3000000834465
 20
20.15000009536743
 30
0.0000000000000000
 40
5.300000190734863
 41
0.0000000000000000
 44
0.8660377154786555
 71
     1
 72
     1
  1
{\H0.87x;{85}}
 11
1.000000000000000
 21
0.0000000000000000
 31
0.0000000000000000
  7
STANDARD
  0
MTEXT
  5
5D4
100
AcDbEntity
  8
WAKU0
  6
CONTINUOUS
 62
2
100
AcDbMText
 10
345.5000001192093
 20
20.15000009536743
 30
0.0000000000000000
 40
5.300000190734863
 41
0.0000000000000000
 44
0.8660377154786555
 71
     1
 72
     1
  1
{\H0.89x;{61E}}
 11
1.000000000000000
 21
0.0000000000000000
 31
0.0000000000000000
  7
STANDARD
  0
MTEXT
  5
5D5
100
AcDbEntity
  8
WAKU0
  6
CONTINUOUS
 62
2
100
AcDbMText
 10
400.0000000476837
 20
20.15000009536743
 30
0.0000000000000000
 40
5.300000190734863
 41
0.0000000000000000
 44
0.8660377154786555
 71
     1
 72
     1
  1
{\H0.81x;{1}}
 11
1.000000000000000
 21
0.0000000000000000
 31
0.0000000000000000
  7
STANDARD
  0
MTEXT
  5
5D6
100
AcDbEntity
  8
WAKU0
  6
CONTINUOUS
 62
4
100
AcDbMText
 10
400.0000000819564
 20
44.84999990463257
 30
0.0000000000000000
 40
5.300000190734863
 41
0.0000000000000000
 44
0.6396226292871933
 71
     7
 72
     1
  1
{\H0.81x;{ }}
 11
1.000000000000000
 21
0.0000000000000000
 31
0.0000000000000000
  7
STANDARD
  0
MTEXT
  5
5D7
100
AcDbEntity
  8
WAKU0
  6
CONTINUOUS
 62
4
100
AcDbMText
 10
289.3850002884865
 20
33.00000000000000
 30
0.0000000000000000
 40
3.000000000000000
 41
0.0000000000000000
 44
0.7000000000000000
 71
     7
 72
     1
  1
{\H0.93x;{DRAWN BY}}
 11
1.000000000000000
 21
0.0000000000000000
 31
0.0000000000000000
  7
STANDARD
  0
MTEXT
  5
5D8
100
AcDbEntity
  8
WAKU0
  6
CONTINUOUS
 62
4
100
AcDbMText
 10
269.2149997949600
 20
32.95000004768372
 30
0.0000000000000000
 40
3.099999904632568
 41
0.0000000000000000
 44
0.6870967861020730
 71
     7
 72
     1
  1
{\H0.92x;{CHIEF}}
 11
1.000000000000000
 21
0.0000000000000000
 31
0.0000000000000000
  7
STANDARD
  0
MTEXT
  5
5D9
100
AcDbEntity
  8
WAKU0
  6
CONTINUOUS
 62
4
100
AcDbMText
 10
242.4249997138977
 20
32.95000004768372
 30
0.0000000000000000
 40
3.099999904632568
 41
0.0000000000000000
 44
0.6870967861020730
 71
     7
 72
     1
  1
{\H0.92x;{MANAGER}}
 11
1.000000000000000
 21
0.0000000000000000
 31
0.0000000000000000
  7
STANDARD
  0
MTEXT
  5
5DA
100
AcDbEntity
  8
WAKU0
  6
CONTINUOUS
 62
4
100
AcDbMText
 10
294.6099998354912
 20
18.95000004768372
 30
0.0000000000000000
 40
3.099999904632568
 41
0.0000000000000000
 44
0.6870967861020730
 71
     7
 72
     1
  1
{\H0.91x;{DATE}}
 11
1.000000000000000
 21
0.0000000000000000
 31
0.0000000000000000
  7
STANDARD
  0
MTEXT
  5
5DB
100
AcDbEntity
  8
WAKU0
  6
CONTINUOUS
 62
4
100
AcDbMText
 10
313.9000002145767
 20
26.50000000000000
 30
0.0000000000000000
 40
3.000000000000000
 41
0.0000000000000000
 44
0.9000000000000000
 71
     7
 72
     1
  1
{\H0.63x;{3RD ANGLE}}
 11
1.000000000000000
 21
0.0000000000000000
 31
0.0000000000000000
  7
STANDARD
  0
MTEXT
  5
5DC
100
AcDbEntity
  8
WAKU0
  6
CONTINUOUS
 62
4
100
AcDbMText
 10
315.2149997949600
 20
45.95000004768372
 30
0.0000000000000000
 40
3.099999904632568
 41
0.0000000000000000
 44
0.8806452252986423
 71
     7
 72
     1
  1
{\H0.92x;{SCALE}}
 11
1.000000000000000
 21
0.0000000000000000
 31
0.0000000000000000
  7
STANDARD
  0
MTEXT
  5
5DD
100
AcDbEntity
  8
WAKU0
  6
CONTINUOUS
 62
4
100
AcDbMText
 10
405.7000000476837
 20
46.00000000000000
 30
0.0000000000000000
 40
3.000000000000000
 41
0.0000000000000000
 44
0.9000000000000000
 71
     7
 72
     1
  1
{\H0.63x;{kg}}
 11
1.000000000000000
 21
0.0000000000000000
 31
0.0000000000000000
  7
STANDARD
  0
MTEXT
  5
5DE
100
AcDbEntity
  8
WAKU0
  6
CONTINUOUS
 62
4
100
AcDbMText
 10
375.6000001430512
 20
46.00000000000000
 30
0.0000000000000000
 40
3.000000000000000
 41
0.0000000000000000
 44
0.9000000000000000
 71
     7
 72
     1
  1
{\H0.63x;{WEIGHT}}
 11
1.000000000000000
 21
0.0000000000000000
 31
0.0000000000000000
  7
STANDARD
  0
MTEXT
  5
5DF
100
AcDbEntity
  8
WAKU0
  6
CONTINUOUS
 62
4
100
AcDbMText
 10
334.0049998760223
 20
18.13333336512248
 30
0.0000000000000000
 40
3.099999904632568
 41
0.0000000000000000
 44
0.8451613409338102
 71
     7
 72
     1
  1
{\H0.90x;{DRW\PNO.}}
 11
1.000000000000000
 21
0.0000000000000000
 31
0.0000000000000000
  7
STANDARD
  0
MTEXT
  5
5E0
100
AcDbEntity
  8
WAKU0
  6
CONTINUOUS
 62
4
100
AcDbMText
 10
332.6099998354912
 20
31.95000004768372
 30
0.0000000000000000
 40
3.099999904632568
 41
0.0000000000000000
 44
2.235483976655898
 71
     7
 72
     1
  1
{\H0.91x;{NAME}}
 11
1.000000000000000
 21
0.0000000000000000
 31
0.0000000000000000
  7
STANDARD
  0
MTEXT
  5
5E1
100
AcDbEntity
  8
WAKU0
  6
CONTINUOUS
 62
4
100
AcDbMText
 10
332.6099998354912
 20
45.95000004768372
 30
0.0000000000000000
 40
3.099999904632568
 41
0.0000000000000000
 44
0.8806452252986423
 71
     7
 72
     1
  1
{\H0.91x;{TYPE}}
 11
1.000000000000000
 21
0.0000000000000000
 31
0.0000000000000000
  7
STANDARD
  0
LINE
  5
5E2
100
AcDbEntity
  8
WAKU0
  6
HIDDEN
 62
4
100
AcDbLine
 10
407.1599564743885
 20
13.84999990463257
 30
0.0000000000000000
 11
396.9400436209789
 21
13.84999990463257
 31
0.0000000000000000
  0
LINE
  5
5E3
100
AcDbEntity
  8
WAKU0
  6
HIDDEN
 62
4
100
AcDbLine
 10
407.1599564743885
 20
13.84999990463250
 30
0.0000000000000000
 11
402.0500000476852
 21
22.70070406014901
 31
0.0000000000000000
  0
LINE
  5
5E4
100
AcDbEntity
  8
WAKU0
  6
HIDDEN
 62
4
100
AcDbLine
 10
402.0500000476852
 20
22.70070406014902
 30
0.0000000000000000
 11
396.9400436209789
 21
13.84999990463248
 31
0.0000000000000000
  0
POINT
  5
5E5
100
AcDbEntity
  8
WAKU0
  6
CONTINUOUS
 62
5
100
AcDbPoint
 10
270.0000000000000
 20
51.00000000000000
 30
0.0000000000000000
  0
MTEXT
  5
5E6
100
AcDbEntity
  8
WAKU0
  6
CONTINUOUS
 62
2
100
AcDbMText
 10
247.0000009614873
 20
20.63471521698214
 30
0.0000000000000000
 40
3.140094041824341
 41
0.0000000000000000
 44
0.6677420288008611
 71
     1
 72
     1
  1
{\H0.83x;{Ｋｉｔａｇａｗａ\PＣｏｒｐｏｒａｔｉｏｎ}}
 11
1.000000000000000
 21
0.0000000000000000
 31
0.0000000000000000
  7
KNJYOKO
  0
INSERT
  5
623
100
AcDbEntity
  8
WAKU0
  6
CONTINUOUS
 62
2
100
AcDbBlockReference
  2
M2
 10
0.0000000000000000
 20
0.0000000000000000
 30
0.0000000000000000
 50
0.0000000000000000
  0
LINE
  5
624
100
AcDbEntity
  8
WAKU0
  6
CONTINUOUS
 62
3
100
AcDbLine
 10
330.4713877753800
 20
15.78041421262812
 30
0.0000000000000000
 11
330.4713877753800
 21
21.78041421262815
 31
0.0000000000000000
  0
LINE
  5
625
100
AcDbEntity
  8
WAKU0
  6
CONTINUOUS
 62
3
100
AcDbLine
 10
323.9336941228225
 20
17.28041421262811
 30
0.0000000000000000
 11
323.9336941228225
 21
20.28041421262824
 31
0.0000000000000000
  0
LINE
  5
626
100
AcDbEntity
  8
WAKU0
  6
CENTER
 62
4
100
AcDbLine
 10
313.4321805514995
 20
18.78041421262813
 30
0.0000000000000000
 11
331.2765788964694
 21
18.78041421262813
 31
0.0000000000000000
  0
LINE
  5
627
100
AcDbEntity
  8
WAKU0
  6
CENTER
 62
4
100
AcDbLine
 10
317.4474565857986
 20
14.55921662918448
 30
0.0000000000000000
 11
317.4474565857986
 21
22.89865102149943
 31
0.0000000000000000
  0
LINE
  5
628
100
AcDbEntity
  8
WAKU0
  6
CONTINUOUS
 62
3
100
AcDbLine
 10
323.9336941228225
 20
20.28041421262797
 30
0.0000000000000000
 11
330.4713877753800
 21
21.78041421262795
 31
0.0000000000000000
  0
LINE
  5
629
100
AcDbEntity
  8
WAKU0
  6
CONTINUOUS
 62
3
100
AcDbLine
 10
323.9336941228225
 20
17.28041421262811
 30
0.0000000000000000
 11
330.4713877753799
 21
15.78041421262812
 31
0.0000000000000000
  0
CIRCLE
  5
62A
100
AcDbEntity
  8
WAKU0
  6
CONTINUOUS
 62
3
100
AcDbCircle
 10
317.4474565857986
 20
18.78041421262813
 30
0.0000000000000000
 40
1.499999999999972
  0
CIRCLE
  5
62B
100
AcDbEntity
  8
WAKU0
  6
CONTINUOUS
 62
3
100
AcDbCircle
 10
317.4474565857986
 20
18.78041421262813
 30
0.0000000000000000
 40
2.999999999999979
  0
ENDSEC
  0
SECTION
  2
OBJECTS
  0
DICTIONARY
  5
65A
100
AcDbDictionary
  3
ACAD_GROUP
350
65B
  3
ACAD_LAYOUT
350
65C
  3
ACAD_MLEADERSTYLE
350
65D
  3
ACAD_MLINESTYLE
350
65E
  0
DICTIONARY
  5
65B
102
{ACAD_REACTORS
330
65A
102
}
330
65A
100
AcDbDictionary
  0
DICTIONARY
  5
65C
102
{ACAD_REACTORS
330
65A
102
}
330
65A
100
AcDbDictionary
  3
Model
350
65F
  3
ﾚｲｱｳﾄ1
350
660
  3
ﾚｲｱｳﾄ2
350
661
  0
DICTIONARY
  5
65D
102
{ACAD_REACTORS
330
65A
102
}
330
65A
100
AcDbDictionary
  3
STANDARD
350
67
  0
DICTIONARY
  5
65E
102
{ACAD_REACTORS
330
65A
102
}
330
65A
100
AcDbDictionary
  3
STANDARD
350
662
  0
LAYOUT
  5
65F
102
{ACAD_REACTORS
330
65C
102
}
330
65C
100
AcDbPlotSettings
 70
11952
  4
A3
 44
297.000000
 45
420.000000
 73
  1
 72
  1
100
AcDbLayout
  1
Model
 71
0
330
64E
  0
LAYOUT
  5
660
102
{ACAD_REACTORS
330
65C
102
}
330
65C
100
AcDbPlotSettings
100
AcDbLayout
  1
ﾚｲｱｳﾄ1
 71
1
330
64F
  0
LAYOUT
  5
661
102
{ACAD_REACTORS
330
65C
102
}
330
65C
100
AcDbPlotSettings
100
AcDbLayout
  1
ﾚｲｱｳﾄ2
 71
2
330
650
  0
MLEADERSTYLE
  5
67
102
{ACAD_REACTORS
330
65D
102
}
330
65D
100
AcDbMLeaderStyle
170
     2
171
     1
172
     0
340
62F
 92
    -2
290
     1
 42
2.00
291
     1
 43
8.00
  3
STANDARD
 44
2.00
342
69
174
     6
175
     6
 45
3.10
  0
MLINESTYLE
  5
662
102
{ACAD_REACTORS
330
65E
102
}
330
65E
100
AcDbMlineStyle
  2
STANDARD
 70
     0
  3

 62
   256
 51
90.00
 52
90.00
 71
     2
 49
0.50
 62
   256
  6
BYLAYER
 49
-0.50
 62
   256
  6
BYLAYER
  0
ENDSEC
  0
EOF
