  0
SECTION
  2
HEADER
  9
$ACADVER
  1
AC1027
  9
$DWGCODEPAGE
  3
ANSI_932
  9
$TITLE
  1
Ｂ－２８Ａ１１１１０　クミタテ
  9
$COMMENTS
  1
パワーチャック　２８
  9
$LTSCALE
 40
20.0
  9
$FILLMODE
 70
     1
  9
$CLAYER
  8
0
  9
$PDMODE
 70
     0
  9
$SPLFRAME
 70
     0
  9
$SPLINETYPE
 70
     6
  9
$SPLINESEGS
 70
     8
  9
$DIMASZ
 40
2.000000
  9
$DIMEXE
 40
2.000000
  9
$DIMEXO
 40
0.800000
  9
$DIMTAD
 70
     1
  9
$DIMTIH
 70
     0
  9
$DIMTOH
 70
     0
  9
$DIMTVP
 40
0.500000
  9
$DIMTXT
 40
3.100000
  9
$EXTMIN
 10
0.000000
 20
0.000000
 30
0.000000
  9
$EXTMAX
 10
420.000000
 20
594.000000
 30
0.000000
  9
$MEASUREMENT
 70
  1
  9
$LIMMIN
 10
0.000000
 20
0.000000
  9
$LIMMAX
 10
420.000000
 20
594.000000
  9
$HANDSEED
  5
57C
  9
$LWDISPLAY
290
     0
  9
$DIMBLK
  1
_OPEN
  9
$DIMDEC
 70
     3
  9
$DIMADEC
 70
     4
  9
$DIMAUNIT
 70
     1
  9
$DIMZIN
 70
     8
  9
$DIMAZIN
 70
     2
  9
$DIMTOFL
 70
     1
  0
ENDSEC
  0
SECTION
  2
CLASSES
  0
ENDSEC
  0
SECTION
  2
TABLES
  0
TABLE
  2
VPORT
  5
53A
100
AcDbSymbolTable
 70
     1
  0
VPORT
  5
53B
100
AcDbSymbolTableRecord
100
AcDbViewportTableRecord
  2
*ACTIVE
 70
     0
 12
392.776072
 22
779.084568
 40
1639.834226
 41
1.332115
  0
ENDTAB
  0
TABLE
  2
LTYPE
  5
53C
100
AcDbSymbolTable
 70
     4
  0
LTYPE
  5
53D
100
AcDbSymbolTableRecord
100
AcDbLinetypeTableRecord
  2
BYBLOCK
 70
     0
  3

 72
    65
 73
     0
 40
0.0
  0
LTYPE
  5
53E
100
AcDbSymbolTableRecord
100
AcDbLinetypeTableRecord
  2
BYLAYER
 70
     0
  3

 72
    65
 73
     0
 40
0.0
  0
LTYPE
  5
53F
100
AcDbSymbolTableRecord
100
AcDbLinetypeTableRecord
  2
CONTINUOUS
 70
     0
  3
Solid line (NEC CAE2D for Win R12.1 : 2025.08.01)
 72
    65
 73
     0
 40
0.0
  0
LTYPE
  5
540
100
AcDbSymbolTableRecord
100
AcDbLinetypeTableRecord
  2
HIDDEN
 70
     0
  3
__ __ __ __ __ __ __ __ __ __ __ __ __ __
 72
    65
 73
     2
 40
0.375
 49
0.25
 74
     0
 49
-0.125
 74
     0
  0
LTYPE
  5
541
100
AcDbSymbolTableRecord
100
AcDbLinetypeTableRecord
  2
CENTER
 70
     0
  3
____ _ ____ _ ____ _ ____ _ ____ _ ____
 72
    65
 73
     4
 40
2.0
 49
1.25
 74
     0
 49
-0.25
 74
     0
 49
0.25
 74
     0
 49
-0.25
 74
     0
  0
LTYPE
  5
542
100
AcDbSymbolTableRecord
100
AcDbLinetypeTableRecord
  2
PHANTOM
 70
     0
  3
______  __  __  ______  __  __  ______ 
 72
    65
 73
     6
 40
2.5
 49
1.25
 74
     0
 49
-0.25
 74
     0
 49
0.25
 74
     0
 49
-0.25
 74
     0
 49
0.25
 74
     0
 49
-0.25
 74
     0
  0
ENDTAB
  0
TABLE
  2
LAYER
  5
543
100
AcDbSymbolTable
 70
    16
  0
LAYER
  5
544
100
AcDbSymbolTableRecord
100
AcDbLayerTableRecord
  2
0
 70
     0
 62
     7
  6
CONTINUOUS
370
    -3
390

  0
LAYER
  5
545
100
AcDbSymbolTableRecord
100
AcDbLayerTableRecord
  2
MAIN0
 70
     0
 62
     7
  6
CONTINUOUS
370
    -3
390

  0
LAYER
  5
546
100
AcDbSymbolTableRecord
100
AcDbLayerTableRecord
  2
MAIN1
 70
     0
 62
     7
  6
CONTINUOUS
370
    -3
390

  0
LAYER
  5
547
100
AcDbSymbolTableRecord
100
AcDbLayerTableRecord
  2
MAIN2
 70
     0
 62
     7
  6
CONTINUOUS
370
    -3
390

  0
LAYER
  5
548
100
AcDbSymbolTableRecord
100
AcDbLayerTableRecord
  2
MAIN3
 70
     0
 62
     7
  6
CONTINUOUS
370
    -3
390

  0
LAYER
  5
549
100
AcDbSymbolTableRecord
100
AcDbLayerTableRecord
  2
MAIN4
 70
     0
 62
     7
  6
CONTINUOUS
370
    -3
390

  0
LAYER
  5
54A
100
AcDbSymbolTableRecord
100
AcDbLayerTableRecord
  2
MAIN10
 70
     0
 62
     7
  6
CONTINUOUS
370
    -3
390

  0
LAYER
  5
54B
100
AcDbSymbolTableRecord
100
AcDbLayerTableRecord
  2
A0
 70
     0
 62
     7
  6
CONTINUOUS
370
    -3
390

  0
LAYER
  5
54C
100
AcDbSymbolTableRecord
100
AcDbLayerTableRecord
  2
A2
 70
     0
 62
     7
  6
CONTINUOUS
370
    -3
390

  0
LAYER
  5
54D
100
AcDbSymbolTableRecord
100
AcDbLayerTableRecord
  2
WAKU0
 70
     0
 62
     7
  6
CONTINUOUS
370
    -3
390

  0
LAYER
  5
54E
100
AcDbSymbolTableRecord
100
AcDbLayerTableRecord
  2
MDF0
 70
     0
 62
     7
  6
CONTINUOUS
370
    -3
390

  0
LAYER
  5
54F
100
AcDbSymbolTableRecord
100
AcDbLayerTableRecord
  2
SP0
 70
     0
 62
     7
  6
CONTINUOUS
370
    -3
390

  0
LAYER
  5
550
100
AcDbSymbolTableRecord
100
AcDbLayerTableRecord
  2
SP1
 70
     0
 62
     7
  6
CONTINUOUS
370
    -3
390

  0
LAYER
  5
551
100
AcDbSymbolTableRecord
100
AcDbLayerTableRecord
  2
SP2
 70
     0
 62
     7
  6
CONTINUOUS
370
    -3
390

  0
LAYER
  5
552
100
AcDbSymbolTableRecord
100
AcDbLayerTableRecord
  2
SP3
 70
     0
 62
     7
  6
CONTINUOUS
370
    -3
390

  0
LAYER
  5
553
100
AcDbSymbolTableRecord
100
AcDbLayerTableRecord
  2
SP4
 70
     0
 62
     7
  6
CONTINUOUS
370
    -3
390

  0
ENDTAB
  0
TABLE
  2
STYLE
  5
554
100
AcDbSymbolTable
 70
     4
  0
STYLE
  5
555
100
AcDbSymbolTableRecord
100
AcDbTextStyleTableRecord
  2
STANDARD
 70
    64
 40
0.0
 41
1.0
 50
0.0
 71
     0
 42
5.579999828338623
  3
BIGFONT
  4

  0
STYLE
  5
556
100
AcDbSymbolTableRecord
100
AcDbTextStyleTableRecord
  2
STANDARD
 70
    68
 40
0.0
 41
1.0
 50
0.0
 71
     0
 42
5.579999828338623
  3
BIGFONT
  4

  0
STYLE
  5
557
100
AcDbSymbolTableRecord
100
AcDbTextStyleTableRecord
  2
STANDARD
 70
    64
 40
0.0
 41
1.0
 50
0.0
 71
     0
 42
5.579999828338623
  3
BIGFONT
  4
BIGFONT
  0
STYLE
  5
558
100
AcDbSymbolTableRecord
100
AcDbTextStyleTableRecord
  2
STANDARD
 70
    68
 40
0.0
 41
1.0
 50
0.0
 71
     0
 42
5.579999828338623
  3
BIGFONT
  4
BIGFONT
  0
ENDTAB
  0
TABLE
  2
VIEW
  5
559
100
AcDbSymbolTable
 70
     0
  0
ENDTAB
  0
TABLE
  2
UCS
  5
55A
100
AcDbSymbolTable
 70
     0
  0
ENDTAB
  0
TABLE
  2
APPID
  5
55B
100
AcDbSymbolTable
 70
     1
  0
APPID
  5
55C
100
AcDbSymbolTableRecord
100
AcDbRegAppTableRecord
  2
ACAD
 70
     0
  0
ENDTAB
  0
TABLE
  2
DIMSTYLE
  5
55D
100
AcDbSymbolTable
 70
     1
100
AcDbDimStyleTable
  0
DIMSTYLE
105
55E
100
AcDbSymbolTableRecord
100
AcDbDimStyleTableRecord
  2
STANDARD
 70
     0
 41
2.000000
 44
2.000000
 42
0.800000
145
0.661290
140
3.100000
144
1.000000
146
0.903226
340
555
  0
DIMSTYLE
105
55F
100
AcDbSymbolTableRecord
100
AcDbDimStyleTableRecord
  2
MAIN001
 70
     0
 41
5.000000
 44
5.000000
 42
2.000000
145
0.564516
140
7.750000
144
1.000000
146
0.903226
 77
     1
 73
     0
 74
     0
271
     3
179
     4
275
     1
 78
     8
 79
     2
172
     1
340
555
  0
DIMSTYLE
105
560
100
AcDbSymbolTableRecord
100
AcDbDimStyleTableRecord
  2
A002
 70
     0
 41
5.000000
 44
5.000000
 42
2.000000
145
0.564516
140
7.750000
144
1.200000
146
0.903226
 77
     1
 73
     0
 74
     0
271
     3
179
     4
275
     1
 78
     8
 79
     2
172
     1
340
555
  0
DIMSTYLE
105
561
100
AcDbSymbolTableRecord
100
AcDbDimStyleTableRecord
  2
WAKU003
 70
     0
 41
5.000000
 44
5.000000
 42
2.000000
145
0.564516
140
7.750000
144
0.400000
146
0.903226
 77
     1
 73
     0
 74
     0
271
     3
179
     4
275
     1
 78
     8
 79
     2
172
     1
340
555
  0
DIMSTYLE
105
562
100
AcDbSymbolTableRecord
100
AcDbDimStyleTableRecord
  2
MDF004
 70
     0
 41
5.000000
 44
5.000000
 42
2.000000
145
0.564516
140
7.750000
144
0.400000
146
0.903226
 77
     1
 73
     0
 74
     0
271
     3
179
     4
275
     1
 78
     8
 79
     2
172
     1
340
555
  0
DIMSTYLE
105
563
100
AcDbSymbolTableRecord
100
AcDbDimStyleTableRecord
  2
SP005
 70
     0
 41
5.000000
 44
5.000000
 42
2.000000
145
0.564516
140
7.750000
144
0.400000
146
0.903226
 77
     1
 73
     0
 74
     0
271
     3
179
     4
275
     1
 78
     8
 79
     2
172
     1
340
555
  0
ENDTAB
  0
TABLE
  2
BLOCK_RECORD
  5
564
100
AcDbSymbolTable
 70
    18
  0
BLOCK_RECORD
  5
565
100
AcDbSymbolTableRecord
100
AcDbBlockTableRecord
  2
*MODEL_SPACE
  0
BLOCK_RECORD
  5
566
100
AcDbSymbolTableRecord
100
AcDbBlockTableRecord
  2
*PAPER_SPACE
  0
BLOCK_RECORD
  5
567
100
AcDbSymbolTableRecord
100
AcDbBlockTableRecord
  2
*PAPER_SPACE0
  0
BLOCK_RECORD
  5
1
100
AcDbSymbolTableRecord
100
AcDbBlockTableRecord
  2
_NONE
  0
BLOCK_RECORD
  5
4
100
AcDbSymbolTableRecord
100
AcDbBlockTableRecord
  2
_CLOSED
  0
BLOCK_RECORD
  5
B
100
AcDbSymbolTableRecord
100
AcDbBlockTableRecord
  2
_DOT
  0
BLOCK_RECORD
  5
13
100
AcDbSymbolTableRecord
100
AcDbBlockTableRecord
  2
_OPEN
  0
BLOCK_RECORD
  5
19
100
AcDbSymbolTableRecord
100
AcDbBlockTableRecord
  2
_ORIGIN
  0
BLOCK_RECORD
  5
1E
100
AcDbSymbolTableRecord
100
AcDbBlockTableRecord
  2
_OPEN30
  0
BLOCK_RECORD
  5
24
100
AcDbSymbolTableRecord
100
AcDbBlockTableRecord
  2
_BOXFILLED
  0
BLOCK_RECORD
  5
29
100
AcDbSymbolTableRecord
100
AcDbBlockTableRecord
  2
_BOXBLANK
  0
BLOCK_RECORD
  5
31
100
AcDbSymbolTableRecord
100
AcDbBlockTableRecord
  2
_OBLIQUE
  0
BLOCK_RECORD
  5
35
100
AcDbSymbolTableRecord
100
AcDbBlockTableRecord
  2
_OPEN90
  0
BLOCK_RECORD
  5
3B
100
AcDbSymbolTableRecord
100
AcDbBlockTableRecord
  2
_CLOSEDBLANK
  0
BLOCK_RECORD
  5
41
100
AcDbSymbolTableRecord
100
AcDbBlockTableRecord
  2
_DOTBLANK
  0
BLOCK_RECORD
  5
568
100
AcDbSymbolTableRecord
100
AcDbBlockTableRecord
  2
M0
  0
BLOCK_RECORD
  5
569
100
AcDbSymbolTableRecord
100
AcDbBlockTableRecord
  2
M1
  0
BLOCK_RECORD
  5
56A
100
AcDbSymbolTableRecord
100
AcDbBlockTableRecord
  2
M2
  0
BLOCK_RECORD
  5
56B
100
AcDbSymbolTableRecord
100
AcDbBlockTableRecord
  2
M3
  0
BLOCK_RECORD
  5
56C
100
AcDbSymbolTableRecord
100
AcDbBlockTableRecord
  2
M4
  0
BLOCK_RECORD
  5
56D
100
AcDbSymbolTableRecord
100
AcDbBlockTableRecord
  2
M5
  0
ENDTAB
  0
ENDSEC
  0
SECTION
  2
BLOCKS
  0
BLOCK
  5
56E
100
AcDbEntity
  8
0
100
AcDbBlockBegin
  2
*MODEL_SPACE
 70
     0
 10
0.0
 20
0.0
 30
0.0
  3
*MODEL_SPACE
  1

  0
ENDBLK
  5
56F
100
AcDbEntity
  8
0
100
AcDbBlockEnd
  0
BLOCK
  5
570
100
AcDbEntity
  8
0
100
AcDbBlockBegin
  2
*PAPER_SPACE
 70
     0
 10
0.0
 20
0.0
 30
0.0
  3
*PAPER_SPACE
  1

  0
ENDBLK
  5
571
100
AcDbEntity
  8
0
100
AcDbBlockEnd
  0
BLOCK
  5
572
100
AcDbEntity
  8
0
100
AcDbBlockBegin
  2
*PAPER_SPACE0
 70
     0
 10
0.0
 20
0.0
 30
0.0
  3
*PAPER_SPACE0
  1

  0
ENDBLK
  5
573
100
AcDbEntity
  8
0
100
AcDbBlockEnd
  0
BLOCK
  5
2
330
1
100
AcDbEntity
  8
0
100
AcDbBlockBegin
  2
_NONE
 70
     0
 10
0.0
 20
0.0
 30
0.0
  3
_NONE
  1

  0
ENDBLK
  5
3
330
1
100
AcDbEntity
  8
0
100
AcDbBlockEnd
  0
BLOCK
  5
5
330
4
100
AcDbEntity
  8
0
100
AcDbBlockBegin
  2
_CLOSED
 70
     0
 10
0.0
 20
0.0
 30
0.0
  3
_CLOSED
  1

  0
LINE
  5
6
330
4
100
AcDbEntity
  8
0
  6
BYBLOCK
 62
     0
370
    -2
100
AcDbLine
 10
-1.0
 20
0.166667
 30
0.0
 11
0.0
 21
0.0
 31
0.0
  0
LINE
  5
7
330
4
100
AcDbEntity
  8
0
  6
BYBLOCK
 62
     0
370
    -2
100
AcDbLine
 10
0.0
 20
0.0
 30
0.0
 11
-1.0
 21
-0.166667
 31
0.0
  0
LINE
  5
8
330
4
100
AcDbEntity
  8
0
  6
BYBLOCK
 62
     0
370
    -2
100
AcDbLine
 10
-1.0
 20
0.166667
 30
0.0
 11
-1.0
 21
-0.166667
 31
0.0
  0
LINE
  5
9
330
4
100
AcDbEntity
  8
0
  6
BYBLOCK
 62
     0
370
    -2
100
AcDbLine
 10
0.0
 20
0.0
 30
0.0
 11
-1.0
 21
0.0
 31
0.0
  0
ENDBLK
  5
A
330
4
100
AcDbEntity
  8
0
100
AcDbBlockEnd
  0
BLOCK
  5
C
330
B
100
AcDbEntity
  8
0
100
AcDbBlockBegin
  2
_DOT
 70
     0
 10
0.0
 20
0.0
 30
0.0
  3
_DOT
  1

  0
POLYLINE
  5
D
330
B
100
AcDbEntity
  8
0
  6
BYBLOCK
 62
     0
370
    -2
100
AcDb2dPolyline
 66
     1
 10
0.0
 20
0.0
 30
0.0
 70
     1
 40
0.5
 41
0.5
  0
VERTEX
  5
E
330
B
100
AcDbEntity
  8
0
  6
BYBLOCK
 62
     0
370
    -2
100
AcDbVertex
100
AcDb2dVertex
 10
-0.25
 20
0.0
 30
0.0
 42
1.0
  0
VERTEX
  5
F
330
B
100
AcDbEntity
  8
0
  6
BYBLOCK
 62
     0
370
    -2
100
AcDbVertex
100
AcDb2dVertex
 10
0.25
 20
0.0
 30
0.0
 42
1.0
  0
SEQEND
  5
10
330
B
100
AcDbEntity
  8
0
  6
BYBLOCK
 62
     0
370
    -2
  0
LINE
  5
11
330
B
100
AcDbEntity
  8
0
  6
BYBLOCK
 62
     0
370
    -2
100
AcDbLine
 10
-0.5
 20
0.0
 30
0.0
 11
-1.0
 21
0.0
 31
0.0
  0
ENDBLK
  5
12
330
B
100
AcDbEntity
  8
0
100
AcDbBlockEnd
  0
BLOCK
  5
14
330
13
100
AcDbEntity
  8
0
100
AcDbBlockBegin
  2
_OPEN
 70
     0
 10
0.0
 20
0.0
 30
0.0
  3
_OPEN
  1

  0
LINE
  5
15
330
13
100
AcDbEntity
  8
0
  6
BYBLOCK
 62
     0
370
    -2
100
AcDbLine
 10
-1.0
 20
0.166667
 30
0.0
 11
0.0
 21
0.0
 31
0.0
  0
LINE
  5
16
330
13
100
AcDbEntity
  8
0
  6
BYBLOCK
 62
     0
370
    -2
100
AcDbLine
 10
0.0
 20
0.0
 30
0.0
 11
-1.0
 21
-0.166667
 31
0.0
  0
LINE
  5
17
330
13
100
AcDbEntity
  8
0
  6
BYBLOCK
 62
     0
370
    -2
100
AcDbLine
 10
0.0
 20
0.0
 30
0.0
 11
-1.0
 21
0.0
 31
0.0
  0
ENDBLK
  5
18
330
13
100
AcDbEntity
  8
0
100
AcDbBlockEnd
  0
BLOCK
  5
1A
330
19
100
AcDbEntity
  8
0
100
AcDbBlockBegin
  2
_ORIGIN
 70
     0
 10
0.0
 20
0.0
 30
0.0
  3
_ORIGIN
  1

  0
CIRCLE
  5
1B
330
19
100
AcDbEntity
  8
0
  6
BYBLOCK
 62
     0
370
    -2
100
AcDbCircle
 10
0.0
 20
0.0
 30
0.0
 40
0.5
  0
LINE
  5
1C
330
19
100
AcDbEntity
  8
0
  6
BYBLOCK
 62
     0
370
    -2
100
AcDbLine
 10
0.0
 20
0.0
 30
0.0
 11
-1.0
 21
0.0
 31
0.0
  0
ENDBLK
  5
1D
330
19
100
AcDbEntity
  8
0
100
AcDbBlockEnd
  0
BLOCK
  5
1F
330
1E
100
AcDbEntity
  8
0
100
AcDbBlockBegin
  2
_OPEN30
 70
     0
 10
0.0
 20
0.0
 30
0.0
  3
_OPEN30
  1

  0
LINE
  5
20
330
1E
100
AcDbEntity
  8
0
  6
BYBLOCK
 62
     0
370
    -2
100
AcDbLine
 10
-1.0
 20
0.267949
 30
0.0
 11
0.0
 21
0.0
 31
0.0
  0
LINE
  5
21
330
1E
100
AcDbEntity
  8
0
  6
BYBLOCK
 62
     0
370
    -2
100
AcDbLine
 10
0.0
 20
0.0
 30
0.0
 11
-1.0
 21
-0.267949
 31
0.0
  0
LINE
  5
22
330
1E
100
AcDbEntity
  8
0
  6
BYBLOCK
 62
     0
370
    -2
100
AcDbLine
 10
0.0
 20
0.0
 30
0.0
 11
-1.0
 21
0.0
 31
0.0
  0
ENDBLK
  5
23
330
1E
100
AcDbEntity
  8
0
100
AcDbBlockEnd
  0
BLOCK
  5
25
330
24
100
AcDbEntity
  8
0
100
AcDbBlockBegin
  2
_BOXFILLED
 70
     0
 10
0.0
 20
0.0
 30
0.0
  3
_BOXFILLED
  1

  0
SOLID
  5
26
330
24
100
AcDbEntity
  8
0
  6
BYBLOCK
 62
     0
370
    -2
100
AcDbTrace
 10
-0.5
 20
0.5
 30
0.0
 11
0.5
 21
0.5
 31
0.0
 12
-0.5
 22
-0.5
 32
0.0
 13
0.5
 23
-0.5
 33
0.0
  0
LINE
  5
27
330
24
100
AcDbEntity
  8
0
  6
BYBLOCK
 62
     0
370
    -2
100
AcDbLine
 10
-0.5
 20
0.0
 30
0.0
 11
-1.0
 21
0.0
 31
0.0
  0
ENDBLK
  5
28
330
24
100
AcDbEntity
  8
0
100
AcDbBlockEnd
  0
BLOCK
  5
2A
330
29
100
AcDbEntity
  8
0
100
AcDbBlockBegin
  2
_BOXBLANK
 70
     0
 10
0.0
 20
0.0
 30
0.0
  3
_BOXBLANK
  1

  0
LINE
  5
2B
330
29
100
AcDbEntity
  8
0
  6
BYBLOCK
 62
     0
370
    -2
100
AcDbLine
 10
-0.5
 20
-0.5
 30
0.0
 11
0.5
 21
-0.5
 31
0.0
  0
LINE
  5
2C
330
29
100
AcDbEntity
  8
0
  6
BYBLOCK
 62
     0
370
    -2
100
AcDbLine
 10
0.5
 20
-0.5
 30
0.0
 11
0.5
 21
0.5
 31
0.0
  0
LINE
  5
2D
330
29
100
AcDbEntity
  8
0
  6
BYBLOCK
 62
     0
370
    -2
100
AcDbLine
 10
0.5
 20
0.5
 30
0.0
 11
-0.5
 21
0.5
 31
0.0
  0
LINE
  5
2E
330
29
100
AcDbEntity
  8
0
  6
BYBLOCK
 62
     0
370
    -2
100
AcDbLine
 10
-0.5
 20
0.5
 30
0.0
 11
-0.5
 21
-0.5
 31
0.0
  0
LINE
  5
2F
330
29
100
AcDbEntity
  8
0
  6
BYBLOCK
 62
     0
370
    -2
100
AcDbLine
 10
-0.5
 20
0.0
 30
0.0
 11
-1.0
 21
0.0
 31
0.0
  0
ENDBLK
  5
30
330
29
100
AcDbEntity
  8
0
100
AcDbBlockEnd
  0
BLOCK
  5
32
330
31
100
AcDbEntity
  8
0
100
AcDbBlockBegin
  2
_OBLIQUE
 70
     0
 10
0.0
 20
0.0
 30
0.0
  3
_OBLIQUE
  1

  0
LINE
  5
33
330
31
100
AcDbEntity
  8
0
  6
BYBLOCK
 62
     0
370
    -2
100
AcDbLine
 10
-0.5
 20
-0.5
 30
0.0
 11
0.5
 21
0.5
 31
0.0
  0
ENDBLK
  5
34
330
31
100
AcDbEntity
  8
0
100
AcDbBlockEnd
  0
BLOCK
  5
36
330
35
100
AcDbEntity
  8
0
100
AcDbBlockBegin
  2
_OPEN90
 70
     0
 10
0.0
 20
0.0
 30
0.0
  3
_OPEN90
  1

  0
LINE
  5
37
330
35
100
AcDbEntity
  8
0
  6
BYBLOCK
 62
     0
370
    -2
100
AcDbLine
 10
-0.5
 20
0.5
 30
0.0
 11
0.0
 21
0.0
 31
0.0
  0
LINE
  5
38
330
35
100
AcDbEntity
  8
0
  6
BYBLOCK
 62
     0
370
    -2
100
AcDbLine
 10
0.0
 20
0.0
 30
0.0
 11
-0.5
 21
-0.5
 31
0.0
  0
LINE
  5
39
330
35
100
AcDbEntity
  8
0
  6
BYBLOCK
 62
     0
370
    -2
100
AcDbLine
 10
0.0
 20
0.0
 30
0.0
 11
-1.0
 21
0.0
 31
0.0
  0
ENDBLK
  5
3A
330
35
100
AcDbEntity
  8
0
100
AcDbBlockEnd
  0
BLOCK
  5
3C
330
3B
100
AcDbEntity
  8
0
100
AcDbBlockBegin
  2
_CLOSEDBLANK
 70
     0
 10
0.0
 20
0.0
 30
0.0
  3
_CLOSEDBLANK
  1

  0
LINE
  5
3D
330
3B
100
AcDbEntity
  8
0
  6
BYBLOCK
 62
     0
370
    -2
100
AcDbLine
 10
-1.0
 20
0.1666666666666666
 30
0.0
 11
0.0
 21
0.0
 31
0.0
  0
LINE
  5
3E
330
3B
100
AcDbEntity
  8
0
  6
BYBLOCK
 62
     0
370
    -2
100
AcDbLine
 10
0.0
 20
0.0
 30
0.0
 11
-1.0
 21
-0.1666666666666666
 31
0.0
  0
LINE
  5
3F
330
3B
100
AcDbEntity
  8
0
  6
BYBLOCK
 62
     0
370
    -2
100
AcDbLine
 10
-1.0
 20
0.1666666666666666
 30
0.0
 11
-1.0
 21
-0.1666666666666666
 31
0.0
  0
ENDBLK
  5
40
330
3B
100
AcDbEntity
  8
0
100
AcDbBlockEnd
  0
BLOCK
  5
42
330
41
100
AcDbEntity
  8
0
100
AcDbBlockBegin
  2
_DOTBLANK
 70
     0
 10
0.0
 20
0.0
 30
0.0
  3
_DOTBLANK
  1

  0
CIRCLE
  5
43
330
41
100
AcDbEntity
  8
0
  6
BYBLOCK
 62
     0
370
    -2
100
AcDbCircle
 10
0.0
 20
0.0
 30
0.0
 40
0.5
  0
LINE
  5
44
330
41
100
AcDbEntity
  8
0
  6
BYBLOCK
 62
     0
370
    -2
100
AcDbLine
 10
-0.5
 20
0.0
 30
0.0
 11
-1.0
 21
0.0
 31
0.0
  0
ENDBLK
  5
45
330
41
100
AcDbEntity
  8
0
100
AcDbBlockEnd
  0
BLOCK
  5
37F
100
AcDbEntity
  8
MAIN0
  6
CONTINUOUS
100
AcDbBlockBegin
  2
M0
 70
    64
 10
0.0
 20
0.0
 30
0.0
  0
LINE
  5
380
100
AcDbEntity
  8
MAIN0
  6
CONTINUOUS
 62
7
370
    25
100
AcDbLine
 10
1287.188629033644
 20
315.9427608750970
 30
0.0000000000000000
 11
1449.688629033644
 21
315.9427608750971
 31
0.0000000000000000
  0
LINE
  5
381
100
AcDbEntity
  8
MAIN0
  6
CONTINUOUS
 62
7
370
    25
100
AcDbLine
 10
1287.188629033644
 20
290.9427608750971
 30
0.0000000000000000
 11
1287.188629033644
 21
315.9427608750971
 31
0.0000000000000000
  0
LINE
  5
382
100
AcDbEntity
  8
MAIN0
  6
CONTINUOUS
 62
7
370
    25
100
AcDbLine
 10
1337.188629033643
 20
315.9427608750971
 30
0.0000000000000000
 11
1337.188629033643
 21
290.9427608750970
 31
0.0000000000000000
  0
LINE
  5
383
100
AcDbEntity
  8
MAIN0
  6
CONTINUOUS
 62
7
370
    25
100
AcDbLine
 10
1287.188629033643
 20
290.9427608750971
 30
0.0000000000000000
 11
1449.688629033643
 21
290.9427608750967
 31
0.0000000000000000
  0
LINE
  5
384
100
AcDbEntity
  8
MAIN0
  6
CONTINUOUS
 62
7
370
    25
100
AcDbLine
 10
1449.688629033643
 20
290.9427608750967
 30
0.0000000000000000
 11
1449.688629033643
 21
315.9427608750971
 31
0.0000000000000000
  0
MTEXT
  5
385
100
AcDbEntity
  8
MAIN0
  6
CONTINUOUS
 62
7
370
    25
100
AcDbMText
 10
1294.688629033410
 20
316.1927618287224
 30
0.0000000000000000
 40
5.580000686645508
 41
0.0000000000000000
 44
0.6719999870792528
 71
     1
 72
     1
  1
{\H0.92x;機　名}
 11
1.000000000000000
 21
0.0000000000000000
 31
0.0000000000000000
  7
STANDARD
  0
MTEXT
  5
386
100
AcDbEntity
  8
MAIN0
  6
CONTINUOUS
 62
7
370
    25
100
AcDbMText
 10
1298.188629033403
 20
306.4427608750777
 30
0.0000000000000000
 40
4.499999999999999
 41
0.0000000000000000
 44
0.8400000000000000
 71
     1
 72
     1
  1
{\H0.63x;LATHE\PMODEL}
 11
1.000000000000000
 21
0.0000000000000000
 31
0.0000000000000000
  7
STANDARD
  0
ENDBLK
  5
387
100
AcDbEntity
  8
MAIN0
  6
CONTINUOUS
100
AcDbBlockEnd
  0
BLOCK
  5
3AE
100
AcDbEntity
  8
MAIN0
  6
CONTINUOUS
100
AcDbBlockBegin
  2
M1
 70
    64
 10
0.0
 20
0.0
 30
0.0
  0
MTEXT
  5
3AF
100
AcDbEntity
  8
MAIN0
  6
CONTINUOUS
 62
1
370
    60
100
AcDbMText
 10
78.91625432024392
 20
517.3064000652539
 30
0.0000000000000000
 40
10.62213649749756
 41
0.0000000000000000
 44
0.6719999360035477
 71
     1
 72
     1
  1
{\H0.49x;NOTICE}
 11
1.000000000000000
 21
0.0000000000000000
 31
0.0000000000000000
  7
STANDARD
  0
LINE
  5
3B0
100
AcDbEntity
  8
MAIN0
  6
CONTINUOUS
 62
1
370
    60
100
AcDbLine
 10
125.1662543202440
 20
521.3034327076184
 30
0.0000000000000000
 11
125.1662543202440
 21
498.8034327076184
 31
0.0000000000000000
  0
LINE
  5
3B1
100
AcDbEntity
  8
MAIN0
  6
CONTINUOUS
 62
1
370
    60
100
AcDbLine
 10
75.16625432024398
 20
498.8034327076184
 30
0.0000000000000000
 11
125.1662543202440
 21
498.8034327076184
 31
0.0000000000000000
  0
LINE
  5
3B2
100
AcDbEntity
  8
MAIN0
  6
CONTINUOUS
 62
1
370
    60
100
AcDbLine
 10
75.16625432024398
 20
521.3034327076184
 30
0.0000000000000000
 11
75.16625432024398
 21
498.8034327076183
 31
0.0000000000000000
  0
LINE
  5
3B3
100
AcDbEntity
  8
MAIN0
  6
CONTINUOUS
 62
1
370
    60
100
AcDbLine
 10
75.16625432024398
 20
521.3034327076184
 30
0.0000000000000000
 11
125.1662543202440
 21
521.3034327076184
 31
0.0000000000000000
  0
ENDBLK
  5
3B4
100
AcDbEntity
  8
MAIN0
  6
CONTINUOUS
100
AcDbBlockEnd
  0
BLOCK
  5
3B6
100
AcDbEntity
  8
MAIN0
  6
CONTINUOUS
100
AcDbBlockBegin
  2
M2
 70
    64
 10
0.0
 20
0.0
 30
0.0
  0
MTEXT
  5
3B7
100
AcDbEntity
  8
MAIN0
  6
CONTINUOUS
 62
1
370
    60
100
AcDbMText
 10
78.91625432024404
 20
443.0502022018716
 30
0.0000000000000000
 40
10.80000000000000
 41
0.0000000000000000
 44
0.6719999790191651
 71
     1
 72
     1
  1
{\H0.80x;要注意}
 11
1.000000000000000
 21
0.0000000000000000
 31
0.0000000000000000
  7
STANDARD
  0
LINE
  5
3B8
100
AcDbEntity
  8
MAIN0
  6
CONTINUOUS
 62
1
370
    60
100
AcDbLine
 10
125.1662543202440
 20
446.8002022018716
 30
0.0000000000000000
 11
125.1662543202440
 21
424.3002022018716
 31
0.0000000000000000
  0
LINE
  5
3B9
100
AcDbEntity
  8
MAIN0
  6
CONTINUOUS
 62
1
370
    60
100
AcDbLine
 10
75.16625432024398
 20
424.3002022018716
 30
0.0000000000000000
 11
125.1662543202440
 21
424.3002022018716
 31
0.0000000000000000
  0
LINE
  5
3BA
100
AcDbEntity
  8
MAIN0
  6
CONTINUOUS
 62
1
370
    60
100
AcDbLine
 10
75.16625432024398
 20
446.8002022018716
 30
0.0000000000000000
 11
75.16625432024398
 21
424.3002022018716
 31
0.0000000000000000
  0
LINE
  5
3BB
100
AcDbEntity
  8
MAIN0
  6
CONTINUOUS
 62
1
370
    60
100
AcDbLine
 10
75.16625432024398
 20
446.8002022018716
 30
0.0000000000000000
 11
125.1662543202440
 21
446.8002022018716
 31
0.0000000000000000
  0
ENDBLK
  5
3BC
100
AcDbEntity
  8
MAIN0
  6
CONTINUOUS
100
AcDbBlockEnd
  0
BLOCK
  5
3D4
100
AcDbEntity
  8
MAIN0
  6
CONTINUOUS
100
AcDbBlockBegin
  2
M3
 70
    64
 10
0.0
 20
0.0
 30
0.0
  0
LINE
  5
3D5
100
AcDbEntity
  8
MAIN0
  6
CONTINUOUS
 62
7
370
    25
100
AcDbLine
 10
1182.888502384607
 20
183.9570628196800
 30
0.0000000000000000
 11
1450.597073691146
 21
183.9570628196800
 31
0.0000000000000000
  0
LINE
  5
3D6
100
AcDbEntity
  8
MAIN0
  6
CONTINUOUS
 62
7
370
    25
100
AcDbLine
 10
1182.888502384607
 20
171.4570628196801
 30
0.0000000000000000
 11
1450.597073691146
 21
171.4570628196801
 31
0.0000000000000000
  0
LINE
  5
3D7
100
AcDbEntity
  8
MAIN0
  6
CONTINUOUS
 62
7
370
    25
100
AcDbLine
 10
1182.888502384607
 20
158.9570628196802
 30
0.0000000000000000
 11
1450.597073691146
 21
158.9570628196802
 31
0.0000000000000000
  0
LINE
  5
3D8
100
AcDbEntity
  8
MAIN0
  6
CONTINUOUS
 62
7
370
    25
100
AcDbLine
 10
1182.888502384607
 20
146.4570628196802
 30
0.0000000000000000
 11
1450.597073691146
 21
146.4570628196802
 31
0.0000000000000000
  0
MTEXT
  5
3D9
100
AcDbEntity
  8
MAIN0
  6
CONTINUOUS
 62
7
370
    25
100
AcDbMText
 10
1185.388502384607
 20
192.9570625812615
 30
0.0000000000000000
 40
5.579999828338623
 41
0.0000000000000000
 44
0.6677419652551825
 71
     1
 72
     1
  1
{\H0.88x;1.}
 11
1.000000000000000
 21
0.0000000000000000
 31
0.0000000000000000
  7
STANDARD
  0
MTEXT
  5
3DA
100
AcDbEntity
  8
MAIN0
  6
CONTINUOUS
 62
7
370
    25
100
AcDbMText
 10
1185.388502384607
 20
167.9570625812616
 30
0.0000000000000000
 40
5.579999828338623
 41
0.0000000000000000
 44
0.6677419652551825
 71
     1
 72
     1
  1
{\H0.88x;2.}
 11
1.000000000000000
 21
0.0000000000000000
 31
0.0000000000000000
  7
STANDARD
  0
MTEXT
  5
3DB
100
AcDbEntity
  8
MAIN0
  6
CONTINUOUS
 62
1
370
    60
100
AcDbMText
 10
1186.638502384607
 20
216.4570628196807
 30
0.0000000000000000
 40
8.999999999999998
 41
0.0000000000000000
 44
0.7200000000000000
 71
     1
 72
     1
  1
{\H0.63x;NOTICE}
 11
1.000000000000000
 21
0.0000000000000000
 31
0.0000000000000000
  7
STANDARD
  0
LINE
  5
3DC
100
AcDbEntity
  8
MAIN0
  6
CONTINUOUS
 62
1
370
    60
100
AcDbLine
 10
1232.888502384607
 20
222.7070628196807
 30
0.0000000000000000
 11
1232.888502384607
 21
200.2070628196807
 31
0.0000000000000000
  0
LINE
  5
3DD
100
AcDbEntity
  8
MAIN0
  6
CONTINUOUS
 62
1
370
    60
100
AcDbLine
 10
1182.888502384607
 20
200.2070628196807
 30
0.0000000000000000
 11
1232.888502384607
 21
200.2070628196807
 31
0.0000000000000000
  0
LINE
  5
3DE
100
AcDbEntity
  8
MAIN0
  6
CONTINUOUS
 62
1
370
    60
100
AcDbLine
 10
1182.888502384607
 20
222.7070628196807
 30
0.0000000000000000
 11
1182.888502384607
 21
200.2070628196807
 31
0.0000000000000000
  0
LINE
  5
3DF
100
AcDbEntity
  8
MAIN0
  6
CONTINUOUS
 62
1
370
    60
100
AcDbLine
 10
1182.888502384607
 20
222.7070628196807
 30
0.0000000000000000
 11
1232.888502384607
 21
222.7070628196807
 31
0.0000000000000000
  0
ENDBLK
  5
3E0
100
AcDbEntity
  8
MAIN0
  6
CONTINUOUS
100
AcDbBlockEnd
  0
BLOCK
  5
3E2
100
AcDbEntity
  8
MAIN0
  6
CONTINUOUS
100
AcDbBlockBegin
  2
M4
 70
    64
 10
0.0
 20
0.0
 30
0.0
  0
LINE
  5
3E3
100
AcDbEntity
  8
MAIN0
  6
CONTINUOUS
 62
7
370
    25
100
AcDbLine
 10
877.5099305914147
 20
183.9570628196800
 30
0.0000000000000000
 11
1170.774099676218
 21
183.9570628196800
 31
0.0000000000000000
  0
LINE
  5
3E4
100
AcDbEntity
  8
MAIN0
  6
CONTINUOUS
 62
7
370
    25
100
AcDbLine
 10
877.5099305914147
 20
171.4570628196801
 30
0.0000000000000000
 11
1170.774099676218
 21
171.4570628196801
 31
0.0000000000000000
  0
LINE
  5
3E5
100
AcDbEntity
  8
MAIN0
  6
CONTINUOUS
 62
7
370
    25
100
AcDbLine
 10
877.5099305914147
 20
158.9570628196802
 30
0.0000000000000000
 11
1170.774099676218
 21
158.9570628196802
 31
0.0000000000000000
  0
LINE
  5
3E6
100
AcDbEntity
  8
MAIN0
  6
CONTINUOUS
 62
7
370
    25
100
AcDbLine
 10
877.5099305914147
 20
146.4570628196802
 30
0.0000000000000000
 11
1170.774099676218
 21
146.4570628196802
 31
0.0000000000000000
  0
MTEXT
  5
3E7
100
AcDbEntity
  8
MAIN0
  6
CONTINUOUS
 62
7
370
    25
100
AcDbMText
 10
880.0099305914147
 20
192.9570625812615
 30
0.0000000000000000
 40
5.579999828338623
 41
0.0000000000000000
 44
0.6677419652551825
 71
     1
 72
     1
  1
{\H0.88x;1.}
 11
1.000000000000000
 21
0.0000000000000000
 31
0.0000000000000000
  7
STANDARD
  0
MTEXT
  5
3E8
100
AcDbEntity
  8
MAIN0
  6
CONTINUOUS
 62
7
370
    25
100
AcDbMText
 10
880.0099305914147
 20
167.9570625812616
 30
0.0000000000000000
 40
5.579999828338623
 41
0.0000000000000000
 44
0.6677419652551825
 71
     1
 72
     1
  1
{\H0.88x;2.}
 11
1.000000000000000
 21
0.0000000000000000
 31
0.0000000000000000
  7
STANDARD
  0
MTEXT
  5
3E9
100
AcDbEntity
  8
MAIN0
  6
CONTINUOUS
 62
1
370
    60
100
AcDbMText
 10
881.2599305914147
 20
218.9570628196807
 30
0.0000000000000000
 40
10.80000000000000
 41
0.0000000000000000
 44
0.6719999790191651
 71
     1
 72
     1
  1
{\H0.80x;要注意}
 11
1.000000000000000
 21
0.0000000000000000
 31
0.0000000000000000
  7
STANDARD
  0
LINE
  5
3EA
100
AcDbEntity
  8
MAIN0
  6
CONTINUOUS
 62
1
370
    60
100
AcDbLine
 10
927.5099305914147
 20
222.7070628196807
 30
0.0000000000000000
 11
927.5099305914147
 21
200.2070628196807
 31
0.0000000000000000
  0
LINE
  5
3EB
100
AcDbEntity
  8
MAIN0
  6
CONTINUOUS
 62
1
370
    60
100
AcDbLine
 10
877.5099305914147
 20
200.2070628196807
 30
0.0000000000000000
 11
927.5099305914147
 21
200.2070628196807
 31
0.0000000000000000
  0
LINE
  5
3EC
100
AcDbEntity
  8
MAIN0
  6
CONTINUOUS
 62
1
370
    60
100
AcDbLine
 10
877.5099305914147
 20
222.7070628196807
 30
0.0000000000000000
 11
877.5099305914147
 21
200.2070628196807
 31
0.0000000000000000
  0
LINE
  5
3ED
100
AcDbEntity
  8
MAIN0
  6
CONTINUOUS
 62
1
370
    60
100
AcDbLine
 10
877.5099305914147
 20
222.7070628196807
 30
0.0000000000000000
 11
927.5099305914147
 21
222.7070628196807
 31
0.0000000000000000
  0
ENDBLK
  5
3EE
100
AcDbEntity
  8
MAIN0
  6
CONTINUOUS
100
AcDbBlockEnd
  0
BLOCK
  5
476
100
AcDbEntity
  8
WAKU0
  6
CONTINUOUS
100
AcDbBlockBegin
  2
M5
 70
    64
 10
0.0
 20
0.0
 30
0.0
  0
LINE
  5
477
100
AcDbEntity
  8
WAKU0
  6
CONTINUOUS
 62
1
370
    60
100
AcDbLine
 10
62.50000000000455
 20
30.00000000000001
 30
0.0000000000000000
 11
1455.000000000000
 21
30.00000000000000
 31
0.0000000000000000
  0
LINE
  5
478
100
AcDbEntity
  8
WAKU0
  6
CONTINUOUS
 62
1
370
    60
100
AcDbLine
 10
62.50000000000500
 20
1024.999999999991
 30
0.0000000000000000
 11
1454.999999999999
 21
1024.999999999991
 31
0.0000000000000000
  0
LINE
  5
479
100
AcDbEntity
  8
WAKU0
  6
CONTINUOUS
 62
1
370
    60
100
AcDbLine
 10
62.50000000000455
 20
30.00000000000001
 30
0.0000000000000000
 11
62.50000000000500
 21
1024.999999999991
 31
0.0000000000000000
  0
LINE
  5
47A
100
AcDbEntity
  8
WAKU0
  6
CONTINUOUS
 62
1
370
    60
100
AcDbLine
 10
1455.000000000000
 20
30.00000000000000
 30
0.0000000000000000
 11
1455.000000000000
 21
1024.999999999991
 31
0.0000000000000000
  0
LINE
  5
47B
100
AcDbEntity
  8
WAKU0
  6
CONTINUOUS
 62
3
370
    35
100
AcDbLine
 10
5.000000000002729
 20
1044.999999999992
 30
0.0000000000000000
 11
25.00000000000273
 21
1044.999999999992
 31
0.0000000000000000
  0
LINE
  5
47C
100
AcDbEntity
  8
WAKU0
  6
CONTINUOUS
 62
3
370
    35
100
AcDbLine
 10
1460.000000000000
 20
1044.999999999991
 30
0.0000000000000000
 11
1480.000000000000
 21
1044.999999999991
 31
0.0000000000000000
  0
LINE
  5
47D
100
AcDbEntity
  8
WAKU0
  6
CONTINUOUS
 62
3
370
    35
100
AcDbLine
 10
1480.000000000000
 20
1024.999999999991
 30
0.0000000000000000
 11
1480.000000000000
 21
1044.999999999991
 31
0.0000000000000000
  0
LINE
  5
47E
100
AcDbEntity
  8
WAKU0
  6
CONTINUOUS
 62
3
370
    35
100
AcDbLine
 10
5.000000000004548
 20
1024.999999999991
 30
0.0000000000000000
 11
5.000000000004548
 21
1044.999999999991
 31
0.0000000000000000
  0
LINE
  5
47F
100
AcDbEntity
  8
WAKU0
  6
CONTINUOUS
 62
3
370
    35
100
AcDbLine
 10
5.000000000004548
 20
5.000000000000107
 30
0.0000000000000000
 11
25.00000000000455
 21
5.000000000000107
 31
0.0000000000000000
  0
LINE
  5
480
100
AcDbEntity
  8
WAKU0
  6
CONTINUOUS
 62
3
370
    35
100
AcDbLine
 10
1460.000000000000
 20
5.000000000000011
 30
0.0000000000000000
 11
1480.000000000000
 21
5.000000000000011
 31
0.0000000000000000
  0
LINE
  5
481
100
AcDbEntity
  8
WAKU0
  6
CONTINUOUS
 62
3
370
    35
100
AcDbLine
 10
1480.000000000000
 20
25.00000000000018
 30
0.0000000000000000
 11
1480.000000000000
 21
5.000000000000195
 31
0.0000000000000000
  0
LINE
  5
482
100
AcDbEntity
  8
WAKU0
  6
CONTINUOUS
 62
3
370
    35
100
AcDbLine
 10
5.000000000004548
 20
5.000000000000256
 30
0.0000000000000000
 11
5.000000000004548
 21
25.00000000000018
 31
0.0000000000000000
  0
LINE
  5
483
100
AcDbEntity
  8
WAKU0
  6
CONTINUOUS
 62
3
370
    35
100
AcDbLine
 10
742.5000000000002
 20
-3.552713678800501e-015
 30
0.0000000000000000
 11
742.5000000000000
 21
30.00000000000003
 31
0.0000000000000000
  0
LINE
  5
484
100
AcDbEntity
  8
WAKU0
  6
CONTINUOUS
 62
3
370
    35
100
AcDbLine
 10
742.5000000000057
 20
1024.999999999995
 30
0.0000000000000000
 11
742.5000000000059
 21
1049.999999999995
 31
0.0000000000000000
  0
LINE
  5
485
100
AcDbEntity
  8
WAKU0
  6
CONTINUOUS
 62
3
370
    35
100
AcDbLine
 10
4.547473508864641e-012
 20
524.9999999999999
 30
0.0000000000000000
 11
62.50000000000455
 21
524.9999999999999
 31
0.0000000000000000
  0
LINE
  5
486
100
AcDbEntity
  8
WAKU0
  6
CONTINUOUS
 62
3
370
    35
100
AcDbLine
 10
1455.000000000000
 20
524.9999999999998
 30
0.0000000000000000
 11
1485.000000000000
 21
524.9999999999998
 31
0.0000000000000000
  0
LINE
  5
487
100
AcDbEntity
  8
WAKU0
  6
CONTINUOUS
 62
3
370
    35
100
AcDbLine
 10
567.5000000000091
 20
17.50000000000002
 30
0.0000000000000000
 11
917.4999999999999
 21
17.50000000000011
 31
0.0000000000000000
  0
LINE
  5
488
100
AcDbEntity
  8
WAKU0
  6
CONTINUOUS
 62
3
370
    35
100
AcDbLine
 10
52.50000000000273
 20
849.9999999999926
 30
0.0000000000000000
 11
62.50000000000273
 21
849.9999999999924
 31
0.0000000000000000
  0
LINE
  5
489
100
AcDbEntity
  8
WAKU0
  6
CONTINUOUS
 62
3
370
    35
100
AcDbLine
 10
1455.000000000000
 20
849.9999999999909
 30
0.0000000000000000
 11
1465.000000000000
 21
849.9999999999910
 31
0.0000000000000000
  0
LINE
  5
48A
100
AcDbEntity
  8
WAKU0
  6
CONTINUOUS
 62
3
370
    35
100
AcDbLine
 10
52.50000000000500
 20
687.4999999999926
 30
0.0000000000000000
 11
62.50000000000500
 21
687.4999999999924
 31
0.0000000000000000
  0
LINE
  5
48B
100
AcDbEntity
  8
WAKU0
  6
CONTINUOUS
 62
3
370
    35
100
AcDbLine
 10
1455.000000000000
 20
687.4999999999909
 30
0.0000000000000000
 11
1465.000000000000
 21
687.4999999999910
 31
0.0000000000000000
  0
LINE
  5
48C
100
AcDbEntity
  8
WAKU0
  6
CONTINUOUS
 62
3
370
    35
100
AcDbLine
 10
52.50000000000046
 20
362.4999999999999
 30
0.0000000000000000
 11
62.50000000000046
 21
362.4999999999998
 31
0.0000000000000000
  0
LINE
  5
48D
100
AcDbEntity
  8
WAKU0
  6
CONTINUOUS
 62
3
370
    35
100
AcDbLine
 10
1455.000000000000
 20
362.4999999999998
 30
0.0000000000000000
 11
1465.000000000000
 21
362.4999999999998
 31
0.0000000000000000
  0
LINE
  5
48E
100
AcDbEntity
  8
WAKU0
  6
CONTINUOUS
 62
3
370
    35
100
AcDbLine
 10
52.50000000000500
 20
199.9999999999999
 30
0.0000000000000000
 11
62.50000000000500
 21
199.9999999999999
 31
0.0000000000000000
  0
LINE
  5
48F
100
AcDbEntity
  8
WAKU0
  6
CONTINUOUS
 62
3
370
    35
100
AcDbLine
 10
1455.000000000000
 20
199.9999999999999
 30
0.0000000000000000
 11
1465.000000000000
 21
199.9999999999999
 31
0.0000000000000000
  0
LINE
  5
490
100
AcDbEntity
  8
WAKU0
  6
CONTINUOUS
 62
3
370
    35
100
AcDbLine
 10
917.5000000000000
 20
17.50000000000009
 30
0.0000000000000000
 11
917.4999999999998
 21
30.00000000000003
 31
0.0000000000000000
  0
LINE
  5
491
100
AcDbEntity
  8
WAKU0
  6
CONTINUOUS
 62
3
370
    35
100
AcDbLine
 10
917.4999999999997
 20
1024.999999999999
 30
0.0000000000000000
 11
917.4999999999998
 21
1034.999999999999
 31
0.0000000000000000
  0
LINE
  5
492
100
AcDbEntity
  8
WAKU0
  6
CONTINUOUS
 62
3
370
    35
100
AcDbLine
 10
567.5000000000091
 20
17.50000000000002
 30
0.0000000000000000
 11
567.5000000000091
 21
29.99999999999987
 31
0.0000000000000000
  0
LINE
  5
493
100
AcDbEntity
  8
WAKU0
  6
CONTINUOUS
 62
3
370
    35
100
AcDbLine
 10
567.5000000000091
 20
1024.999999999991
 30
0.0000000000000000
 11
567.5000000000091
 21
1034.999999999991
 31
0.0000000000000000
  0
LINE
  5
494
100
AcDbEntity
  8
WAKU0
  6
CONTINUOUS
 62
3
370
    35
100
AcDbLine
 10
592.5000000000091
 20
25.00000000000025
 30
0.0000000000000000
 11
592.5000000000091
 21
17.50000000000007
 31
0.0000000000000000
  0
LINE
  5
495
100
AcDbEntity
  8
WAKU0
  6
CONTINUOUS
 62
3
370
    35
100
AcDbLine
 10
617.5000000000091
 20
25.00000000000014
 30
0.0000000000000000
 11
617.5000000000091
 21
17.50000000000004
 31
0.0000000000000000
  0
LINE
  5
496
100
AcDbEntity
  8
WAKU0
  6
CONTINUOUS
 62
3
370
    35
100
AcDbLine
 10
642.5000000000000
 20
17.50000000000003
 30
0.0000000000000000
 11
642.5000000000000
 21
25.00000000000025
 31
0.0000000000000000
  0
LINE
  5
497
100
AcDbEntity
  8
WAKU0
  6
CONTINUOUS
 62
3
370
    35
100
AcDbLine
 10
667.5000000000000
 20
17.50000000000007
 30
0.0000000000000000
 11
667.5000000000000
 21
25.00000000000018
 31
0.0000000000000000
  0
LINE
  5
498
100
AcDbEntity
  8
WAKU0
  6
CONTINUOUS
 62
3
370
    35
100
AcDbLine
 10
692.5000000000000
 20
25.00000000000025
 30
0.0000000000000000
 11
692.5000000000000
 21
17.50000000000003
 31
0.0000000000000000
  0
LINE
  5
499
100
AcDbEntity
  8
WAKU0
  6
CONTINUOUS
 62
3
370
    35
100
AcDbLine
 10
717.5000000000000
 20
25.00000000000021
 30
0.0000000000000000
 11
717.5000000000000
 21
17.50000000000004
 31
0.0000000000000000
  0
LINE
  5
49A
100
AcDbEntity
  8
WAKU0
  6
CONTINUOUS
 62
3
370
    35
100
AcDbLine
 10
767.5000000000000
 20
25.00000000000018
 30
0.0000000000000000
 11
767.5000000000000
 21
17.50000000000002
 31
0.0000000000000000
  0
LINE
  5
49B
100
AcDbEntity
  8
WAKU0
  6
CONTINUOUS
 62
3
370
    35
100
AcDbLine
 10
792.5000000000000
 20
17.50000000000004
 30
0.0000000000000000
 11
792.5000000000000
 21
25.00000000000021
 31
0.0000000000000000
  0
LINE
  5
49C
100
AcDbEntity
  8
WAKU0
  6
CONTINUOUS
 62
3
370
    35
100
AcDbLine
 10
817.4999999999999
 20
25.00000000000018
 30
0.0000000000000000
 11
817.4999999999999
 21
17.50000000000002
 31
0.0000000000000000
  0
LINE
  5
49D
100
AcDbEntity
  8
WAKU0
  6
CONTINUOUS
 62
3
370
    35
100
AcDbLine
 10
842.5000000000000
 20
25.00000000000019
 30
0.0000000000000000
 11
842.4999999999998
 21
17.50000000000001
 31
0.0000000000000000
  0
LINE
  5
49E
100
AcDbEntity
  8
WAKU0
  6
CONTINUOUS
 62
3
370
    35
100
AcDbLine
 10
867.4999999999999
 20
25.00000000000028
 30
0.0000000000000000
 11
867.4999999999999
 21
17.50000000000009
 31
0.0000000000000000
  0
LINE
  5
49F
100
AcDbEntity
  8
WAKU0
  6
CONTINUOUS
 62
3
370
    35
100
AcDbLine
 10
892.4999999999999
 20
25.00000000000018
 30
0.0000000000000000
 11
892.4999999999999
 21
17.50000000000002
 31
0.0000000000000000
  0
LINE
  5
4A0
100
AcDbEntity
  8
WAKU0
  6
CONTINUOUS
 62
3
370
    35
100
AcDbLine
 10
1267.500000000000
 20
20.00000000000021
 30
0.0000000000000000
 11
1267.500000000000
 21
29.99999999999996
 31
0.0000000000000000
  0
LINE
  5
4A1
100
AcDbEntity
  8
WAKU0
  6
CONTINUOUS
 62
3
370
    35
100
AcDbLine
 10
1267.500000000000
 20
1024.999999999994
 30
0.0000000000000000
 11
1267.500000000000
 21
1034.999999999994
 31
0.0000000000000000
  0
LINE
  5
4A2
100
AcDbEntity
  8
WAKU0
  6
CONTINUOUS
 62
3
370
    35
100
AcDbLine
 10
1092.500000000000
 20
20.00000000000025
 30
0.0000000000000000
 11
1092.500000000000
 21
30.00000000000002
 31
0.0000000000000000
  0
LINE
  5
4A3
100
AcDbEntity
  8
WAKU0
  6
CONTINUOUS
 62
3
370
    35
100
AcDbLine
 10
1092.500000000000
 20
1024.999999999996
 30
0.0000000000000000
 11
1092.500000000000
 21
1034.999999999996
 31
0.0000000000000000
  0
LINE
  5
4A4
100
AcDbEntity
  8
WAKU0
  6
CONTINUOUS
 62
3
370
    35
100
AcDbLine
 10
392.5000000000091
 20
20.00000000000027
 30
0.0000000000000000
 11
392.5000000000091
 21
30.00000000000002
 31
0.0000000000000000
  0
LINE
  5
4A5
100
AcDbEntity
  8
WAKU0
  6
CONTINUOUS
 62
3
370
    35
100
AcDbLine
 10
392.5000000000091
 20
1024.999999999991
 30
0.0000000000000000
 11
392.5000000000091
 21
1034.999999999991
 31
0.0000000000000000
  0
LINE
  5
4A6
100
AcDbEntity
  8
WAKU0
  6
CONTINUOUS
 62
3
370
    35
100
AcDbLine
 10
217.5000000000091
 20
20.00000000000023
 30
0.0000000000000000
 11
217.5000000000091
 21
30.00000000000004
 31
0.0000000000000000
  0
LINE
  5
4A7
100
AcDbEntity
  8
WAKU0
  6
CONTINUOUS
 62
3
370
    35
100
AcDbLine
 10
217.5000000000091
 20
1024.999999999991
 30
0.0000000000000000
 11
217.5000000000091
 21
1034.999999999991
 31
0.0000000000000000
  0
MTEXT
  5
4A8
100
AcDbEntity
  8
WAKU0
  6
CONTINUOUS
 62
3
370
    35
100
AcDbMText
 10
140.0000000000046
 20
25.25000095367446
 30
0.0000000000000000
 40
5.580000686645508
 41
0.0000000000000000
 44
0.6719999870792528
 71
     1
 72
     1
  1
{\H0.81x;1}
 11
1.000000000000000
 21
0.0000000000000000
 31
0.0000000000000000
  7
STANDARD
  0
MTEXT
  5
4A9
100
AcDbEntity
  8
WAKU0
  6
CONTINUOUS
 62
3
370
    35
100
AcDbMText
 10
305.0000000000091
 20
25.25000095367432
 30
0.0000000000000000
 40
5.580000686645508
 41
0.0000000000000000
 44
0.6719999870792528
 71
     1
 72
     1
  1
{\H0.81x;2}
 11
1.000000000000000
 21
0.0000000000000000
 31
0.0000000000000000
  7
STANDARD
  0
MTEXT
  5
4AA
100
AcDbEntity
  8
WAKU0
  6
CONTINUOUS
 62
3
370
    35
100
AcDbMText
 10
480.0000000000091
 20
25.25000095367432
 30
0.0000000000000000
 40
5.580000686645508
 41
0.0000000000000000
 44
0.6719999870792528
 71
     1
 72
     1
  1
{\H0.81x;3}
 11
1.000000000000000
 21
0.0000000000000000
 31
0.0000000000000000
  7
STANDARD
  0
MTEXT
  5
4AB
100
AcDbEntity
  8
WAKU0
  6
CONTINUOUS
 62
3
370
    35
100
AcDbMText
 10
1004.999999999999
 20
25.25000095367417
 30
0.0000000000000000
 40
5.580000686645508
 41
0.0000000000000000
 44
0.6719999870792528
 71
     1
 72
     1
  1
{\H0.81x;6}
 11
1.000000000000000
 21
0.0000000000000000
 31
0.0000000000000000
  7
STANDARD
  0
MTEXT
  5
4AC
100
AcDbEntity
  8
WAKU0
  6
CONTINUOUS
 62
3
370
    35
100
AcDbMText
 10
1180.000000000000
 20
25.25000095367432
 30
0.0000000000000000
 40
5.580000686645508
 41
0.0000000000000000
 44
0.6719999870792528
 71
     1
 72
     1
  1
{\H0.81x;7}
 11
1.000000000000000
 21
0.0000000000000000
 31
0.0000000000000000
  7
STANDARD
  0
MTEXT
  5
4AD
100
AcDbEntity
  8
WAKU0
  6
CONTINUOUS
 62
3
370
    35
100
AcDbMText
 10
1361.250000000000
 20
25.25000095367432
 30
0.0000000000000000
 40
5.580000686645508
 41
0.0000000000000000
 44
0.6719999870792528
 71
     1
 72
     1
  1
{\H0.81x;8}
 11
1.000000000000000
 21
0.0000000000000000
 31
0.0000000000000000
  7
STANDARD
  0
MTEXT
  5
4AE
100
AcDbEntity
  8
WAKU0
  6
CONTINUOUS
 62
3
370
    35
100
AcDbMText
 10
140.0000000000046
 20
1037.750000953665
 30
0.0000000000000000
 40
5.580000686645508
 41
0.0000000000000000
 44
0.6719999870792528
 71
     1
 72
     1
  1
{\H0.81x;1}
 11
1.000000000000000
 21
0.0000000000000000
 31
0.0000000000000000
  7
STANDARD
  0
MTEXT
  5
4AF
100
AcDbEntity
  8
WAKU0
  6
CONTINUOUS
 62
3
370
    35
100
AcDbMText
 10
305.0000000000091
 20
1037.750000953665
 30
0.0000000000000000
 40
5.580000686645508
 41
0.0000000000000000
 44
0.6719999870792528
 71
     1
 72
     1
  1
{\H0.81x;2}
 11
1.000000000000000
 21
0.0000000000000000
 31
0.0000000000000000
  7
STANDARD
  0
MTEXT
  5
4B0
100
AcDbEntity
  8
WAKU0
  6
CONTINUOUS
 62
3
370
    35
100
AcDbMText
 10
480.0000000000091
 20
1037.750000953665
 30
0.0000000000000000
 40
5.580000686645508
 41
0.0000000000000000
 44
0.6719999870792528
 71
     1
 72
     1
  1
{\H0.81x;3}
 11
1.000000000000000
 21
0.0000000000000000
 31
0.0000000000000000
  7
STANDARD
  0
MTEXT
  5
4B1
100
AcDbEntity
  8
WAKU0
  6
CONTINUOUS
 62
3
370
    35
100
AcDbMText
 10
655.0000000000000
 20
1037.750000953665
 30
0.0000000000000000
 40
5.580000686645508
 41
0.0000000000000000
 44
0.6719999870792528
 71
     1
 72
     1
  1
{\H0.81x;4}
 11
1.000000000000000
 21
0.0000000000000000
 31
0.0000000000000000
  7
STANDARD
  0
MTEXT
  5
4B2
100
AcDbEntity
  8
WAKU0
  6
CONTINUOUS
 62
3
370
    35
100
AcDbMText
 10
829.9999999999994
 20
1037.750000953665
 30
0.0000000000000000
 40
5.580000686645508
 41
0.0000000000000000
 44
0.6719999870792528
 71
     1
 72
     1
  1
{\H0.81x;5}
 11
1.000000000000000
 21
0.0000000000000000
 31
0.0000000000000000
  7
STANDARD
  0
MTEXT
  5
4B3
100
AcDbEntity
  8
WAKU0
  6
CONTINUOUS
 62
3
370
    35
100
AcDbMText
 10
1004.999999999999
 20
1037.750000953665
 30
0.0000000000000000
 40
5.580000686645508
 41
0.0000000000000000
 44
0.6719999870792528
 71
     1
 72
     1
  1
{\H0.81x;6}
 11
1.000000000000000
 21
0.0000000000000000
 31
0.0000000000000000
  7
STANDARD
  0
MTEXT
  5
4B4
100
AcDbEntity
  8
WAKU0
  6
CONTINUOUS
 62
3
370
    35
100
AcDbMText
 10
1180.000000000000
 20
1037.750000953665
 30
0.0000000000000000
 40
5.580000686645508
 41
0.0000000000000000
 44
0.6719999870792528
 71
     1
 72
     1
  1
{\H0.81x;7}
 11
1.000000000000000
 21
0.0000000000000000
 31
0.0000000000000000
  7
STANDARD
  0
MTEXT
  5
4B5
100
AcDbEntity
  8
WAKU0
  6
CONTINUOUS
 62
3
370
    35
100
AcDbMText
 10
1361.250000000000
 20
1037.750000953665
 30
0.0000000000000000
 40
5.580000686645508
 41
0.0000000000000000
 44
0.6719999870792528
 71
     1
 72
     1
  1
{\H0.81x;8}
 11
1.000000000000000
 21
0.0000000000000000
 31
0.0000000000000000
  7
STANDARD
  0
MTEXT
  5
4B6
100
AcDbEntity
  8
WAKU0
  6
CONTINUOUS
 62
3
370
    35
100
AcDbMText
 10
52.50000000000455
 20
945.2500009536652
 30
0.0000000000000000
 40
5.580000686645508
 41
0.0000000000000000
 44
0.6719999870792528
 71
     1
 72
     1
  1
{\H0.81x;A}
 11
1.000000000000000
 21
0.0000000000000000
 31
0.0000000000000000
  7
STANDARD
  0
MTEXT
  5
4B7
100
AcDbEntity
  8
WAKU0
  6
CONTINUOUS
 62
3
370
    35
100
AcDbMText
 10
52.50000000000455
 20
782.7500009536652
 30
0.0000000000000000
 40
5.580000686645508
 41
0.0000000000000000
 44
0.6719999870792528
 71
     1
 72
     1
  1
{\H0.81x;B}
 11
1.000000000000000
 21
0.0000000000000000
 31
0.0000000000000000
  7
STANDARD
  0
MTEXT
  5
4B8
100
AcDbEntity
  8
WAKU0
  6
CONTINUOUS
 62
3
370
    35
100
AcDbMText
 10
52.50000000000455
 20
620.2500009536738
 30
0.0000000000000000
 40
5.580000686645508
 41
0.0000000000000000
 44
0.6719999870792528
 71
     1
 72
     1
  1
{\H0.81x;C}
 11
1.000000000000000
 21
0.0000000000000000
 31
0.0000000000000000
  7
STANDARD
  0
MTEXT
  5
4B9
100
AcDbEntity
  8
WAKU0
  6
CONTINUOUS
 62
3
370
    35
100
AcDbMText
 10
52.50000000000455
 20
457.7500009536738
 30
0.0000000000000000
 40
5.580000686645508
 41
0.0000000000000000
 44
0.6719999870792528
 71
     1
 72
     1
  1
{\H0.81x;D}
 11
1.000000000000000
 21
0.0000000000000000
 31
0.0000000000000000
  7
STANDARD
  0
MTEXT
  5
4BA
100
AcDbEntity
  8
WAKU0
  6
CONTINUOUS
 62
3
370
    35
100
AcDbMText
 10
52.50000000000455
 20
295.2500009536738
 30
0.0000000000000000
 40
5.580000686645508
 41
0.0000000000000000
 44
0.6719999870792528
 71
     1
 72
     1
  1
{\H0.81x;E}
 11
1.000000000000000
 21
0.0000000000000000
 31
0.0000000000000000
  7
STANDARD
  0
MTEXT
  5
4BB
100
AcDbEntity
  8
WAKU0
  6
CONTINUOUS
 62
3
370
    35
100
AcDbMText
 10
52.50000000000455
 20
132.7500009536738
 30
0.0000000000000000
 40
5.580000686645508
 41
0.0000000000000000
 44
0.6719999870792528
 71
     1
 72
     1
  1
{\H0.81x;F}
 11
1.000000000000000
 21
0.0000000000000000
 31
0.0000000000000000
  7
STANDARD
  0
MTEXT
  5
4BC
100
AcDbEntity
  8
WAKU0
  6
CONTINUOUS
 62
3
370
    35
100
AcDbMText
 10
1462.500000000000
 20
945.2500009536652
 30
0.0000000000000000
 40
5.580000686645508
 41
0.0000000000000000
 44
0.6719999870792528
 71
     1
 72
     1
  1
{\H0.81x;A}
 11
1.000000000000000
 21
0.0000000000000000
 31
0.0000000000000000
  7
STANDARD
  0
MTEXT
  5
4BD
100
AcDbEntity
  8
WAKU0
  6
CONTINUOUS
 62
3
370
    35
100
AcDbMText
 10
1462.500000000000
 20
782.7500009536652
 30
0.0000000000000000
 40
5.580000686645508
 41
0.0000000000000000
 44
0.6719999870792528
 71
     1
 72
     1
  1
{\H0.81x;B}
 11
1.000000000000000
 21
0.0000000000000000
 31
0.0000000000000000
  7
STANDARD
  0
MTEXT
  5
4BE
100
AcDbEntity
  8
WAKU0
  6
CONTINUOUS
 62
3
370
    35
100
AcDbMText
 10
1462.500000000000
 20
620.2500009536740
 30
0.0000000000000000
 40
5.580000686645508
 41
0.0000000000000000
 44
0.6719999870792528
 71
     1
 72
     1
  1
{\H0.81x;C}
 11
1.000000000000000
 21
0.0000000000000000
 31
0.0000000000000000
  7
STANDARD
  0
MTEXT
  5
4BF
100
AcDbEntity
  8
WAKU0
  6
CONTINUOUS
 62
3
370
    35
100
AcDbMText
 10
1462.500000000000
 20
457.7500009536739
 30
0.0000000000000000
 40
5.580000686645508
 41
0.0000000000000000
 44
0.6719999870792528
 71
     1
 72
     1
  1
{\H0.81x;D}
 11
1.000000000000000
 21
0.0000000000000000
 31
0.0000000000000000
  7
STANDARD
  0
MTEXT
  5
4C0
100
AcDbEntity
  8
WAKU0
  6
CONTINUOUS
 62
3
370
    35
100
AcDbMText
 10
1462.500000000000
 20
295.2500009536739
 30
0.0000000000000000
 40
5.580000686645508
 41
0.0000000000000000
 44
0.6719999870792528
 71
     1
 72
     1
  1
{\H0.81x;E}
 11
1.000000000000000
 21
0.0000000000000000
 31
0.0000000000000000
  7
STANDARD
  0
MTEXT
  5
4C1
100
AcDbEntity
  8
WAKU0
  6
CONTINUOUS
 62
3
370
    35
100
AcDbMText
 10
1462.500000000000
 20
132.7500009536738
 30
0.0000000000000000
 40
5.580000686645508
 41
0.0000000000000000
 44
0.6719999870792528
 71
     1
 72
     1
  1
{\H0.81x;F}
 11
1.000000000000000
 21
0.0000000000000000
 31
0.0000000000000000
  7
STANDARD
  0
ENDBLK
  5
4C2
100
AcDbEntity
  8
WAKU0
  6
CONTINUOUS
100
AcDbBlockEnd
  0
ENDSEC
  0
SECTION
  2
ENTITIES
  0
LINE
  5
46
100
AcDbEntity
  8
MAIN0
  6
CONTINUOUS
 62
3
370
    35
100
AcDbLine
 10
382.6285201444118
 20
269.2364710846388
 30
0.0000000000000000
 11
525.6285201444117
 21
269.2364710846389
 31
0.0000000000000000
  0
LINE
  5
47
100
AcDbEntity
  8
MAIN0
  6
CENTER
 62
5
370
    18
100
AcDbLine
 10
680.5217761995004
 20
619.2364710846352
 30
0.0000000000000000
 11
1415.449292826566
 21
619.2364710846352
 31
0.0000000000000000
  0
LINE
  5
48
100
AcDbEntity
  8
MAIN0
  6
CENTER
 62
5
370
    18
100
AcDbLine
 10
1115.847628152728
 20
580.7355919631440
 30
0.0000000000000000
 11
1386.081336406900
 21
424.7160877584865
 31
0.0000000000000000
  0
LINE
  5
49
100
AcDbEntity
  8
MAIN0
  6
CENTER
 62
5
370
    18
100
AcDbLine
 10
1147.129956128176
 20
449.5512522876576
 30
0.0000000000000000
 11
1115.750619573668
 21
503.9018575078686
 31
0.0000000000000000
  0
LINE
  5
4A
100
AcDbEntity
  8
MAIN0
  6
CENTER
 62
5
370
    18
100
AcDbLine
 10
981.6424816655467
 20
736.1839660731863
 30
0.0000000000000000
 11
952.3546281065899
 21
786.9120164819362
 31
0.0000000000000000
  0
LINE
  5
4B
100
AcDbEntity
  8
MAIN0
  6
CENTER
 62
5
370
    18
100
AcDbLine
 10
949.4952965330709
 20
446.6084181263144
 30
0.0000000000000000
 11
982.7498593611936
 21
504.2070105281142
 31
0.0000000000000000
  0
LINE
  5
4C
100
AcDbEntity
  8
MAIN0
  6
CONTINUOUS
 62
3
370
    35
100
AcDbLine
 10
503.6285201444119
 20
472.1364710846339
 30
0.0000000000000000
 11
528.6285201444117
 21
472.1364710846339
 31
0.0000000000000000
  0
LINE
  5
4D
100
AcDbEntity
  8
MAIN0
  6
CONTINUOUS
 62
3
370
    35
100
AcDbLine
 10
385.6285201444123
 20
442.1364710846339
 30
0.0000000000000000
 11
503.6285201444117
 21
442.1364710846339
 31
0.0000000000000000
  0
LINE
  5
4E
100
AcDbEntity
  8
MAIN0
  6
CONTINUOUS
 62
3
370
    35
100
AcDbLine
 10
379.6285201444119
 20
429.2364710846352
 30
0.0000000000000000
 11
385.6285201444119
 21
429.2364710846352
 31
0.0000000000000000
  0
LINE
  5
4F
100
AcDbEntity
  8
MAIN0
  6
CONTINUOUS
 62
3
370
    35
100
AcDbLine
 10
379.6285201444121
 20
809.2364710846352
 30
0.0000000000000000
 11
385.6285201444121
 21
809.2364710846352
 31
0.0000000000000000
  0
LINE
  5
50
100
AcDbEntity
  8
MAIN0
  6
CONTINUOUS
 62
3
370
    35
100
AcDbLine
 10
503.6285201444119
 20
436.1364710846378
 30
0.0000000000000000
 11
528.6285201444117
 21
436.1364710846378
 31
0.0000000000000000
  0
LINE
  5
51
100
AcDbEntity
  8
MAIN0
  6
CONTINUOUS
 62
3
370
    35
100
AcDbLine
 10
503.6285201444119
 20
436.1364710846377
 30
0.0000000000000000
 11
503.6285201444119
 21
472.1364710846339
 31
0.0000000000000000
  0
LINE
  5
52
100
AcDbEntity
  8
MAIN0
  6
CONTINUOUS
 62
3
370
    35
100
AcDbLine
 10
516.6285201444121
 20
732.2364710846352
 30
0.0000000000000000
 11
518.1285201444108
 21
732.2364710846352
 31
0.0000000000000000
  0
LINE
  5
53
100
AcDbEntity
  8
MAIN0
  6
CONTINUOUS
 62
3
370
    35
100
AcDbLine
 10
1089.547790390771
 20
732.2364710846352
 30
0.0000000000000000
 11
1008.776508365712
 21
732.2364710846352
 31
0.0000000000000000
  0
LINE
  5
54
100
AcDbEntity
  8
MAIN0
  6
CONTINUOUS
 62
3
370
    35
100
AcDbLine
 10
516.6285201444118
 20
499.2364710846352
 30
0.0000000000000000
 11
528.6285201444118
 21
499.2364710846352
 31
0.0000000000000000
  0
LINE
  5
55
100
AcDbEntity
  8
MAIN0
  6
CONTINUOUS
 62
3
370
    35
100
AcDbLine
 10
451.6285201444121
 20
720.2364710846352
 30
0.0000000000000000
 11
516.6285201444121
 21
720.2364710846352
 31
0.0000000000000000
  0
LINE
  5
56
100
AcDbEntity
  8
MAIN0
  6
CONTINUOUS
 62
3
370
    35
100
AcDbLine
 10
451.6285201444121
 20
518.2364710846352
 30
0.0000000000000000
 11
516.6285201444121
 21
518.2364710846352
 31
0.0000000000000000
  0
LINE
  5
57
100
AcDbEntity
  8
MAIN0
  6
CONTINUOUS
 62
3
370
    35
100
AcDbLine
 10
457.9586471633333
 20
716.7364710846352
 30
0.0000000000000000
 11
528.6285201444119
 21
716.7364710846352
 31
0.0000000000000000
  0
LINE
  5
58
100
AcDbEntity
  8
MAIN0
  6
CONTINUOUS
 62
3
370
    35
100
AcDbLine
 10
457.9586471633333
 20
521.7364710846352
 30
0.0000000000000000
 11
528.6285201444118
 21
521.7364710846352
 31
0.0000000000000000
  0
LINE
  5
59
100
AcDbEntity
  8
MAIN0
  6
CONTINUOUS
 62
3
370
    35
100
AcDbLine
 10
453.6285201444118
 20
518.2364710846352
 30
0.0000000000000000
 11
453.6285201444118
 21
720.2364710846352
 31
0.0000000000000000
  0
LINE
  5
5A
100
AcDbEntity
  8
MAIN0
  6
CONTINUOUS
 62
3
370
    35
100
AcDbLine
 10
453.6285201444122
 20
719.2364710846343
 30
0.0000000000000000
 11
457.9586471633332
 21
716.7364710846350
 31
0.0000000000000000
  0
LINE
  5
5B
100
AcDbEntity
  8
MAIN0
  6
CONTINUOUS
 62
3
370
    35
100
AcDbLine
 10
453.6285201444123
 20
519.2364710846359
 30
0.0000000000000000
 11
457.9586471633334
 21
521.7364710846352
 31
0.0000000000000000
  0
LINE
  5
5C
100
AcDbEntity
  8
MAIN0
  6
CONTINUOUS
 62
3
370
    35
100
AcDbLine
 10
518.1285201444111
 20
732.2364710846350
 30
0.0000000000000000
 11
528.6285201444119
 21
726.1742932581435
 31
0.0000000000000000
  0
LINE
  5
5D
100
AcDbEntity
  8
MAIN0
  6
CONTINUOUS
 62
3
370
    35
100
AcDbLine
 10
516.6285201444121
 20
720.2364710846352
 30
0.0000000000000000
 11
516.6285201444121
 21
742.2364710846350
 31
0.0000000000000000
  0
LINE
  5
5E
100
AcDbEntity
  8
MAIN0
  6
CENTER
 62
5
370
    18
100
AcDbLine
 10
531.5742437720093
 20
506.7364710846353
 30
0.0000000000000000
 11
501.4086914459455
 21
506.7364710846353
 31
0.0000000000000000
  0
LINE
  5
5F
100
AcDbEntity
  8
MAIN0
  6
CONTINUOUS
 62
3
370
    35
100
AcDbLine
 10
463.1285201444121
 20
970.2364710846316
 30
0.0000000000000000
 11
531.6285201444119
 21
970.2364710846316
 31
0.0000000000000000
  0
LINE
  5
60
100
AcDbEntity
  8
MAIN0
  6
CONTINUOUS
 62
3
370
    35
100
AcDbLine
 10
382.6285201444121
 20
969.2364710846316
 30
0.0000000000000000
 11
463.1285201444121
 21
969.2364710846316
 31
0.0000000000000000
  0
LINE
  5
61
100
AcDbEntity
  8
MAIN0
  6
CONTINUOUS
 62
3
370
    35
100
AcDbLine
 10
528.6285201444117
 20
272.2364710846389
 30
0.0000000000000000
 11
528.6285201444119
 21
742.2364710846352
 31
0.0000000000000000
  0
LINE
  5
62
100
AcDbEntity
  8
MAIN0
  6
CONTINUOUS
 62
3
370
    35
100
AcDbLine
 10
531.6285201444107
 20
970.2364710846327
 30
0.0000000000000000
 11
533.6285201444102
 21
969.0817705462538
 31
0.0000000000000000
  0
LINE
  5
63
100
AcDbEntity
  8
MAIN0
  6
CONTINUOUS
 62
3
370
    35
100
AcDbLine
 10
531.6285201444118
 20
742.2364710846351
 30
0.0000000000000000
 11
533.6285201444118
 21
743.3911716230143
 31
0.0000000000000000
  0
LINE
  5
64
100
AcDbEntity
  8
MAIN0
  6
CONTINUOUS
 62
3
370
    35
100
AcDbLine
 10
539.6285201444117
 20
851.7364710846351
 30
0.0000000000000000
 11
539.6285201444117
 21
951.7364710846316
 31
0.0000000000000000
  0
LINE
  5
65
100
AcDbEntity
  8
MAIN0
  6
CONTINUOUS
 62
3
370
    35
100
AcDbLine
 10
533.6285201444117
 20
951.7364710846316
 30
0.0000000000000000
 11
539.6285201444117
 21
951.7364710846316
 31
0.0000000000000000
  0
LINE
  5
66
100
AcDbEntity
  8
MAIN0
  6
CONTINUOUS
 62
3
370
    35
100
AcDbLine
 10
533.6285201444117
 20
851.7364710846351
 30
0.0000000000000000
 11
539.6285201444117
 21
851.7364710846351
 31
0.0000000000000000
  0
LINE
  5
67
100
AcDbEntity
  8
MAIN0
  6
CONTINUOUS
 62
3
370
    35
100
AcDbLine
 10
1016.662149378242
 20
971.7364710846310
 30
0.0000000000000000
 11
1081.662149378242
 21
971.7364710846310
 31
0.0000000000000000
  0
LINE
  5
68
100
AcDbEntity
  8
MAIN0
  6
CONTINUOUS
 62
3
370
    35
100
AcDbLine
 10
1081.662149378242
 20
732.2364710846352
 30
0.0000000000000000
 11
1081.662149378242
 21
971.7364710846312
 31
0.0000000000000000
  0
LINE
  5
69
100
AcDbEntity
  8
MAIN0
  6
CONTINUOUS
 62
3
370
    35
100
AcDbLine
 10
1016.662149378242
 20
732.2364710846352
 30
0.0000000000000000
 11
1016.662149378242
 21
971.7364710846310
 31
0.0000000000000000
  0
LINE
  5
6A
100
AcDbEntity
  8
MAIN0
  6
CENTER
 62
5
370
    18
100
AcDbLine
 10
1071.569811055362
 20
931.7364710846316
 30
0.0000000000000000
 11
1026.197210446612
 21
931.7364710846316
 31
0.0000000000000000
  0
LINE
  5
6B
100
AcDbEntity
  8
MAIN0
  6
CENTER
 62
5
370
    18
100
AcDbLine
 10
1026.587198309281
 20
871.7364710846349
 30
0.0000000000000000
 11
1070.269733495928
 21
871.7364710846349
 31
0.0000000000000000
  0
LINE
  5
6C
100
AcDbEntity
  8
MAIN0
  6
CONTINUOUS
 62
3
370
    35
100
AcDbLine
 10
1061.662149378242
 20
742.2364710846350
 30
0.0000000000000000
 11
1061.662149378242
 21
791.7364710846352
 31
0.0000000000000000
  0
LINE
  5
6D
100
AcDbEntity
  8
MAIN0
  6
CONTINUOUS
 62
3
370
    35
100
AcDbLine
 10
1036.662149378242
 20
742.2364710846350
 30
0.0000000000000000
 11
1036.662149378241
 21
791.7364710846351
 31
0.0000000000000000
  0
LINE
  5
6E
100
AcDbEntity
  8
MAIN0
  6
CENTER
 62
5
370
    18
100
AcDbLine
 10
769.9726143597670
 20
477.8069306781644
 30
0.0000000000000000
 11
785.7192645060004
 21
450.5329325758762
 31
0.0000000000000000
  0
LINE
  5
6F
100
AcDbEntity
  8
MAIN0
  6
CENTER
 62
5
370
    18
100
AcDbLine
 10
839.3077047393143
 20
477.7150313934083
 30
0.0000000000000000
 11
822.3792733239491
 21
507.0359346972660
 31
0.0000000000000000
  0
LINE
  5
70
100
AcDbEntity
  8
MAIN0
  6
CONTINUOUS
 62
3
370
    35
100
AcDbLine
 10
974.1358856322461
 20
706.4037991199734
 30
0.0000000000000000
 11
974.6371621941978
 21
703.5609018748942
 31
0.0000000000000000
  0
LINE
  5
71
100
AcDbEntity
  8
MAIN0
  6
CONTINUOUS
 62
3
370
    35
100
AcDbLine
 10
974.6371621941970
 20
703.5609018748954
 30
0.0000000000000000
 11
977.3498236806768
 21
702.5735769043802
 31
0.0000000000000000
  0
LINE
  5
72
100
AcDbEntity
  8
MAIN0
  6
CONTINUOUS
 62
3
370
    35
100
AcDbLine
 10
977.3498236806776
 20
702.5735769043768
 30
0.0000000000000000
 11
979.5612047749866
 21
704.4291459650037
 31
0.0000000000000000
  0
LINE
  5
73
100
AcDbEntity
  8
MAIN0
  6
CONTINUOUS
 62
3
370
    35
100
AcDbLine
 10
979.5612047749844
 20
704.4291459650037
 30
0.0000000000000000
 11
979.0599216884032
 21
707.2720416514906
 31
0.0000000000000000
  0
LINE
  5
74
100
AcDbEntity
  8
MAIN0
  6
CONTINUOUS
 62
3
370
    35
100
AcDbLine
 10
979.0599216884039
 20
707.2720416514920
 30
0.0000000000000000
 11
976.3472617340121
 21
708.2593679075828
 31
0.0000000000000000
  0
LINE
  5
75
100
AcDbEntity
  8
MAIN0
  6
CONTINUOUS
 62
3
370
    35
100
AcDbLine
 10
976.3472617340131
 20
708.2593679075814
 30
0.0000000000000000
 11
974.1358856322469
 21
706.4037991199733
 31
0.0000000000000000
  0
LINE
  5
76
100
AcDbEntity
  8
MAIN0
  6
CONTINUOUS
 62
3
370
    35
100
AcDbLine
 10
405.6285201444119
 20
510.7364710846352
 30
0.0000000000000000
 11
427.6285201444122
 21
510.7364710846352
 31
0.0000000000000000
  0
LINE
  5
77
100
AcDbEntity
  8
MAIN0
  6
CONTINUOUS
 62
3
370
    35
100
AcDbLine
 10
440.6285201444121
 20
516.2364710846352
 30
0.0000000000000000
 11
440.6285201444121
 21
722.2364710846352
 31
0.0000000000000000
  0
LINE
  5
78
100
AcDbEntity
  8
MAIN0
  6
CONTINUOUS
 62
3
370
    35
100
AcDbLine
 10
451.1285201444121
 20
511.9864710846353
 30
0.0000000000000000
 11
451.1285201444121
 21
726.4864710846351
 31
0.0000000000000000
  0
LINE
  5
79
100
AcDbEntity
  8
MAIN0
  6
CONTINUOUS
 62
3
370
    35
100
AcDbLine
 10
385.6285201444121
 20
459.2364710846352
 30
0.0000000000000000
 11
488.6285201444118
 21
459.2364710846352
 31
0.0000000000000000
  0
LINE
  5
7A
100
AcDbEntity
  8
MAIN0
  6
CONTINUOUS
 62
3
370
    35
100
AcDbLine
 10
427.6285201444121
 20
505.4864710846352
 30
0.0000000000000000
 11
427.6285201444121
 21
510.7364710846352
 31
0.0000000000000000
  0
LINE
  5
7B
100
AcDbEntity
  8
MAIN0
  6
CONTINUOUS
 62
3
370
    35
100
AcDbLine
 10
427.6285201444121
 20
505.4864710846352
 30
0.0000000000000000
 11
439.6285201444121
 21
505.4864710846352
 31
0.0000000000000000
  0
LINE
  5
7C
100
AcDbEntity
  8
MAIN0
  6
CONTINUOUS
 62
3
370
    35
100
AcDbLine
 10
439.6285201444121
 20
499.2364710846351
 30
0.0000000000000000
 11
439.6285201444121
 21
511.9864710846353
 31
0.0000000000000000
  0
LINE
  5
7D
100
AcDbEntity
  8
MAIN0
  6
CONTINUOUS
 62
3
370
    35
100
AcDbLine
 10
439.6285201444121
 20
511.9864710846352
 30
0.0000000000000000
 11
451.6285201444122
 21
511.9864710846352
 31
0.0000000000000000
  0
LINE
  5
7E
100
AcDbEntity
  8
MAIN0
  6
CONTINUOUS
 62
3
370
    35
100
AcDbLine
 10
446.1285201444121
 20
521.7364710846352
 30
0.0000000000000000
 11
451.1285201444121
 21
521.7364710846352
 31
0.0000000000000000
  0
LINE
  5
7F
100
AcDbEntity
  8
MAIN0
  6
CONTINUOUS
 62
3
370
    35
100
AcDbLine
 10
427.6285201444121
 20
732.9864710846350
 30
0.0000000000000000
 11
427.6285201444121
 21
727.7364710846351
 31
0.0000000000000000
  0
LINE
  5
80
100
AcDbEntity
  8
MAIN0
  6
CONTINUOUS
 62
3
370
    35
100
AcDbLine
 10
439.6285201444121
 20
726.4864710846351
 30
0.0000000000000000
 11
451.6285201444122
 21
726.4864710846351
 31
0.0000000000000000
  0
LINE
  5
81
100
AcDbEntity
  8
MAIN0
  6
CONTINUOUS
 62
3
370
    35
100
AcDbLine
 10
446.1285201444121
 20
716.7364710846351
 30
0.0000000000000000
 11
451.1285201444121
 21
716.7364710846351
 31
0.0000000000000000
  0
LINE
  5
82
100
AcDbEntity
  8
MAIN0
  6
CONTINUOUS
 62
3
370
    35
100
AcDbLine
 10
385.6285201444121
 20
779.2364710846351
 30
0.0000000000000000
 11
435.9477182091256
 21
779.2364710846351
 31
0.0000000000000000
  0
LINE
  5
83
100
AcDbEntity
  8
MAIN0
  6
CONTINUOUS
 62
3
370
    35
100
AcDbLine
 10
994.7167437981559
 20
726.1742932581434
 30
0.0000000000000000
 11
1103.607554958327
 21
726.1742932581434
 31
0.0000000000000000
  0
LINE
  5
84
100
AcDbEntity
  8
MAIN0
  6
CONTINUOUS
 62
3
370
    35
100
AcDbLine
 10
457.9586471633331
 20
521.7364710846354
 30
0.0000000000000000
 11
457.9586471633331
 21
535.6385578702935
 31
0.0000000000000000
  0
LINE
  5
85
100
AcDbEntity
  8
MAIN0
  6
CONTINUOUS
 62
3
370
    35
100
AcDbLine
 10
457.9586471633331
 20
706.8815224773016
 30
0.0000000000000000
 11
457.9586471633331
 21
716.7364710846351
 31
0.0000000000000000
  0
LINE
  5
86
100
AcDbEntity
  8
MAIN0
  6
CONTINUOUS
 62
7
370
    25
100
AcDbLine
 10
451.6285201444121
 20
511.9864710846352
 30
0.0000000000000000
 11
451.6285201444121
 21
536.2535455393393
 31
0.0000000000000000
  0
LINE
  5
87
100
AcDbEntity
  8
MAIN0
  6
CONTINUOUS
 62
7
370
    25
100
AcDbLine
 10
451.6285201444121
 20
706.8222188304592
 30
0.0000000000000000
 11
451.6285201444121
 21
726.4864710846675
 31
0.0000000000000000
  0
LINE
  5
88
100
AcDbEntity
  8
MAIN0
  6
CONTINUOUS
 62
3
370
    35
100
AcDbLine
 10
770.5680579511293
 20
407.3748836698757
 30
0.0000000000000000
 11
760.1872326499024
 21
417.7557089711025
 31
0.0000000000000000
  0
LINE
  5
89
100
AcDbEntity
  8
MAIN0
  6
CONTINUOUS
 62
3
370
    35
100
AcDbLine
 10
851.8112429983567
 20
496.0582678543599
 30
0.0000000000000000
 11
843.8112429983577
 21
509.9146743149092
 31
0.0000000000000000
  0
LINE
  5
8A
100
AcDbEntity
  8
MAIN0
  6
CONTINUOUS
 62
3
370
    35
100
AcDbLine
 10
754.9587026199151
 20
463.8117886319427
 30
0.0000000000000000
 11
767.4587026199116
 21
442.1611535373379
 31
0.0000000000000000
  0
LINE
  5
8B
100
AcDbEntity
  8
MAIN0
  6
CONTINUOUS
 62
3
370
    35
100
AcDbLine
 10
851.8112429983578
 20
496.0582678543603
 30
0.0000000000000000
 11
850.1641286813288
 21
489.9111535373341
 31
0.0000000000000000
  0
LINE
  5
8C
100
AcDbEntity
  8
MAIN0
  6
CONTINUOUS
 62
3
370
    35
100
AcDbLine
 10
843.8112429983594
 20
509.9146743149107
 30
0.0000000000000000
 11
837.6641286813335
 21
511.5617886319395
 31
0.0000000000000000
  0
LINE
  5
8D
100
AcDbEntity
  8
MAIN0
  6
CENTER
 62
5
370
    18
100
AcDbLine
 10
1328.351684396715
 20
477.8069306781627
 30
0.0000000000000000
 11
1312.605034250482
 21
450.5329325758753
 31
0.0000000000000000
  0
LINE
  5
8E
100
AcDbEntity
  8
MAIN0
  6
CENTER
 62
5
370
    18
100
AcDbLine
 10
1259.016594017167
 20
477.7150313934055
 30
0.0000000000000000
 11
1275.945025432533
 21
507.0359346972650
 31
0.0000000000000000
  0
LINE
  5
8F
100
AcDbEntity
  8
MAIN0
  6
CONTINUOUS
 62
3
370
    35
100
AcDbLine
 10
1368.137066106579
 20
469.7172331981694
 30
0.0000000000000000
 11
1353.137066106578
 21
443.7364710846332
 31
0.0000000000000000
  0
LINE
  5
90
100
AcDbEntity
  8
MAIN0
  6
CONTINUOUS
 62
3
370
    35
100
AcDbLine
 10
1371.936711879077
 20
483.8977042718914
 30
0.0000000000000000
 11
1368.137066106580
 21
469.7172331981697
 31
0.0000000000000000
  0
LINE
  5
91
100
AcDbEntity
  8
MAIN0
  6
CONTINUOUS
 62
3
370
    35
100
AcDbLine
 10
1338.137066106578
 20
417.7557089711007
 30
0.0000000000000000
 11
1353.137066106578
 21
443.7364710846348
 31
0.0000000000000000
  0
LINE
  5
92
100
AcDbEntity
  8
MAIN0
  6
CONTINUOUS
 62
3
370
    35
100
AcDbLine
 10
1327.756240805353
 20
407.3748836698745
 30
0.0000000000000000
 11
1338.137066106578
 21
417.7557089710991
 31
0.0000000000000000
  0
LINE
  5
93
100
AcDbEntity
  8
MAIN0
  6
CONTINUOUS
 62
3
370
    35
100
AcDbLine
 10
1246.513055758122
 20
496.0582678543605
 30
0.0000000000000000
 11
1254.513055758121
 21
509.9146743149085
 31
0.0000000000000000
  0
LINE
  5
94
100
AcDbEntity
  8
MAIN0
  6
CONTINUOUS
 62
3
370
    35
100
AcDbLine
 10
1343.365596136566
 20
463.8117886319411
 30
0.0000000000000000
 11
1330.865596136570
 21
442.1611535373357
 31
0.0000000000000000
  0
LINE
  5
95
100
AcDbEntity
  8
MAIN0
  6
CONTINUOUS
 62
3
370
    35
100
AcDbLine
 10
1246.513055758122
 20
496.0582678543615
 30
0.0000000000000000
 11
1248.160170075151
 21
489.9111535373357
 31
0.0000000000000000
  0
LINE
  5
96
100
AcDbEntity
  8
MAIN0
  6
CONTINUOUS
 62
3
370
    35
100
AcDbLine
 10
1254.513055758122
 20
509.9146743149124
 30
0.0000000000000000
 11
1260.660170075148
 21
511.5617886319412
 31
0.0000000000000000
  0
LINE
  5
97
100
AcDbEntity
  8
MAIN0
  6
CONTINUOUS
 62
3
370
    35
100
AcDbLine
 10
1004.981678304522
 20
966.4368253121390
 30
0.0000000000000000
 11
1016.662149378242
 21
969.5665981035573
 31
0.0000000000000000
  0
LINE
  5
98
100
AcDbEntity
  8
MAIN0
  6
CONTINUOUS
 62
3
370
    35
100
AcDbLine
 10
1081.662149378239
 20
969.5665981035564
 30
0.0000000000000000
 11
1093.342620451950
 21
966.4368253121406
 31
0.0000000000000000
  0
LINE
  5
99
100
AcDbEntity
  8
MAIN0
  6
CENTER
 62
5
370
    18
100
AcDbLine
 10
1184.488183957100
 20
582.9759694043237
 30
0.0000000000000000
 11
1141.933726511962
 21
594.3784019110933
 31
0.0000000000000000
  0
LINE
  5
9A
100
AcDbEntity
  8
MAIN0
  6
CONTINUOUS
 62
3
370
    35
100
AcDbLine
 10
516.6285201444121
 20
499.2364710846352
 30
0.0000000000000000
 11
516.6285201444121
 21
504.2364700846353
 31
0.0000000000000000
  0
LINE
  5
9B
100
AcDbEntity
  8
MAIN0
  6
CONTINUOUS
 62
3
370
    35
100
AcDbLine
 10
516.6285201444121
 20
509.2364700846353
 30
0.0000000000000000
 11
516.6285201444121
 21
518.2364710846352
 31
0.0000000000000000
  0
ARC
  5
9C
100
AcDbEntity
  8
MAIN0
  6
CENTER
 62
5
370
    18
100
AcDbCircle
 10
1049.162149378242
 20
619.2364710846351
 30
0.0000000000000000
 40
165.1000000000000
100
AcDbArc
 50
288.1911431878288
 51
311.4268307452969
  0
CIRCLE
  5
9D
100
AcDbEntity
  8
MAIN0
  6
CONTINUOUS
 62
3
370
    35
100
AcDbCircle
 10
1131.712149378241
 20
476.2556769198242
 30
0.0000000000000000
 40
12.00000000000000
  0
CIRCLE
  5
9E
100
AcDbEntity
  8
MAIN0
  6
CONTINUOUS
 62
3
370
    35
100
AcDbCircle
 10
1131.712149378241
 20
476.2556769198242
 30
0.0000000000000000
 40
17.99999999999977
  0
ARC
  5
9F
100
AcDbEntity
  8
MAIN0
  6
CENTER
 62
5
370
    18
100
AcDbCircle
 10
1049.162149378242
 20
619.2364710846351
 30
0.0000000000000000
 40
165.1000000000000
100
AcDbArc
 50
347.7179674042464
 51
372.5803354487101
  0
CIRCLE
  5
A0
100
AcDbEntity
  8
MAIN0
  6
CONTINUOUS
 62
3
370
    35
100
AcDbCircle
 10
1214.262149378240
 20
619.2364710846347
 30
0.0000000000000000
 40
12.00000000000000
  0
CIRCLE
  5
A1
100
AcDbEntity
  8
MAIN0
  6
CONTINUOUS
 62
3
370
    35
100
AcDbCircle
 10
1214.262149378240
 20
619.2364710846347
 30
0.0000000000000000
 40
17.99999999999977
  0
CIRCLE
  5
A2
100
AcDbEntity
  8
MAIN0
  6
CONTINUOUS
 62
3
370
    35
100
AcDbCircle
 10
1131.712149378241
 20
762.2172652494455
 30
0.0000000000000000
 40
12.00000000000000
  0
CIRCLE
  5
A3
100
AcDbEntity
  8
MAIN0
  6
CONTINUOUS
 62
3
370
    35
100
AcDbCircle
 10
1131.712149378241
 20
762.2172652494455
 30
0.0000000000000000
 40
17.99999999999977
  0
ARC
  5
A4
100
AcDbEntity
  8
MAIN0
  6
CENTER
 62
5
370
    18
100
AcDbCircle
 10
1049.162149378242
 20
619.2364710846351
 30
0.0000000000000000
 40
165.1000000000000
100
AcDbArc
 50
108.0230415518254
 51
131.4709204577144
  0
CIRCLE
  5
A5
100
AcDbEntity
  8
MAIN0
  6
CONTINUOUS
 62
3
370
    35
100
AcDbCircle
 10
966.6121493782423
 20
762.2172652494460
 30
0.0000000000000000
 40
17.99999999999977
  0
ARC
  5
A6
100
AcDbEntity
  8
MAIN0
  6
CENTER
 62
5
370
    18
100
AcDbCircle
 10
1049.162149378242
 20
619.2364710846351
 30
0.0000000000000000
 40
165.1000000000000
100
AcDbArc
 50
168.1885068544798
 51
192.6702584181471
  0
CIRCLE
  5
A7
100
AcDbEntity
  8
MAIN0
  6
CONTINUOUS
 62
3
370
    35
100
AcDbCircle
 10
884.0621493782394
 20
619.2364710846356
 30
0.0000000000000000
 40
17.99999999999977
  0
CIRCLE
  5
A8
100
AcDbEntity
  8
MAIN0
  6
CONTINUOUS
 62
3
370
    35
100
AcDbCircle
 10
966.6121493782387
 20
476.2556769198247
 30
0.0000000000000000
 40
12.00000000000000
  0
CIRCLE
  5
A9
100
AcDbEntity
  8
MAIN0
  6
CONTINUOUS
 62
3
370
    35
100
AcDbCircle
 10
966.6121493782387
 20
476.2556769198247
 30
0.0000000000000000
 40
17.99999999999977
  0
CIRCLE
  5
AA
100
AcDbEntity
  8
MAIN0
  6
CONTINUOUS
 62
3
370
    35
100
AcDbCircle
 10
1049.162149378242
 20
931.7364710846316
 30
0.0000000000000000
 40
16.00000000000000
  0
CIRCLE
  5
AB
100
AcDbEntity
  8
MAIN0
  6
CONTINUOUS
 62
3
370
    35
100
AcDbCircle
 10
1049.162149378242
 20
871.7364710846350
 30
0.0000000000000000
 40
16.00000000000000
  0
CIRCLE
  5
AC
100
AcDbEntity
  8
MAIN0
  6
CONTINUOUS
 62
3
370
    35
100
AcDbCircle
 10
976.8485432885053
 20
705.4164709355200
 30
0.0000000000000000
 40
5.499999999999996
  0
CIRCLE
  5
AD
100
AcDbEntity
  8
MAIN0
  6
CONTINUOUS
 62
3
370
    35
100
AcDbCircle
 10
976.8485432885053
 20
705.4164709355200
 30
0.0000000000000000
 40
4.999999999999996
  0
ARC
  5
AE
100
AcDbEntity
  8
MAIN0
  6
CENTER
 62
5
370
    18
100
AcDbCircle
 10
1049.162149378242
 20
619.2364710846351
 30
0.0000000000000000
 40
165.1000000000000
100
AcDbArc
 50
49.71045140463428
 51
72.77653609637274
  0
ARC
  5
AF
100
AcDbEntity
  8
MAIN0
  6
CENTER
 62
5
370
    18
100
AcDbCircle
 10
1049.162149378242
 20
619.2364710846351
 30
0.0000000000000000
 40
237.5000000000000
100
AcDbArc
 50
51.78219788702434
 51
68.85556346635650
  0
CIRCLE
  5
B0
100
AcDbEntity
  8
MAIN0
  6
CONTINUOUS
 62
5
370
    18
100
AcDbCircle
 10
1267.833563833811
 20
492.9864710846352
 30
0.0000000000000000
 40
9.999999999999998
  0
CIRCLE
  5
B1
100
AcDbEntity
  8
MAIN0
  6
CONTINUOUS
 62
3
370
    35
100
AcDbCircle
 10
1267.833563833811
 20
492.9864710846352
 30
0.0000000000000000
 40
8.749999999999996
  0
CIRCLE
  5
B2
100
AcDbEntity
  8
MAIN0
  6
CONTINUOUS
 62
5
370
    18
100
AcDbCircle
 10
1319.795088060878
 20
462.9864710846351
 30
0.0000000000000000
 40
9.999999999999998
  0
CIRCLE
  5
B3
100
AcDbEntity
  8
MAIN0
  6
CONTINUOUS
 62
3
370
    35
100
AcDbCircle
 10
1319.795088060878
 20
462.9864710846351
 30
0.0000000000000000
 40
8.749999999999996
  0
ARC
  5
B4
100
AcDbEntity
  8
MAIN0
  6
CONTINUOUS
 62
3
370
    35
100
AcDbCircle
 10
1049.162149378242
 20
619.2364710846351
 30
0.0000000000000000
 40
350.0000000000000
100
AcDbArc
 50
335.3279979039940
 51
444.6720020959921
  0
ARC
  5
B5
100
AcDbEntity
  8
MAIN0
  6
CONTINUOUS
 62
3
370
    35
100
AcDbCircle
 10
1049.162149378242
 20
619.2364710846351
 30
0.0000000000000000
 40
350.0000000000000
100
AcDbArc
 50
95.32799790400118
 51
204.6720020959990
  0
LINE
  5
B6
100
AcDbEntity
  8
MAIN0
  6
CONTINUOUS
 62
3
370
    35
100
AcDbLine
 10
516.6285201444121
 20
742.2364710846352
 30
0.0000000000000000
 11
531.6285201444119
 21
742.2364710846352
 31
0.0000000000000000
  0
LINE
  5
B7
100
AcDbEntity
  8
MAIN0
  6
CONTINUOUS
 62
3
370
    35
100
AcDbLine
 10
1016.662149378242
 20
742.2364710846350
 30
0.0000000000000000
 11
1036.662149378242
 21
742.2364710846350
 31
0.0000000000000000
  0
LINE
  5
B8
100
AcDbEntity
  8
MAIN0
  6
CONTINUOUS
 62
3
370
    35
100
AcDbLine
 10
1061.662149378242
 20
742.2364710846350
 30
0.0000000000000000
 11
1081.662149378241
 21
742.2364710846350
 31
0.0000000000000000
  0
LINE
  5
B9
100
AcDbEntity
  8
MAIN0
  6
CENTER
 62
5
370
    18
100
AcDbLine
 10
364.4692927895762
 20
389.2364710846352
 30
0.0000000000000000
 11
484.8536785198829
 21
389.2364710846352
 31
0.0000000000000000
  0
LINE
  5
BA
100
AcDbEntity
  8
MAIN0
  6
CENTER
 62
5
370
    18
100
AcDbLine
 10
365.0354927895762
 20
324.2364710846352
 30
0.0000000000000000
 11
483.6199873017432
 21
324.2364710846352
 31
0.0000000000000000
  0
LINE
  5
BB
100
AcDbEntity
  8
MAIN0
  6
HIDDEN
 62
5
370
    18
100
AcDbLine
 10
379.6285201444118
 20
414.2364710846352
 30
0.0000000000000000
 11
468.6285634146689
 21
414.2364710846352
 31
0.0000000000000000
  0
LINE
  5
BC
100
AcDbEntity
  8
MAIN0
  6
HIDDEN
 62
5
370
    18
100
AcDbLine
 10
379.6285201444118
 20
364.2364710846352
 30
0.0000000000000000
 11
468.6285634146684
 21
364.2364710846352
 31
0.0000000000000000
  0
LINE
  5
BD
100
AcDbEntity
  8
MAIN0
  6
HIDDEN
 62
5
370
    18
100
AcDbLine
 10
468.6285634146684
 20
364.2364710846352
 30
0.0000000000000000
 11
468.6285634146689
 21
414.2364710846352
 31
0.0000000000000000
  0
LINE
  5
BE
100
AcDbEntity
  8
MAIN0
  6
HIDDEN
 62
5
370
    18
100
AcDbLine
 10
380.6285201444118
 20
349.2364710846352
 30
0.0000000000000000
 11
468.6285634146689
 21
349.2364710846352
 31
0.0000000000000000
  0
LINE
  5
BF
100
AcDbEntity
  8
MAIN0
  6
HIDDEN
 62
5
370
    18
100
AcDbLine
 10
380.6285201444118
 20
299.2364710846352
 30
0.0000000000000000
 11
468.6285634146684
 21
299.2364710846351
 31
0.0000000000000000
  0
LINE
  5
C0
100
AcDbEntity
  8
MAIN0
  6
HIDDEN
 62
5
370
    18
100
AcDbLine
 10
468.6285634146684
 20
299.2364710846352
 30
0.0000000000000000
 11
468.6285634146689
 21
349.2364710846352
 31
0.0000000000000000
  0
ARC
  5
C1
100
AcDbEntity
  8
MAIN0
  6
CONTINUOUS
 62
3
370
    35
100
AcDbCircle
 10
1049.162149378242
 20
619.2364710846351
 30
0.0000000000000000
 40
139.9999999999704
100
AcDbArc
 50
343.4232636034684
 51
436.5767363965171
  0
ARC
  5
C2
100
AcDbEntity
  8
MAIN0
  6
CONTINUOUS
 62
3
370
    35
100
AcDbCircle
 10
1049.162149378242
 20
619.2364710846351
 30
0.0000000000000000
 40
199.9999999999704
100
AcDbArc
 50
339.3520350575570
 51
440.6479649424288
  0
ARC
  5
C3
100
AcDbEntity
  8
MAIN0
  6
CONTINUOUS
 62
3
370
    35
100
AcDbCircle
 10
1049.162149378242
 20
619.2364710846351
 30
0.0000000000000000
 40
169.9999999999704
100
AcDbArc
 50
341.0214496355112
 51
354.0738638349358
  0
ARC
  5
C4
100
AcDbEntity
  8
MAIN0
  6
CONTINUOUS
 62
3
370
    35
100
AcDbCircle
 10
1049.162149378242
 20
619.2364710846351
 30
0.0000000000000000
 40
169.9999999999704
100
AcDbArc
 50
5.926136165057256
 51
54.07386383494270
  0
ARC
  5
C5
100
AcDbEntity
  8
MAIN0
  6
CONTINUOUS
 62
3
370
    35
100
AcDbCircle
 10
1049.162149378242
 20
619.2364710846351
 30
0.0000000000000000
 40
169.9999999999704
100
AcDbArc
 50
65.92613616505761
 51
78.97855036448122
  0
ARC
  5
C6
100
AcDbEntity
  8
MAIN0
  6
CONTINUOUS
 62
3
370
    35
100
AcDbCircle
 10
1049.162149378242
 20
619.2364710846351
 30
0.0000000000000000
 40
139.9999999999704
100
AcDbArc
 50
103.4232636034696
 51
196.5767363965183
  0
ARC
  5
C7
100
AcDbEntity
  8
MAIN0
  6
CONTINUOUS
 62
3
370
    35
100
AcDbCircle
 10
1049.162149378242
 20
619.2364710846351
 30
0.0000000000000000
 40
169.9999999999704
100
AcDbArc
 50
125.9261361650506
 51
174.0738638349361
  0
ARC
  5
C8
100
AcDbEntity
  8
MAIN0
  6
CONTINUOUS
 62
3
370
    35
100
AcDbCircle
 10
1049.162149378242
 20
619.2364710846351
 30
0.0000000000000000
 40
199.9999999999704
100
AcDbArc
 50
99.35203505755787
 51
200.6479649424297
  0
ARC
  5
C9
100
AcDbEntity
  8
MAIN0
  6
CONTINUOUS
 62
3
370
    35
100
AcDbCircle
 10
1049.162149378242
 20
619.2364710846351
 30
0.0000000000000000
 40
169.9999999999704
100
AcDbArc
 50
185.9261361650509
 51
198.9785503644756
  0
ARC
  5
CA
100
AcDbEntity
  8
MAIN0
  6
CONTINUOUS
 62
3
370
    35
100
AcDbCircle
 10
1049.162149378242
 20
619.2364710846351
 30
0.0000000000000000
 40
169.9999999999704
100
AcDbArc
 50
101.0214496355121
 51
114.0738638349357
  0
ARC
  5
CB
100
AcDbEntity
  8
MAIN0
  6
CONTINUOUS
 62
3
370
    35
100
AcDbCircle
 10
1049.162149378242
 20
619.2364710846351
 30
0.0000000000000000
 40
139.9999999999704
100
AcDbArc
 50
223.4232636034695
 51
316.5767363965182
  0
ARC
  5
CC
100
AcDbEntity
  8
MAIN0
  6
CONTINUOUS
 62
3
370
    35
100
AcDbCircle
 10
1049.162149378242
 20
619.2364710846351
 30
0.0000000000000000
 40
169.9999999999704
100
AcDbArc
 50
245.9261361650507
 51
294.0738638349361
  0
ARC
  5
CD
100
AcDbEntity
  8
MAIN0
  6
CONTINUOUS
 62
3
370
    35
100
AcDbCircle
 10
1049.162149378242
 20
619.2364710846351
 30
0.0000000000000000
 40
199.9999999999704
100
AcDbArc
 50
219.3520350575579
 51
320.6479649424297
  0
ARC
  5
CE
100
AcDbEntity
  8
MAIN0
  6
CONTINUOUS
 62
3
370
    35
100
AcDbCircle
 10
1049.162149378242
 20
619.2364710846351
 30
0.0000000000000000
 40
169.9999999999704
100
AcDbArc
 50
305.9261361650509
 51
318.9785503644755
  0
ARC
  5
CF
100
AcDbEntity
  8
MAIN0
  6
CONTINUOUS
 62
3
370
    35
100
AcDbCircle
 10
1049.162149378242
 20
619.2364710846351
 30
0.0000000000000000
 40
169.9999999999704
100
AcDbArc
 50
221.0214496355121
 51
234.0738638349357
  0
ARC
  5
D0
100
AcDbEntity
  8
MAIN0
  6
CONTINUOUS
 62
3
370
    35
100
AcDbCircle
 10
1049.162149378242
 20
619.2364710846351
 30
0.0000000000000000
 40
229.9999999999704
100
AcDbArc
 50
67.12547311333974
 51
81.87666974036920
  0
LINE
  5
D1
100
AcDbEntity
  8
MAIN0
  6
CENTER
 62
5
370
    18
100
AcDbLine
 10
1115.393306767232
 20
733.9522007264615
 30
0.0000000000000000
 11
1184.089570887968
 21
852.9376204737472
 31
0.0000000000000000
  0
ARC
  5
D2
100
AcDbEntity
  8
MAIN0
  6
CONTINUOUS
 62
3
370
    35
100
AcDbCircle
 10
1049.162149378242
 20
619.2364710846351
 30
0.0000000000000000
 40
119.9999999999704
100
AcDbArc
 50
345.7138610480046
 51
434.2861389519812
  0
ARC
  5
D3
100
AcDbEntity
  8
MAIN0
  6
CENTER
 62
5
370
    18
100
AcDbCircle
 10
1049.162149378242
 20
619.2364710846351
 30
0.0000000000000000
 40
112.5000000000000
100
AcDbArc
 50
124.2436387988405
 51
135.1688466046823
  0
LINE
  5
D4
100
AcDbEntity
  8
MAIN0
  6
CENTER
 62
5
370
    18
100
AcDbLine
 10
970.0289195623874
 20
713.5437820112595
 30
0.0000000000000000
 11
983.8981895381168
 21
697.0150296910250
 31
0.0000000000000000
  0
LINE
  5
D5
100
AcDbEntity
  8
MAIN0
  6
CONTINUOUS
 62
3
370
    35
100
AcDbLine
 10
948.8910247127534
 20
546.9111535373263
 30
0.0000000000000000
 11
751.4372326499046
 21
432.9111535373285
 31
0.0000000000000000
  0
LINE
  5
D6
100
AcDbEntity
  8
MAIN0
  6
CONTINUOUS
 62
3
370
    35
100
AcDbLine
 10
936.3910247127535
 20
568.5617886319371
 30
0.0000000000000000
 11
738.9372326499041
 21
454.5617886319402
 31
0.0000000000000000
  0
LINE
  5
D7
100
AcDbEntity
  8
MAIN0
  6
CONTINUOUS
 62
3
370
    35
100
AcDbLine
 10
926.3910247127536
 20
585.8822967076260
 30
0.0000000000000000
 11
936.3910247127536
 21
568.5617886319371
 31
0.0000000000000000
  0
LINE
  5
D8
100
AcDbEntity
  8
MAIN0
  6
CONTINUOUS
 62
3
370
    35
100
AcDbLine
 10
948.8910247127535
 20
546.9111535373263
 30
0.0000000000000000
 11
958.8910247127532
 21
529.5906454616379
 31
0.0000000000000000
  0
LINE
  5
D9
100
AcDbEntity
  8
MAIN0
  6
CONTINUOUS
 62
3
370
    35
100
AcDbLine
 10
967.5512787505976
 20
534.5906454616373
 30
0.0000000000000000
 11
762.0173596688264
 21
415.9255819521784
 31
0.0000000000000000
  0
LINE
  5
DA
100
AcDbEntity
  8
MAIN0
  6
CONTINUOUS
 62
3
370
    35
100
AcDbLine
 10
935.0512787505978
 20
590.8822967076259
 30
0.0000000000000000
 11
729.5173596688254
 21
472.2172331981662
 31
0.0000000000000000
  0
LINE
  5
DB
100
AcDbEntity
  8
MAIN0
  6
CONTINUOUS
 62
3
370
    35
100
AcDbLine
 10
971.4940992568622
 20
527.7614800196626
 30
0.0000000000000000
 11
932.4532019256677
 21
595.3822977703721
 31
0.0000000000000000
  0
LINE
  5
DC
100
AcDbEntity
  8
MAIN0
  6
CONTINUOUS
 62
3
370
    35
100
AcDbLine
 10
929.3285759605581
 20
612.9186643495744
 30
0.0000000000000000
 11
983.7739815406411
 21
518.6164556461763
 31
0.0000000000000000
  0
LINE
  5
DD
100
AcDbEntity
  8
MAIN0
  6
CONTINUOUS
 62
3
370
    35
100
AcDbLine
 10
1149.433274043729
 20
546.9111535373262
 30
0.0000000000000000
 11
1346.887066106578
 21
432.9111535373288
 31
0.0000000000000000
  0
LINE
  5
DE
100
AcDbEntity
  8
MAIN0
  6
CONTINUOUS
 62
3
370
    35
100
AcDbLine
 10
1161.933274043729
 20
568.5617886319373
 30
0.0000000000000000
 11
1359.387066106578
 21
454.5617886319402
 31
0.0000000000000000
  0
LINE
  5
DF
100
AcDbEntity
  8
MAIN0
  6
CONTINUOUS
 62
3
370
    35
100
AcDbLine
 10
1171.933274043729
 20
585.8822967076260
 30
0.0000000000000000
 11
1161.933274043729
 21
568.5617886319373
 31
0.0000000000000000
  0
LINE
  5
E0
100
AcDbEntity
  8
MAIN0
  6
CONTINUOUS
 62
3
370
    35
100
AcDbLine
 10
1149.433274043729
 20
546.9111535373263
 30
0.0000000000000000
 11
1139.433274043730
 21
529.5906454616379
 31
0.0000000000000000
  0
LINE
  5
E1
100
AcDbEntity
  8
MAIN0
  6
CONTINUOUS
 62
3
370
    35
100
AcDbLine
 10
1130.773020005885
 20
534.5906454616373
 30
0.0000000000000000
 11
1336.306939087657
 21
415.9255819521782
 31
0.0000000000000000
  0
LINE
  5
E2
100
AcDbEntity
  8
MAIN0
  6
CONTINUOUS
 62
3
370
    35
100
AcDbLine
 10
1163.273020005885
 20
590.8822967076259
 30
0.0000000000000000
 11
1368.806939087657
 21
472.2172331981664
 31
0.0000000000000000
  0
LINE
  5
E3
100
AcDbEntity
  8
MAIN0
  6
CONTINUOUS
 62
3
370
    35
100
AcDbLine
 10
1126.830199499621
 20
527.7614800196625
 30
0.0000000000000000
 11
1167.215840512146
 21
597.7114621495938
 31
0.0000000000000000
  0
LINE
  5
E4
100
AcDbEntity
  8
MAIN0
  6
CONTINUOUS
 62
3
370
    35
100
AcDbLine
 10
1168.995722795925
 20
612.9186643495746
 30
0.0000000000000000
 11
1114.550317215842
 21
518.6164556461763
 31
0.0000000000000000
  0
ARC
  5
E5
100
AcDbEntity
  8
MAIN0
  6
CONTINUOUS
 62
3
370
    35
100
AcDbCircle
 10
1049.162149378242
 20
619.2364710846351
 30
0.0000000000000000
 40
119.9999999999704
100
AcDbArc
 50
105.7138610480056
 51
194.2861389519852
  0
ARC
  5
E6
100
AcDbEntity
  8
MAIN0
  6
CONTINUOUS
 62
3
370
    35
100
AcDbCircle
 10
1049.162149378239
 20
619.2364710846395
 30
0.0000000000000000
 40
119.9999999999704
100
AcDbArc
 50
225.7138610480017
 51
314.2861389519813
  0
LINE
  5
E7
100
AcDbEntity
  8
MAIN0
  6
CONTINUOUS
 62
3
370
    35
100
AcDbLine
 10
936.1598970466273
 20
640.6274574220258
 30
0.0000000000000000
 11
938.8725565621904
 21
641.6147878075934
 31
0.0000000000000000
  0
LINE
  5
E8
100
AcDbEntity
  8
MAIN0
  6
CONTINUOUS
 62
3
370
    35
100
AcDbLine
 10
938.8725565621891
 20
641.6147878075935
 30
0.0000000000000000
 11
941.0839358116858
 21
639.7592165336921
 31
0.0000000000000000
  0
LINE
  5
E9
100
AcDbEntity
  8
MAIN0
  6
CONTINUOUS
 62
3
370
    35
100
AcDbLine
 10
941.0839358116892
 20
639.7592165336934
 30
0.0000000000000000
 11
940.5826564138642
 21
636.9163197982597
 31
0.0000000000000000
  0
LINE
  5
EA
100
AcDbEntity
  8
MAIN0
  6
CONTINUOUS
 62
3
370
    35
100
AcDbLine
 10
940.5826564138633
 20
636.9163197982614
 30
0.0000000000000000
 11
937.8699949857659
 21
635.9289958424848
 31
0.0000000000000000
  0
LINE
  5
EB
100
AcDbEntity
  8
MAIN0
  6
CONTINUOUS
 62
3
370
    35
100
AcDbLine
 10
937.8699949857648
 20
635.9289958424836
 30
0.0000000000000000
 11
935.6586153889710
 21
637.7845651467701
 31
0.0000000000000000
  0
LINE
  5
EC
100
AcDbEntity
  8
MAIN0
  6
CONTINUOUS
 62
3
370
    35
100
AcDbLine
 10
935.6586153889728
 20
637.7845651467701
 30
0.0000000000000000
 11
936.1598970466278
 21
640.6274574220254
 31
0.0000000000000000
  0
CIRCLE
  5
ED
100
AcDbEntity
  8
MAIN0
  6
CONTINUOUS
 62
3
370
    35
100
AcDbCircle
 10
938.3712771643659
 20
638.7718910721619
 30
0.0000000000000000
 40
5.499999999999996
  0
CIRCLE
  5
EE
100
AcDbEntity
  8
MAIN0
  6
CONTINUOUS
 62
3
370
    35
100
AcDbCircle
 10
938.3712771643659
 20
638.7718910721619
 30
0.0000000000000000
 40
4.999999999999996
  0
ARC
  5
EF
100
AcDbEntity
  8
MAIN0
  6
CENTER
 62
5
370
    18
100
AcDbCircle
 10
1049.162149378240
 20
619.2364710846316
 30
0.0000000000000000
 40
112.5000000000000
100
AcDbArc
 50
164.8311533953109
 51
175.7563612011527
  0
LINE
  5
F0
100
AcDbEntity
  8
MAIN0
  6
CENTER
 62
5
370
    18
100
AcDbLine
 10
927.9230074452580
 20
640.6142029253614
 30
0.0000000000000000
 11
949.1719618353068
 21
636.8674389545522
 31
0.0000000000000000
  0
LINE
  5
F1
100
AcDbEntity
  8
MAIN0
  6
CONTINUOUS
 62
3
370
    35
100
AcDbLine
 10
1011.186160792618
 20
510.6781567119069
 30
0.0000000000000000
 11
1013.397543746230
 21
512.5337235714185
 31
0.0000000000000000
  0
LINE
  5
F2
100
AcDbEntity
  8
MAIN0
  6
CONTINUOUS
 62
3
370
    35
100
AcDbLine
 10
1013.397543746229
 20
512.5337235714171
 30
0.0000000000000000
 11
1012.896261509246
 21
515.3766198158339
 31
0.0000000000000000
  0
LINE
  5
F3
100
AcDbEntity
  8
MAIN0
  6
CONTINUOUS
 62
3
370
    35
100
AcDbLine
 10
1012.896261509249
 20
515.3766198158361
 30
0.0000000000000000
 11
1010.183601017115
 21
516.3639474906428
 31
0.0000000000000000
  0
LINE
  5
F4
100
AcDbEntity
  8
MAIN0
  6
CONTINUOUS
 62
3
370
    35
100
AcDbLine
 10
1010.183601017116
 20
516.3639474906411
 30
0.0000000000000000
 11
1007.972222675600
 21
514.5083757599307
 31
0.0000000000000000
  0
LINE
  5
F5
100
AcDbEntity
  8
MAIN0
  6
CONTINUOUS
 62
3
370
    35
100
AcDbLine
 10
1007.972222675599
 20
514.5083757599305
 30
0.0000000000000000
 11
1008.473503033196
 21
511.6654801995531
 31
0.0000000000000000
  0
LINE
  5
F6
100
AcDbEntity
  8
MAIN0
  6
CONTINUOUS
 62
3
370
    35
100
AcDbLine
 10
1008.473503033197
 20
511.6654801995547
 30
0.0000000000000000
 11
1011.186160792618
 21
510.6781567119075
 31
0.0000000000000000
  0
CIRCLE
  5
F7
100
AcDbEntity
  8
MAIN0
  6
CONTINUOUS
 62
3
370
    35
100
AcDbCircle
 10
1010.684883254098
 20
513.5210512462242
 30
0.0000000000000000
 40
5.499999999999996
  0
CIRCLE
  5
F8
100
AcDbEntity
  8
MAIN0
  6
CONTINUOUS
 62
3
370
    35
100
AcDbCircle
 10
1010.684883254098
 20
513.5210512462242
 30
0.0000000000000000
 40
4.999999999999996
  0
ARC
  5
F9
100
AcDbEntity
  8
MAIN0
  6
CENTER
 62
5
370
    18
100
AcDbCircle
 10
1049.162149378235
 20
619.2364710846395
 30
0.0000000000000000
 40
112.5000000000000
100
AcDbArc
 50
244.2436387988342
 51
255.1688466046760
  0
LINE
  5
FA
100
AcDbEntity
  8
MAIN0
  6
CENTER
 62
5
370
    18
100
AcDbLine
 10
1007.056237261108
 20
503.5514283172852
 30
0.0000000000000000
 11
1014.435921675427
 21
523.8269446083289
 31
0.0000000000000000
  0
LINE
  5
FB
100
AcDbEntity
  8
MAIN0
  6
CONTINUOUS
 62
3
370
    35
100
AcDbLine
 10
1087.138137963864
 20
510.6781567119069
 30
0.0000000000000000
 11
1084.926755010253
 21
512.5337235714185
 31
0.0000000000000000
  0
LINE
  5
FC
100
AcDbEntity
  8
MAIN0
  6
CONTINUOUS
 62
3
370
    35
100
AcDbLine
 10
1084.926755010254
 20
512.5337235714171
 30
0.0000000000000000
 11
1085.428037247236
 21
515.3766198158339
 31
0.0000000000000000
  0
LINE
  5
FD
100
AcDbEntity
  8
MAIN0
  6
CONTINUOUS
 62
3
370
    35
100
AcDbLine
 10
1085.428037247234
 20
515.3766198158361
 30
0.0000000000000000
 11
1088.140697739368
 21
516.3639474906428
 31
0.0000000000000000
  0
LINE
  5
FE
100
AcDbEntity
  8
MAIN0
  6
CONTINUOUS
 62
3
370
    35
100
AcDbLine
 10
1088.140697739367
 20
516.3639474906411
 30
0.0000000000000000
 11
1090.352076080883
 21
514.5083757599308
 31
0.0000000000000000
  0
LINE
  5
FF
100
AcDbEntity
  8
MAIN0
  6
CONTINUOUS
 62
3
370
    35
100
AcDbLine
 10
1090.352076080885
 20
514.5083757599305
 30
0.0000000000000000
 11
1089.850795723287
 21
511.6654801995531
 31
0.0000000000000000
  0
LINE
  5
100
100
AcDbEntity
  8
MAIN0
  6
CONTINUOUS
 62
3
370
    35
100
AcDbLine
 10
1089.850795723286
 20
511.6654801995547
 30
0.0000000000000000
 11
1087.138137963865
 21
510.6781567119074
 31
0.0000000000000000
  0
CIRCLE
  5
101
100
AcDbEntity
  8
MAIN0
  6
CONTINUOUS
 62
3
370
    35
100
AcDbCircle
 10
1087.639415502385
 20
513.5210512462242
 30
0.0000000000000000
 40
5.499999999999996
  0
CIRCLE
  5
102
100
AcDbEntity
  8
MAIN0
  6
CONTINUOUS
 62
3
370
    35
100
AcDbCircle
 10
1087.639415502385
 20
513.5210512462242
 30
0.0000000000000000
 40
4.999999999999996
  0
ARC
  5
103
100
AcDbEntity
  8
MAIN0
  6
CENTER
 62
5
370
    18
100
AcDbCircle
 10
1049.162149378248
 20
619.2364710846395
 30
0.0000000000000000
 40
112.5000000000000
100
AcDbArc
 50
284.8311533953174
 51
295.7563612011592
  0
LINE
  5
104
100
AcDbEntity
  8
MAIN0
  6
CENTER
 62
5
370
    18
100
AcDbLine
 10
1091.268061495375
 20
503.5514283172852
 30
0.0000000000000000
 11
1083.888377081056
 21
523.8269446083290
 31
0.0000000000000000
  0
LINE
  5
105
100
AcDbEntity
  8
MAIN0
  6
CONTINUOUS
 62
3
370
    35
100
AcDbLine
 10
1162.164401709851
 20
640.6274574220179
 30
0.0000000000000000
 11
1159.451742194287
 21
641.6147878075856
 31
0.0000000000000000
  0
LINE
  5
106
100
AcDbEntity
  8
MAIN0
  6
CONTINUOUS
 62
3
370
    35
100
AcDbLine
 10
1159.451742194289
 20
641.6147878075858
 30
0.0000000000000000
 11
1157.240362944792
 21
639.7592165336843
 31
0.0000000000000000
  0
LINE
  5
107
100
AcDbEntity
  8
MAIN0
  6
CONTINUOUS
 62
3
370
    35
100
AcDbLine
 10
1157.240362944789
 20
639.7592165336855
 30
0.0000000000000000
 11
1157.741642342614
 21
636.9163197982518
 31
0.0000000000000000
  0
LINE
  5
108
100
AcDbEntity
  8
MAIN0
  6
CONTINUOUS
 62
3
370
    35
100
AcDbLine
 10
1157.741642342615
 20
636.9163197982537
 30
0.0000000000000000
 11
1160.454303770712
 21
635.9289958424770
 31
0.0000000000000000
  0
LINE
  5
109
100
AcDbEntity
  8
MAIN0
  6
CONTINUOUS
 62
3
370
    35
100
AcDbLine
 10
1160.454303770713
 20
635.9289958424758
 30
0.0000000000000000
 11
1162.665683367507
 21
637.7845651467624
 31
0.0000000000000000
  0
LINE
  5
10A
100
AcDbEntity
  8
MAIN0
  6
CONTINUOUS
 62
3
370
    35
100
AcDbLine
 10
1162.665683367505
 20
637.7845651467621
 30
0.0000000000000000
 11
1162.164401709850
 21
640.6274574220174
 31
0.0000000000000000
  0
CIRCLE
  5
10B
100
AcDbEntity
  8
MAIN0
  6
CONTINUOUS
 62
3
370
    35
100
AcDbCircle
 10
1159.953021592113
 20
638.7718910721542
 30
0.0000000000000000
 40
5.499999999999996
  0
CIRCLE
  5
10C
100
AcDbEntity
  8
MAIN0
  6
CONTINUOUS
 62
3
370
    35
100
AcDbCircle
 10
1159.953021592113
 20
638.7718910721542
 30
0.0000000000000000
 40
4.999999999999996
  0
ARC
  5
10D
100
AcDbEntity
  8
MAIN0
  6
CENTER
 62
5
370
    18
100
AcDbCircle
 10
1049.162149378239
 20
619.2364710846236
 30
0.0000000000000000
 40
112.5000000000000
100
AcDbArc
 50
4.243638798840759
 51
15.16884660468257
  0
LINE
  5
10E
100
AcDbEntity
  8
MAIN0
  6
CENTER
 62
5
370
    18
100
AcDbLine
 10
1170.401291311221
 20
640.6142029253537
 30
0.0000000000000000
 11
1149.152336921172
 21
636.8674389545445
 31
0.0000000000000000
  0
LINE
  5
10F
100
AcDbEntity
  8
MAIN0
  6
CONTINUOUS
 62
3
370
    35
100
AcDbLine
 10
1124.188413124223
 20
706.4037991199813
 30
0.0000000000000000
 11
1123.687136562271
 21
703.5609018749021
 31
0.0000000000000000
  0
LINE
  5
110
100
AcDbEntity
  8
MAIN0
  6
CONTINUOUS
 62
3
370
    35
100
AcDbLine
 10
1123.687136562272
 20
703.5609018749034
 30
0.0000000000000000
 11
1120.974475075792
 21
702.5735769043881
 31
0.0000000000000000
  0
LINE
  5
111
100
AcDbEntity
  8
MAIN0
  6
CONTINUOUS
 62
3
370
    35
100
AcDbLine
 10
1120.974475075791
 20
702.5735769043846
 30
0.0000000000000000
 11
1118.763093981483
 21
704.4291459650117
 31
0.0000000000000000
  0
LINE
  5
112
100
AcDbEntity
  8
MAIN0
  6
CONTINUOUS
 62
3
370
    35
100
AcDbLine
 10
1118.763093981484
 20
704.4291459650116
 30
0.0000000000000000
 11
1119.264377068066
 21
707.2720416514985
 31
0.0000000000000000
  0
LINE
  5
113
100
AcDbEntity
  8
MAIN0
  6
CONTINUOUS
 62
3
370
    35
100
AcDbLine
 10
1119.264377068065
 20
707.2720416515000
 30
0.0000000000000000
 11
1121.977037022457
 21
708.2593679075908
 31
0.0000000000000000
  0
LINE
  5
114
100
AcDbEntity
  8
MAIN0
  6
CONTINUOUS
 62
3
370
    35
100
AcDbLine
 10
1121.977037022456
 20
708.2593679075894
 30
0.0000000000000000
 11
1124.188413124222
 21
706.4037991199814
 31
0.0000000000000000
  0
CIRCLE
  5
115
100
AcDbEntity
  8
MAIN0
  6
CONTINUOUS
 62
3
370
    35
100
AcDbCircle
 10
1121.475755467964
 20
705.4164709355280
 30
0.0000000000000000
 40
5.499999999999996
  0
CIRCLE
  5
116
100
AcDbEntity
  8
MAIN0
  6
CONTINUOUS
 62
3
370
    35
100
AcDbCircle
 10
1121.475755467964
 20
705.4164709355280
 30
0.0000000000000000
 40
4.999999999999996
  0
ARC
  5
117
100
AcDbEntity
  8
MAIN0
  6
CENTER
 62
5
370
    18
100
AcDbCircle
 10
1049.162149378228
 20
619.2364710846430
 30
0.0000000000000000
 40
112.5000000000000
100
AcDbArc
 50
44.83115339531759
 51
55.75636120115940
  0
LINE
  5
118
100
AcDbEntity
  8
MAIN0
  6
CENTER
 62
5
370
    18
100
AcDbLine
 10
1128.295379194082
 20
713.5437820112675
 30
0.0000000000000000
 11
1114.426109218353
 21
697.0150296910329
 31
0.0000000000000000
  0
LINE
  5
119
100
AcDbEntity
  8
MAIN0
  6
CONTINUOUS
 62
3
370
    35
100
AcDbLine
 10
488.6285201444119
 20
514.2364710846352
 30
0.0000000000000000
 11
516.6285201444119
 21
514.2364710846352
 31
0.0000000000000000
  0
LINE
  5
11A
100
AcDbEntity
  8
MAIN0
  6
CONTINUOUS
 62
3
370
    35
100
AcDbLine
 10
488.6285201444118
 20
459.2364710846353
 30
0.0000000000000000
 11
488.6285201444118
 21
518.2364710846352
 31
0.0000000000000000
  0
LINE
  5
11B
100
AcDbEntity
  8
MAIN0
  6
CONTINUOUS
 62
3
370
    35
100
AcDbLine
 10
487.6285201444121
 20
459.2364710846354
 30
0.0000000000000000
 11
487.6285201444121
 21
518.2364710846352
 31
0.0000000000000000
  0
LINE
  5
11C
100
AcDbEntity
  8
MAIN0
  6
CONTINUOUS
 62
3
370
    35
100
AcDbLine
 10
408.6285201444121
 20
466.1364710846378
 30
0.0000000000000000
 11
487.6285201444121
 21
466.1364710846378
 31
0.0000000000000000
  0
LINE
  5
11D
100
AcDbEntity
  8
MAIN0
  6
CONTINUOUS
 62
3
370
    35
100
AcDbLine
 10
488.6285201444118
 20
466.1364710846378
 30
0.0000000000000000
 11
503.6285201444117
 21
466.1364710846378
 31
0.0000000000000000
  0
MTEXT
  5
11E
100
AcDbEntity
  8
MAIN0
  6
CONTINUOUS
 62
7
370
    25
100
AcDbMText
 10
639.0954017493685
 20
799.2546404711028
 30
0.0000000000000000
 40
5.579999828338623
 41
0.0000000000000000
 44
0.7741935722041460
 71
     1
 72
     1
  1
{\H0.70x;{MIN  21.5}}
 11
6.123233995736766e-017
 21
1.000000000000000
 31
0.0000000000000000
  7
STANDARD
  0
MTEXT
  5
11F
100
AcDbEntity
  8
MAIN0
  6
CONTINUOUS
 62
7
370
    25
100
AcDbMText
 10
640.6663421077388
 20
662.1450506333524
 30
0.0000000000000000
 40
5.579999828338623
 41
0.0000000000000000
 44
0.8709677687296642
 71
     1
 72
     1
  1
{\H0.70x;{MIN 117.7}}
 11
1.002670741233467e-011
 21
1.000000000000000
 31
0.0000000000000000
  7
STANDARD
  0
ARC
  5
120
100
AcDbEntity
  8
MAIN0
  6
CONTINUOUS
 62
3
370
    35
100
AcDbCircle
 10
1049.162149378242
 20
619.2364710846351
 30
0.0000000000000000
 40
319.9999999999704
100
AcDbArc
 50
335.8291532798921
 51
444.1708467201007
  0
ARC
  5
121
100
AcDbEntity
  8
MAIN0
  6
CONTINUOUS
 62
3
370
    35
100
AcDbCircle
 10
1049.162149378242
 20
619.2364710846351
 30
0.0000000000000000
 40
289.9999999999704
100
AcDbArc
 50
336.4345961486384
 51
443.5654038513543
  0
ARC
  5
122
100
AcDbEntity
  8
MAIN0
  6
CONTINUOUS
 62
3
370
    35
100
AcDbCircle
 10
1049.162149378242
 20
619.2364710846351
 30
0.0000000000000000
 40
229.9999999999704
100
AcDbArc
 50
338.1233302596234
 51
412.8745268866613
  0
ARC
  5
123
100
AcDbEntity
  8
MAIN0
  6
CONTINUOUS
 62
3
370
    35
100
AcDbCircle
 10
1049.162149378242
 20
619.2364710846351
 30
0.0000000000000000
 40
289.9999999999704
100
AcDbArc
 50
96.43459614863899
 51
203.5654038513483
  0
ARC
  5
124
100
AcDbEntity
  8
MAIN0
  6
CONTINUOUS
 62
3
370
    35
100
AcDbCircle
 10
1049.162149378242
 20
619.2364710846351
 30
0.0000000000000000
 40
259.9999999999704
100
AcDbArc
 50
97.18075578145243
 51
202.8192442185349
  0
ARC
  5
125
100
AcDbEntity
  8
MAIN0
  6
CONTINUOUS
 62
3
370
    35
100
AcDbCircle
 10
1049.162149378242
 20
619.2364710846351
 30
0.0000000000000000
 40
229.9999999999704
100
AcDbArc
 50
98.12333025962414
 51
201.8766697403632
  0
ARC
  5
126
100
AcDbEntity
  8
MAIN0
  6
CONTINUOUS
 62
3
370
    35
100
AcDbCircle
 10
1049.162149378242
 20
619.2364710846351
 30
0.0000000000000000
 40
229.9999999999704
100
AcDbArc
 50
218.1233302596241
 51
321.8766697403632
  0
ARC
  5
127
100
AcDbEntity
  8
MAIN0
  6
CONTINUOUS
 62
3
370
    35
100
AcDbCircle
 10
1049.162149378242
 20
619.2364710846351
 30
0.0000000000000000
 40
259.9999999999704
100
AcDbArc
 50
217.1807557814524
 51
322.8192442185349
  0
LINE
  5
128
100
AcDbEntity
  8
MAIN0
  6
HIDDEN
 62
5
370
    18
100
AcDbLine
 10
1061.962149378242
 20
751.5364710846312
 30
0.0000000000000000
 11
1061.962149378242
 21
791.7364710846352
 31
0.0000000000000000
  0
LINE
  5
129
100
AcDbEntity
  8
MAIN0
  6
HIDDEN
 62
5
370
    18
100
AcDbLine
 10
1036.362149378242
 20
751.5364710846311
 30
0.0000000000000000
 11
1036.362149378242
 21
791.7364710846352
 31
0.0000000000000000
  0
LINE
  5
12A
100
AcDbEntity
  8
MAIN0
  6
HIDDEN
 62
5
370
    18
100
AcDbLine
 10
1068.412149378242
 20
757.9864710846312
 30
0.0000000000000000
 11
1068.412149378242
 21
791.7364710846352
 31
0.0000000000000000
  0
LINE
  5
12B
100
AcDbEntity
  8
MAIN0
  6
HIDDEN
 62
5
370
    18
100
AcDbLine
 10
1029.912149378242
 20
757.9864710846312
 30
0.0000000000000000
 11
1029.912149378242
 21
791.7364710846352
 31
0.0000000000000000
  0
ARC
  5
12C
100
AcDbEntity
  8
MAIN0
  6
HIDDEN
 62
5
370
    18
100
AcDbCircle
 10
1049.162149378242
 20
757.9864710846312
 30
0.0000000000000000
 40
19.25000000000011
100
AcDbArc
 50
310.4926614920076
 51
360.0000000000000
  0
ARC
  5
12D
100
AcDbEntity
  8
MAIN0
  6
HIDDEN
 62
5
370
    18
100
AcDbCircle
 10
1049.162149378241
 20
751.5364710846312
 30
0.0000000000000000
 40
12.79999999999996
100
AcDbArc
 50
347.5707428674807
 51
360.0000000000000
  0
ARC
  5
12E
100
AcDbEntity
  8
MAIN0
  6
HIDDEN
 62
5
370
    18
100
AcDbCircle
 10
1049.162149378241
 20
751.5364710846312
 30
0.0000000000000000
 40
12.79999999999996
100
AcDbArc
 50
180.0000000000000
 51
192.4292571325246
  0
ARC
  5
12F
100
AcDbEntity
  8
MAIN0
  6
CONTINUOUS
 62
3
370
    35
100
AcDbCircle
 10
1049.162149378241
 20
751.5364710846312
 30
0.0000000000000000
 40
12.79999999999996
100
AcDbArc
 50
192.4292571325246
 51
347.5707428674807
  0
ARC
  5
130
100
AcDbEntity
  8
MAIN0
  6
HIDDEN
 62
5
370
    18
100
AcDbCircle
 10
1049.162149378242
 20
757.9864710846312
 30
0.0000000000000000
 40
19.25000000000011
100
AcDbArc
 50
180.0000000000000
 51
229.5073385079917
  0
ARC
  5
131
100
AcDbEntity
  8
MAIN0
  6
CONTINUOUS
 62
3
370
    35
100
AcDbCircle
 10
1049.162149378242
 20
757.9864710846312
 30
0.0000000000000000
 40
19.25000000000011
100
AcDbArc
 50
229.5073385079917
 51
310.4926614920076
  0
LINE
  5
132
100
AcDbEntity
  8
MAIN0
  6
HIDDEN
 62
5
370
    18
100
AcDbLine
 10
919.3761246031540
 20
566.5324601074875
 30
0.0000000000000000
 11
735.5622326499038
 21
460.4074601074857
 31
0.0000000000000000
  0
LINE
  5
133
100
AcDbEntity
  8
MAIN0
  6
HIDDEN
 62
5
370
    18
100
AcDbLine
 10
928.1869884575638
 20
564.1715962530778
 30
0.0000000000000000
 11
738.7872326499039
 21
454.8215962530761
 31
0.0000000000000000
  0
LINE
  5
134
100
AcDbEntity
  8
MAIN0
  6
HIDDEN
 62
5
370
    18
100
AcDbLine
 10
940.9869884575637
 20
542.0013459161962
 30
0.0000000000000000
 11
750.2881945442305
 21
431.9013459161963
 31
0.0000000000000000
  0
LINE
  5
135
100
AcDbEntity
  8
MAIN0
  6
HIDDEN
 62
5
370
    18
100
AcDbLine
 10
938.6261246031540
 20
533.1904820617866
 30
0.0000000000000000
 11
753.5131945442304
 21
426.3154820617867
 31
0.0000000000000000
  0
ARC
  5
136
100
AcDbEntity
  8
MAIN0
  6
HIDDEN
 62
5
370
    18
100
AcDbCircle
 10
929.0011246031540
 20
549.8614710846372
 30
0.0000000000000000
 40
19.25000000000011
100
AcDbArc
 50
299.9999999999999
 51
349.5073385079916
  0
ARC
  5
137
100
AcDbEntity
  8
MAIN0
  6
CONTINUOUS
 62
3
370
    35
100
AcDbCircle
 10
934.5869884575639
 20
553.0864710846370
 30
0.0000000000000000
 40
12.79999999999996
100
AcDbArc
 50
312.4292571325246
 51
467.5707428674807
  0
ARC
  5
138
100
AcDbEntity
  8
MAIN0
  6
HIDDEN
 62
5
370
    18
100
AcDbCircle
 10
934.5869884575639
 20
553.0864710846370
 30
0.0000000000000000
 40
12.79999999999996
100
AcDbArc
 50
107.5707428674807
 51
120.0000000000000
  0
ARC
  5
139
100
AcDbEntity
  8
MAIN0
  6
HIDDEN
 62
5
370
    18
100
AcDbCircle
 10
929.0011246031540
 20
549.8614710846372
 30
0.0000000000000000
 40
19.25000000000011
100
AcDbArc
 50
70.49266149200764
 51
120.0000000000000
  0
ARC
  5
13A
100
AcDbEntity
  8
MAIN0
  6
HIDDEN
 62
5
370
    18
100
AcDbCircle
 10
934.5869884575639
 20
553.0864710846370
 30
0.0000000000000000
 40
12.79999999999996
100
AcDbArc
 50
299.9999999999999
 51
312.4292571325246
  0
ARC
  5
13B
100
AcDbEntity
  8
MAIN0
  6
CONTINUOUS
 62
3
370
    35
100
AcDbCircle
 10
929.0011246031540
 20
549.8614710846372
 30
0.0000000000000000
 40
19.25000000000011
100
AcDbArc
 50
349.5073385079916
 51
430.4926614920076
  0
LINE
  5
13C
100
AcDbEntity
  8
MAIN0
  6
HIDDEN
 62
5
370
    18
100
AcDbLine
 10
1159.698174153329
 20
533.1904820617866
 30
0.0000000000000000
 11
1344.811104212253
 21
426.3154820617865
 31
0.0000000000000000
  0
LINE
  5
13D
100
AcDbEntity
  8
MAIN0
  6
HIDDEN
 62
5
370
    18
100
AcDbLine
 10
1157.337310298919
 20
542.0013459161962
 30
0.0000000000000000
 11
1348.036104212253
 21
431.9013459161962
 31
0.0000000000000000
  0
LINE
  5
13E
100
AcDbEntity
  8
MAIN0
  6
HIDDEN
 62
5
370
    18
100
AcDbLine
 10
1170.137310298919
 20
564.1715962530780
 30
0.0000000000000000
 11
1360.836104212253
 21
454.0715962530779
 31
0.0000000000000000
  0
LINE
  5
13F
100
AcDbEntity
  8
MAIN0
  6
HIDDEN
 62
5
370
    18
100
AcDbLine
 10
1178.948174153329
 20
566.5324601074875
 30
0.0000000000000000
 11
1364.061104212253
 21
459.6574601074875
 31
0.0000000000000000
  0
ARC
  5
140
100
AcDbEntity
  8
MAIN0
  6
HIDDEN
 62
5
370
    18
100
AcDbCircle
 10
1169.323174153329
 20
549.8614710846368
 30
0.0000000000000000
 40
19.25000000000011
100
AcDbArc
 50
59.99999999999999
 51
109.5073385079917
  0
ARC
  5
141
100
AcDbEntity
  8
MAIN0
  6
CONTINUOUS
 62
3
370
    35
100
AcDbCircle
 10
1163.737310298920
 20
553.0864710846372
 30
0.0000000000000000
 40
12.79999999999996
100
AcDbArc
 50
72.42925713252463
 51
227.5707428674808
  0
ARC
  5
142
100
AcDbEntity
  8
MAIN0
  6
HIDDEN
 62
5
370
    18
100
AcDbCircle
 10
1163.737310298920
 20
553.0864710846372
 30
0.0000000000000000
 40
12.79999999999996
100
AcDbArc
 50
227.5707428674808
 51
239.9999999999999
  0
ARC
  5
143
100
AcDbEntity
  8
MAIN0
  6
HIDDEN
 62
5
370
    18
100
AcDbCircle
 10
1169.323174153329
 20
549.8614710846368
 30
0.0000000000000000
 40
19.25000000000011
100
AcDbArc
 50
190.4926614920077
 51
239.9999999999999
  0
ARC
  5
144
100
AcDbEntity
  8
MAIN0
  6
HIDDEN
 62
5
370
    18
100
AcDbCircle
 10
1163.737310298920
 20
553.0864710846372
 30
0.0000000000000000
 40
12.79999999999996
100
AcDbArc
 50
59.99999999999999
 51
72.42925713252463
  0
ARC
  5
145
100
AcDbEntity
  8
MAIN0
  6
CONTINUOUS
 62
3
370
    35
100
AcDbCircle
 10
1169.323174153329
 20
549.8614710846368
 30
0.0000000000000000
 40
19.25000000000011
100
AcDbArc
 50
109.5073385079917
 51
190.4926614920077
  0
LINE
  5
146
100
AcDbEntity
  8
MAIN10
  6
CONTINUOUS
 62
5
370
    18
100
AcDbLine
 10
498.6285201444119
 20
716.7364710846352
 30
0.0000000000000000
 11
498.6285201444119
 21
521.7364710846352
 31
0.0000000000000000
  0
LINE
  5
147
100
AcDbEntity
  8
MAIN10
  6
CONTINUOUS
 62
5
370
    18
100
AcDbLine
 10
500.1285202040166
 20
711.7364710846352
 30
0.0000000000000000
 11
498.6285201444119
 21
716.7364710846352
 31
0.0000000000000000
  0
LINE
  5
148
100
AcDbEntity
  8
MAIN10
  6
CONTINUOUS
 62
5
370
    18
100
AcDbLine
 10
498.6285201444119
 20
716.7364710846352
 30
0.0000000000000000
 11
497.1285200848073
 21
711.7364710846352
 31
0.0000000000000000
  0
LINE
  5
149
100
AcDbEntity
  8
MAIN10
  6
CONTINUOUS
 62
5
370
    18
100
AcDbLine
 10
500.1285202040166
 20
526.7364710846352
 30
0.0000000000000000
 11
498.6285201444119
 21
521.7364710846352
 31
0.0000000000000000
  0
LINE
  5
14A
100
AcDbEntity
  8
MAIN10
  6
CONTINUOUS
 62
5
370
    18
100
AcDbLine
 10
498.6285201444119
 20
521.7364710846352
 30
0.0000000000000000
 11
497.1285200848073
 21
526.7364710846352
 31
0.0000000000000000
  0
MTEXT
  5
14B
100
AcDbEntity
  8
MAIN10
  6
CONTINUOUS
 62
7
370
    25
100
AcDbMText
 10
497.3785201444119
 20
619.2364710846352
 30
0.0000000000000000
 40
5.579999828338623
 41
0.0000000000000000
 44
0.7741935722041460
 71
     8
 72
     1
  1
{\U+2205195}
 11
6.123233995736766e-017
 21
1.000000000000000
 31
0.0000000000000000
  7
STANDARD
  0
LINE
  5
14C
100
AcDbEntity
  8
MAIN0
  6
CENTER
 62
5
370
    18
100
AcDbLine
 10
365.4670812807903
 20
619.2364710846352
 30
0.0000000000000000
 11
485.8785203828305
 21
619.2364710846352
 31
0.0000000000000000
  0
LINE
  5
14D
100
AcDbEntity
  8
MAIN0
  6
CENTER
 62
5
370
    18
100
AcDbLine
 10
501.1285201444119
 20
619.2364710846352
 30
0.0000000000000000
 11
644.4833421242308
 21
619.2364710846352
 31
0.0000000000000000
  0
LINE
  5
14E
100
AcDbEntity
  8
MAIN10
  6
CONTINUOUS
 62
5
370
    18
100
AcDbLine
 10
377.6285201146097
 20
809.2364710846351
 30
0.0000000000000000
 11
238.2864983683087
 21
809.2364710846351
 31
0.0000000000000000
  0
LINE
  5
14F
100
AcDbEntity
  8
MAIN10
  6
CONTINUOUS
 62
5
370
    18
100
AcDbLine
 10
243.2864983683087
 20
809.2364710846351
 30
0.0000000000000000
 11
243.2864983683087
 21
429.2364710846353
 31
0.0000000000000000
  0
LINE
  5
150
100
AcDbEntity
  8
MAIN10
  6
CONTINUOUS
 62
5
370
    18
100
AcDbLine
 10
244.7864984279133
 20
804.2364710846351
 30
0.0000000000000000
 11
243.2864983683087
 21
809.2364710846351
 31
0.0000000000000000
  0
LINE
  5
151
100
AcDbEntity
  8
MAIN10
  6
CONTINUOUS
 62
5
370
    18
100
AcDbLine
 10
243.2864983683087
 20
809.2364710846351
 30
0.0000000000000000
 11
241.7864983087040
 21
804.2364710846351
 31
0.0000000000000000
  0
LINE
  5
152
100
AcDbEntity
  8
MAIN10
  6
CONTINUOUS
 62
5
370
    18
100
AcDbLine
 10
244.7864984279133
 20
434.2364710846353
 30
0.0000000000000000
 11
243.2864983683087
 21
429.2364710846353
 31
0.0000000000000000
  0
LINE
  5
153
100
AcDbEntity
  8
MAIN10
  6
CONTINUOUS
 62
5
370
    18
100
AcDbLine
 10
243.2864983683087
 20
429.2364710846353
 30
0.0000000000000000
 11
241.7864983087040
 21
434.2364710846353
 31
0.0000000000000000
  0
MTEXT
  5
154
100
AcDbEntity
  8
MAIN10
  6
CONTINUOUS
 62
7
370
    25
100
AcDbMText
 10
242.0364983683087
 20
601.5489707419085
 30
0.0000000000000000
 40
5.579999828338623
 41
0.0000000000000000
 44
0.7741935722041460
 71
     8
 72
     1
  1
{\U+2205380}
 11
6.123233995736766e-017
 21
1.000000000000000
 31
0.0000000000000000
  7
STANDARD
  0
MTEXT
  5
155
100
AcDbEntity
  8
MAIN10
  6
CONTINUOUS
 62
7
370
    25
100
AcDbMText
 10
235.0364984875180
 20
635.6114710958111
 30
0.0000000000000000
 40
5.039999914169311
 41
0.0000000000000000
 44
0.7500000127724241
 71
     8
 72
     1
  1
{＋0.036}
 11
6.123233995736766e-017
 21
1.000000000000000
 31
0.0000000000000000
  7
STANDARD
  0
MTEXT
  5
156
100
AcDbEntity
  8
MAIN10
  6
CONTINUOUS
 62
7
370
    25
100
AcDbMText
 10
242.0364983683087
 20
627.6739708797443
 30
0.0000000000000000
 40
5.039999914169311
 41
0.0000000000000000
 44
0.7500000127724241
 71
     8
 72
     1
  1
{　0}
 11
6.123233995736766e-017
 21
1.000000000000000
 31
0.0000000000000000
  7
STANDARD
  0
MTEXT
  5
157
100
AcDbEntity
  8
MAIN10
  6
CONTINUOUS
 62
7
370
    25
100
AcDbMText
 10
242.0364983683087
 20
617.9239707530844
 30
0.0000000000000000
 40
5.579999828338623
 41
0.0000000000000000
 44
0.7741935722041460
 71
     8
 72
     1
  1
{\H0.69x;{H6}}
 11
6.123233995736766e-017
 21
1.000000000000000
 31
0.0000000000000000
  7
STANDARD
  0
LINE
  5
158
100
AcDbEntity
  8
MAIN10
  6
CONTINUOUS
 62
5
370
    18
100
AcDbLine
 10
377.6285201146095
 20
429.2364710846353
 30
0.0000000000000000
 11
238.2864983683087
 21
429.2364710846353
 31
0.0000000000000000
  0
LINE
  5
159
100
AcDbEntity
  8
MAIN10
  6
CONTINUOUS
 62
5
370
    18
100
AcDbLine
 10
603.6285201742143
 20
971.7364710846316
 30
0.0000000000000000
 11
723.6285201444119
 21
971.7364710846316
 31
0.0000000000000000
  0
LINE
  5
15A
100
AcDbEntity
  8
MAIN10
  6
CONTINUOUS
 62
5
370
    18
100
AcDbLine
 10
718.6285201444119
 20
971.7364710846316
 30
0.0000000000000000
 11
718.6285201444119
 21
791.7364710846351
 31
0.0000000000000000
  0
LINE
  5
15B
100
AcDbEntity
  8
MAIN10
  6
CONTINUOUS
 62
5
370
    18
100
AcDbLine
 10
720.1285202040166
 20
966.7364710846316
 30
0.0000000000000000
 11
718.6285201444119
 21
971.7364710846316
 31
0.0000000000000000
  0
LINE
  5
15C
100
AcDbEntity
  8
MAIN10
  6
CONTINUOUS
 62
5
370
    18
100
AcDbLine
 10
718.6285201444119
 20
971.7364710846316
 30
0.0000000000000000
 11
717.1285200848073
 21
966.7364710846316
 31
0.0000000000000000
  0
LINE
  5
15D
100
AcDbEntity
  8
MAIN10
  6
CONTINUOUS
 62
5
370
    18
100
AcDbLine
 10
720.1285202040166
 20
796.7364710846351
 30
0.0000000000000000
 11
718.6285201444119
 21
791.7364710846351
 31
0.0000000000000000
  0
LINE
  5
15E
100
AcDbEntity
  8
MAIN10
  6
CONTINUOUS
 62
5
370
    18
100
AcDbLine
 10
718.6285201444119
 20
791.7364710846351
 30
0.0000000000000000
 11
717.1285200848073
 21
796.7364710846351
 31
0.0000000000000000
  0
MTEXT
  5
15F
100
AcDbEntity
  8
MAIN10
  6
CONTINUOUS
 62
7
370
    25
100
AcDbMText
 10
717.3785201444119
 20
881.7364710846333
 30
0.0000000000000000
 40
5.579999828338623
 41
0.0000000000000000
 44
0.7741935722041460
 71
     8
 72
     1
  1
{\H0.70x;{180}}
 11
6.123233995736766e-017
 21
1.000000000000000
 31
0.0000000000000000
  7
STANDARD
  0
LINE
  5
160
100
AcDbEntity
  8
MAIN10
  6
CONTINUOUS
 62
5
370
    18
100
AcDbLine
 10
603.6285201742142
 20
791.7364710846351
 30
0.0000000000000000
 11
723.6285201444119
 21
791.7364710846351
 31
0.0000000000000000
  0
LINE
  5
161
100
AcDbEntity
  8
MAIN10
  6
CONTINUOUS
 62
5
370
    18
100
AcDbLine
 10
603.6285201742143
 20
971.7364710846316
 30
0.0000000000000000
 11
673.6285201444119
 21
971.7364710846316
 31
0.0000000000000000
  0
LINE
  5
162
100
AcDbEntity
  8
MAIN10
  6
CONTINUOUS
 62
5
370
    18
100
AcDbLine
 10
668.6285201444119
 20
971.7364710846316
 30
0.0000000000000000
 11
668.6285201444119
 21
931.7364710846316
 31
0.0000000000000000
  0
LINE
  5
163
100
AcDbEntity
  8
MAIN10
  6
CONTINUOUS
 62
5
370
    18
100
AcDbLine
 10
670.1285202040166
 20
966.7364710846316
 30
0.0000000000000000
 11
668.6285201444119
 21
971.7364710846316
 31
0.0000000000000000
  0
LINE
  5
164
100
AcDbEntity
  8
MAIN10
  6
CONTINUOUS
 62
5
370
    18
100
AcDbLine
 10
668.6285201444119
 20
971.7364710846316
 30
0.0000000000000000
 11
667.1285200848073
 21
966.7364710846316
 31
0.0000000000000000
  0
LINE
  5
165
100
AcDbEntity
  8
MAIN10
  6
CONTINUOUS
 62
5
370
    18
100
AcDbLine
 10
670.1285202040166
 20
936.7364710846316
 30
0.0000000000000000
 11
668.6285201444119
 21
931.7364710846316
 31
0.0000000000000000
  0
LINE
  5
166
100
AcDbEntity
  8
MAIN10
  6
CONTINUOUS
 62
5
370
    18
100
AcDbLine
 10
668.6285201444119
 20
931.7364710846316
 30
0.0000000000000000
 11
667.1285200848073
 21
936.7364710846316
 31
0.0000000000000000
  0
MTEXT
  5
167
100
AcDbEntity
  8
MAIN10
  6
CONTINUOUS
 62
7
370
    25
100
AcDbMText
 10
667.3785201444119
 20
951.7364710846316
 30
0.0000000000000000
 40
5.579999828338623
 41
0.0000000000000000
 44
0.7741935722041460
 71
     8
 72
     1
  1
{\H0.69x;{40}}
 11
6.123233995736766e-017
 21
1.000000000000000
 31
0.0000000000000000
  7
STANDARD
  0
LINE
  5
168
100
AcDbEntity
  8
MAIN10
  6
CONTINUOUS
 62
5
370
    18
100
AcDbLine
 10
610.8207843302116
 20
931.7364710846316
 30
0.0000000000000000
 11
673.6285201444119
 21
931.7364710846316
 31
0.0000000000000000
  0
LINE
  5
169
100
AcDbEntity
  8
MAIN10
  6
CONTINUOUS
 62
5
370
    18
100
AcDbLine
 10
668.6285201444119
 20
931.7364710846316
 30
0.0000000000000000
 11
668.6285201444119
 21
871.7364710846351
 31
0.0000000000000000
  0
LINE
  5
16A
100
AcDbEntity
  8
MAIN10
  6
CONTINUOUS
 62
5
370
    18
100
AcDbLine
 10
670.1285202040166
 20
926.7364710846316
 30
0.0000000000000000
 11
668.6285201444119
 21
931.7364710846316
 31
0.0000000000000000
  0
LINE
  5
16B
100
AcDbEntity
  8
MAIN10
  6
CONTINUOUS
 62
5
370
    18
100
AcDbLine
 10
668.6285201444119
 20
931.7364710846316
 30
0.0000000000000000
 11
667.1285200848073
 21
926.7364710846316
 31
0.0000000000000000
  0
LINE
  5
16C
100
AcDbEntity
  8
MAIN10
  6
CONTINUOUS
 62
5
370
    18
100
AcDbLine
 10
670.1285202040166
 20
876.7364710846351
 30
0.0000000000000000
 11
668.6285201444119
 21
871.7364710846351
 31
0.0000000000000000
  0
LINE
  5
16D
100
AcDbEntity
  8
MAIN10
  6
CONTINUOUS
 62
5
370
    18
100
AcDbLine
 10
668.6285201444119
 20
871.7364710846351
 30
0.0000000000000000
 11
667.1285200848073
 21
876.7364710846351
 31
0.0000000000000000
  0
MTEXT
  5
16E
100
AcDbEntity
  8
MAIN10
  6
CONTINUOUS
 62
7
370
    25
100
AcDbMText
 10
667.3785201444119
 20
901.7364710846334
 30
0.0000000000000000
 40
5.579999828338623
 41
0.0000000000000000
 44
0.7741935722041460
 71
     8
 72
     1
  1
{\H0.69x;{60}}
 11
6.123233995736766e-017
 21
1.000000000000000
 31
0.0000000000000000
  7
STANDARD
  0
LINE
  5
16F
100
AcDbEntity
  8
MAIN10
  6
CONTINUOUS
 62
5
370
    18
100
AcDbLine
 10
612.2181375730477
 20
871.7364710846351
 30
0.0000000000000000
 11
673.6285201444119
 21
871.7364710846351
 31
0.0000000000000000
  0
LINE
  5
170
100
AcDbEntity
  8
MAIN10
  6
CONTINUOUS
 62
5
370
    18
100
AcDbLine
 10
668.6285201444119
 20
871.7364710846351
 30
0.0000000000000000
 11
668.6285201444119
 21
791.7364710846351
 31
0.0000000000000000
  0
LINE
  5
171
100
AcDbEntity
  8
MAIN10
  6
CONTINUOUS
 62
5
370
    18
100
AcDbLine
 10
670.1285202040166
 20
866.7364710846351
 30
0.0000000000000000
 11
668.6285201444119
 21
871.7364710846351
 31
0.0000000000000000
  0
LINE
  5
172
100
AcDbEntity
  8
MAIN10
  6
CONTINUOUS
 62
5
370
    18
100
AcDbLine
 10
668.6285201444119
 20
871.7364710846351
 30
0.0000000000000000
 11
667.1285200848073
 21
866.7364710846351
 31
0.0000000000000000
  0
LINE
  5
173
100
AcDbEntity
  8
MAIN10
  6
CONTINUOUS
 62
5
370
    18
100
AcDbLine
 10
670.1285202040166
 20
796.7364710846351
 30
0.0000000000000000
 11
668.6285201444119
 21
791.7364710846351
 31
0.0000000000000000
  0
LINE
  5
174
100
AcDbEntity
  8
MAIN10
  6
CONTINUOUS
 62
5
370
    18
100
AcDbLine
 10
668.6285201444119
 20
791.7364710846351
 30
0.0000000000000000
 11
667.1285200848073
 21
796.7364710846351
 31
0.0000000000000000
  0
MTEXT
  5
175
100
AcDbEntity
  8
MAIN10
  6
CONTINUOUS
 62
7
370
    25
100
AcDbMText
 10
667.3785201444119
 20
831.7364710846351
 30
0.0000000000000000
 40
5.579999828338623
 41
0.0000000000000000
 44
0.7741935722041460
 71
     8
 72
     1
  1
{\H0.69x;{80}}
 11
6.123233995736766e-017
 21
1.000000000000000
 31
0.0000000000000000
  7
STANDARD
  0
LINE
  5
176
100
AcDbEntity
  8
MAIN10
  6
CONTINUOUS
 62
5
370
    18
100
AcDbLine
 10
603.6285201742142
 20
791.7364710846351
 30
0.0000000000000000
 11
673.6285201444119
 21
791.7364710846351
 31
0.0000000000000000
  0
LINE
  5
177
100
AcDbEntity
  8
MAIN10
  6
CONTINUOUS
 62
5
370
    18
100
AcDbLine
 10
612.2181375730477
 20
871.7364710846351
 30
0.0000000000000000
 11
643.6285201444119
 21
871.7364710846351
 31
0.0000000000000000
  0
LINE
  5
178
100
AcDbEntity
  8
MAIN10
  6
CONTINUOUS
 62
5
370
    18
100
AcDbLine
 10
638.6285201444119
 20
871.7364710846351
 30
0.0000000000000000
 11
638.6285201444119
 21
742.2364710846352
 31
0.0000000000000000
  0
LINE
  5
179
100
AcDbEntity
  8
MAIN10
  6
CONTINUOUS
 62
5
370
    18
100
AcDbLine
 10
640.1285202040166
 20
866.7364710846351
 30
0.0000000000000000
 11
638.6285201444119
 21
871.7364710846351
 31
0.0000000000000000
  0
LINE
  5
17A
100
AcDbEntity
  8
MAIN10
  6
CONTINUOUS
 62
5
370
    18
100
AcDbLine
 10
638.6285201444119
 20
871.7364710846351
 30
0.0000000000000000
 11
637.1285200848073
 21
866.7364710846351
 31
0.0000000000000000
  0
LINE
  5
17B
100
AcDbEntity
  8
MAIN10
  6
CONTINUOUS
 62
5
370
    18
100
AcDbLine
 10
640.1285202040166
 20
747.2364710846352
 30
0.0000000000000000
 11
638.6285201444119
 21
742.2364710846352
 31
0.0000000000000000
  0
LINE
  5
17C
100
AcDbEntity
  8
MAIN10
  6
CONTINUOUS
 62
5
370
    18
100
AcDbLine
 10
638.6285201444119
 20
742.2364710846352
 30
0.0000000000000000
 11
637.1285200848073
 21
747.2364710846352
 31
0.0000000000000000
  0
MTEXT
  5
17D
100
AcDbEntity
  8
MAIN10
  6
CONTINUOUS
 62
7
370
    25
100
AcDbMText
 10
637.3785201444119
 20
822.5784429699570
 30
0.0000000000000000
 40
5.579999828338623
 41
0.0000000000000000
 44
0.7741935722041460
 71
     8
 72
     1
  1
{MAX 147.5}
 11
6.123233995736766e-017
 21
1.000000000000000
 31
0.0000000000000000
  7
STANDARD
  0
LINE
  5
17E
100
AcDbEntity
  8
MAIN10
  6
CONTINUOUS
 62
5
370
    18
100
AcDbLine
 10
533.6285201742143
 20
742.2364710846352
 30
0.0000000000000000
 11
643.6285201444119
 21
742.2364710846352
 31
0.0000000000000000
  0
LINE
  5
17F
100
AcDbEntity
  8
MAIN10
  6
CONTINUOUS
 62
5
370
    18
100
AcDbLine
 10
638.6285201444119
 20
742.2364710846352
 30
0.0000000000000000
 11
638.6285201444119
 21
619.2364710846352
 31
0.0000000000000000
  0
LINE
  5
180
100
AcDbEntity
  8
MAIN10
  6
CONTINUOUS
 62
5
370
    18
100
AcDbLine
 10
640.1285202040166
 20
737.2364710846352
 30
0.0000000000000000
 11
638.6285201444119
 21
742.2364710846352
 31
0.0000000000000000
  0
LINE
  5
181
100
AcDbEntity
  8
MAIN10
  6
CONTINUOUS
 62
5
370
    18
100
AcDbLine
 10
638.6285201444119
 20
742.2364710846352
 30
0.0000000000000000
 11
637.1285200848073
 21
737.2364710846352
 31
0.0000000000000000
  0
LINE
  5
182
100
AcDbEntity
  8
MAIN10
  6
CONTINUOUS
 62
5
370
    18
100
AcDbLine
 10
640.1285202040166
 20
624.2364710846352
 30
0.0000000000000000
 11
638.6285201444119
 21
619.2364710846352
 31
0.0000000000000000
  0
LINE
  5
183
100
AcDbEntity
  8
MAIN10
  6
CONTINUOUS
 62
5
370
    18
100
AcDbLine
 10
638.6285201444119
 20
619.2364710846352
 30
0.0000000000000000
 11
637.1285200848073
 21
624.2364710846352
 31
0.0000000000000000
  0
MTEXT
  5
184
100
AcDbEntity
  8
MAIN10
  6
CONTINUOUS
 62
7
370
    25
100
AcDbMText
 10
637.3785201444119
 20
680.7364710846352
 30
0.0000000000000000
 40
5.579999828338623
 41
0.0000000000000000
 44
0.7741935722041460
 71
     8
 72
     1
  1
{MAX 123}
 11
6.123233995736766e-017
 21
1.000000000000000
 31
0.0000000000000000
  7
STANDARD
  0
LINE
  5
185
100
AcDbEntity
  8
MAIN10
  6
CONTINUOUS
 62
5
370
    18
100
AcDbLine
 10
601.6285201444121
 20
973.7364711144339
 30
0.0000000000000000
 11
601.6285201444121
 21
1004.236471084635
 31
0.0000000000000000
  0
LINE
  5
186
100
AcDbEntity
  8
MAIN10
  6
CONTINUOUS
 62
5
370
    18
100
AcDbLine
 10
601.6285201444121
 20
999.2364710846352
 30
0.0000000000000000
 11
528.6285201444121
 21
999.2364710846352
 31
0.0000000000000000
  0
LINE
  5
187
100
AcDbEntity
  8
MAIN10
  6
CONTINUOUS
 62
5
370
    18
100
AcDbLine
 10
596.6285201444121
 20
997.7364710250306
 30
0.0000000000000000
 11
601.6285201444121
 21
999.2364710846352
 31
0.0000000000000000
  0
LINE
  5
188
100
AcDbEntity
  8
MAIN10
  6
CONTINUOUS
 62
5
370
    18
100
AcDbLine
 10
601.6285201444121
 20
999.2364710846352
 30
0.0000000000000000
 11
596.6285201444121
 21
1000.736471144240
 31
0.0000000000000000
  0
LINE
  5
189
100
AcDbEntity
  8
MAIN10
  6
CONTINUOUS
 62
5
370
    18
100
AcDbLine
 10
533.6285201444121
 20
997.7364710250306
 30
0.0000000000000000
 11
528.6285201444121
 21
999.2364710846352
 31
0.0000000000000000
  0
LINE
  5
18A
100
AcDbEntity
  8
MAIN10
  6
CONTINUOUS
 62
5
370
    18
100
AcDbLine
 10
528.6285201444121
 20
999.2364710846352
 30
0.0000000000000000
 11
533.6285201444121
 21
1000.736471144240
 31
0.0000000000000000
  0
MTEXT
  5
18B
100
AcDbEntity
  8
MAIN10
  6
CONTINUOUS
 62
7
370
    25
100
AcDbMText
 10
565.1285201444121
 20
1000.486471084635
 30
0.0000000000000000
 40
5.579999828338623
 41
0.0000000000000000
 44
0.7741935722041460
 71
     8
 72
     1
  1
{\H0.69x;{73}}
 11
1.000000000000000
 21
0.0000000000000000
 31
0.0000000000000000
  7
STANDARD
  0
LINE
  5
18C
100
AcDbEntity
  8
MAIN10
  6
CONTINUOUS
 62
5
370
    18
100
AcDbLine
 10
528.6285201444121
 20
971.2364711144339
 30
0.0000000000000000
 11
528.6285201444121
 21
1004.236471084635
 31
0.0000000000000000
  0
LEADER
  5
18D
100
AcDbEntity
  8
MAIN0
  6
CONTINUOUS
 62
5
370
    18
100
AcDbLeader
  3
MAIN001
 73
     0
 74
     0
 75
     1
 40
5.579999828338623
 41
97.00100006705532
 76
     3
 10
533.6285201444117
 20
960.2953517917792
 30
0.0000000000000000
 10
628.6285201444119
 20
999.2364710846352
 30
0.0000000000000000
 10
633.0925200127601
 20
999.2364710846352
 30
0.0000000000000000
340
18E
213
-0.001000000000090040
223
-1.250000000000000
233
0.0000000000000000
1001
ACAD
1000
DSTYLE
1002
{
1070
   147
1040
0.0
1070
    77
1070
     1
1070
   341
1005
13
1070
    41
1040
2.000000
1002
}
  0
MTEXT
  5
18E
102
{ACAD_REACTORS
330
18D
102
}
100
AcDbEntity
  8
MAIN0
  6
CONTINUOUS
 62
7
370
    25
100
AcDbMText
 10
633.0935200127602
 20
1008.236470846217
 30
0.0000000000000000
 40
5.579999828338623
 41
0.0000000000000000
 44
0.7935483930510365
 71
     1
 72
     1
  1
{\H0.69x;{セレーションピッチ　3.0\PSERRATION PITCH 3.0}}
 11
1.000000000000000
 21
0.0000000000000000
 31
0.0000000000000000
  7
STANDARD
  0
LINE
  5
18F
100
AcDbEntity
  8
MAIN10
  6
CONTINUOUS
 62
5
370
    18
100
AcDbLine
 10
518.8530409598299
 20
472.1364710846338
 30
0.0000000000000000
 11
518.8530409598299
 21
436.1364710846378
 31
0.0000000000000000
  0
LINE
  5
190
100
AcDbEntity
  8
MAIN10
  6
CONTINUOUS
 62
5
370
    18
100
AcDbLine
 10
520.3530410194345
 20
467.1364710846338
 30
0.0000000000000000
 11
518.8530409598299
 21
472.1364710846338
 31
0.0000000000000000
  0
LINE
  5
191
100
AcDbEntity
  8
MAIN10
  6
CONTINUOUS
 62
5
370
    18
100
AcDbLine
 10
518.8530409598299
 20
472.1364710846338
 30
0.0000000000000000
 11
517.3530409002252
 21
467.1364710846338
 31
0.0000000000000000
  0
LINE
  5
192
100
AcDbEntity
  8
MAIN10
  6
CONTINUOUS
 62
5
370
    18
100
AcDbLine
 10
520.3530410194345
 20
441.1364710846378
 30
0.0000000000000000
 11
518.8530409598299
 21
436.1364710846378
 31
0.0000000000000000
  0
LINE
  5
193
100
AcDbEntity
  8
MAIN10
  6
CONTINUOUS
 62
5
370
    18
100
AcDbLine
 10
518.8530409598299
 20
436.1364710846378
 30
0.0000000000000000
 11
517.3530409002252
 21
441.1364710846378
 31
0.0000000000000000
  0
MTEXT
  5
194
100
AcDbEntity
  8
MAIN10
  6
CONTINUOUS
 62
7
370
    25
100
AcDbMText
 10
517.6030409598299
 20
454.1364710846358
 30
0.0000000000000000
 40
5.579999828338623
 41
0.0000000000000000
 44
0.7741935722041460
 71
     8
 72
     1
  1
{\U+220536}
 11
6.123233995736766e-017
 21
1.000000000000000
 31
0.0000000000000000
  7
STANDARD
  0
LINE
  5
195
100
AcDbEntity
  8
MAIN10
  6
CONTINUOUS
 62
5
370
    18
100
AcDbLine
 10
528.6285201444117
 20
489.2364710846352
 30
0.0000000000000000
 11
503.6285201444119
 21
489.2364710846352
 31
0.0000000000000000
  0
LINE
  5
196
100
AcDbEntity
  8
MAIN10
  6
CONTINUOUS
 62
5
370
    18
100
AcDbLine
 10
523.6285201444117
 20
487.7364710250306
 30
0.0000000000000000
 11
528.6285201444117
 21
489.2364710846352
 31
0.0000000000000000
  0
LINE
  5
197
100
AcDbEntity
  8
MAIN10
  6
CONTINUOUS
 62
5
370
    18
100
AcDbLine
 10
528.6285201444117
 20
489.2364710846352
 30
0.0000000000000000
 11
523.6285201444117
 21
490.7364711442399
 31
0.0000000000000000
  0
LINE
  5
198
100
AcDbEntity
  8
MAIN10
  6
CONTINUOUS
 62
5
370
    18
100
AcDbLine
 10
508.6285201444119
 20
487.7364710250306
 30
0.0000000000000000
 11
503.6285201444119
 21
489.2364710846352
 31
0.0000000000000000
  0
LINE
  5
199
100
AcDbEntity
  8
MAIN10
  6
CONTINUOUS
 62
5
370
    18
100
AcDbLine
 10
503.6285201444119
 20
489.2364710846352
 30
0.0000000000000000
 11
508.6285201444119
 21
490.7364711442399
 31
0.0000000000000000
  0
MTEXT
  5
19A
100
AcDbEntity
  8
MAIN10
  6
CONTINUOUS
 62
7
370
    25
100
AcDbMText
 10
516.1285201444118
 20
490.4864710846352
 30
0.0000000000000000
 40
5.579999828338623
 41
0.0000000000000000
 44
0.7741935722041460
 71
     8
 72
     1
  1
{\H0.69x;{25}}
 11
1.000000000000000
 21
0.0000000000000000
 31
0.0000000000000000
  7
STANDARD
  0
LINE
  5
19B
100
AcDbEntity
  8
MAIN10
  6
CONTINUOUS
 62
5
370
    18
100
AcDbLine
 10
503.6285201444119
 20
474.1364711144362
 30
0.0000000000000000
 11
503.6285201444119
 21
494.2364710846352
 31
0.0000000000000000
  0
LINE
  5
19C
100
AcDbEntity
  8
MAIN10
  6
CONTINUOUS
 62
5
370
    18
100
AcDbLine
 10
498.6285201444119
 20
466.1364710846378
 30
0.0000000000000000
 11
498.6285201444119
 21
442.1364710846339
 31
0.0000000000000000
  0
LINE
  5
19D
100
AcDbEntity
  8
MAIN10
  6
CONTINUOUS
 62
5
370
    18
100
AcDbLine
 10
500.1285202040166
 20
461.1364710846378
 30
0.0000000000000000
 11
498.6285201444119
 21
466.1364710846378
 31
0.0000000000000000
  0
LINE
  5
19E
100
AcDbEntity
  8
MAIN10
  6
CONTINUOUS
 62
5
370
    18
100
AcDbLine
 10
498.6285201444119
 20
466.1364710846378
 30
0.0000000000000000
 11
497.1285200848073
 21
461.1364710846378
 31
0.0000000000000000
  0
LINE
  5
19F
100
AcDbEntity
  8
MAIN10
  6
CONTINUOUS
 62
5
370
    18
100
AcDbLine
 10
500.1285202040166
 20
447.1364710846339
 30
0.0000000000000000
 11
498.6285201444119
 21
442.1364710846339
 31
0.0000000000000000
  0
LINE
  5
1A0
100
AcDbEntity
  8
MAIN10
  6
CONTINUOUS
 62
5
370
    18
100
AcDbLine
 10
498.6285201444119
 20
442.1364710846339
 30
0.0000000000000000
 11
497.1285200848073
 21
447.1364710846339
 31
0.0000000000000000
  0
MTEXT
  5
1A1
100
AcDbEntity
  8
MAIN10
  6
CONTINUOUS
 62
7
370
    25
100
AcDbMText
 10
497.3785201444119
 20
454.1364710846358
 30
0.0000000000000000
 40
5.579999828338623
 41
0.0000000000000000
 44
0.7741935722041460
 71
     8
 72
     1
  1
{\U+220524}
 11
6.123233995736766e-017
 21
1.000000000000000
 31
0.0000000000000000
  7
STANDARD
  0
LINE
  5
1A2
100
AcDbEntity
  8
MAIN0
  6
CENTER
 62
5
370
    18
100
AcDbLine
 10
501.1285201444119
 20
454.1364710846358
 30
0.0000000000000000
 11
539.5377499009748
 21
454.1364710846358
 31
0.0000000000000000
  0
LINE
  5
1A3
100
AcDbEntity
  8
MAIN10
  6
CONTINUOUS
 62
5
370
    18
100
AcDbLine
 10
385.6285201444119
 20
499.2364710846352
 30
0.0000000000000000
 11
408.6285201444121
 21
499.2364710846352
 31
0.0000000000000000
  0
LINE
  5
1A4
100
AcDbEntity
  8
MAIN10
  6
CONTINUOUS
 62
5
370
    18
100
AcDbLine
 10
390.6285201444119
 20
500.7364711442399
 30
0.0000000000000000
 11
385.6285201444119
 21
499.2364710846352
 31
0.0000000000000000
  0
LINE
  5
1A5
100
AcDbEntity
  8
MAIN10
  6
CONTINUOUS
 62
5
370
    18
100
AcDbLine
 10
385.6285201444119
 20
499.2364710846352
 30
0.0000000000000000
 11
390.6285201444119
 21
497.7364710250306
 31
0.0000000000000000
  0
LINE
  5
1A6
100
AcDbEntity
  8
MAIN10
  6
CONTINUOUS
 62
5
370
    18
100
AcDbLine
 10
403.6285201444121
 20
500.7364711442399
 30
0.0000000000000000
 11
408.6285201444121
 21
499.2364710846352
 31
0.0000000000000000
  0
LINE
  5
1A7
100
AcDbEntity
  8
MAIN10
  6
CONTINUOUS
 62
5
370
    18
100
AcDbLine
 10
408.6285201444121
 20
499.2364710846352
 30
0.0000000000000000
 11
403.6285201444121
 21
497.7364710250306
 31
0.0000000000000000
  0
MTEXT
  5
1A8
100
AcDbEntity
  8
MAIN10
  6
CONTINUOUS
 62
7
370
    25
100
AcDbMText
 10
397.1285201444119
 20
500.4864710846352
 30
0.0000000000000000
 40
5.579999828338623
 41
0.0000000000000000
 44
0.7741935722041460
 71
     8
 72
     1
  1
{\H0.69x;{23}}
 11
1.000000000000000
 21
0.0000000000000000
 31
0.0000000000000000
  7
STANDARD
  0
MTEXT
  5
1A9
100
AcDbEntity
  8
MAIN0
  6
CONTINUOUS
 62
7
370
    25
100
AcDbMText
 10
386.2109015339003
 20
497.2751330198277
 30
0.0000000000000000
 40
4.499999999999999
 41
0.0000000000000000
 44
0.8400000000000000
 71
     1
 72
     1
  1
{\H0.61x;{ストローク\PSTROKE}}
 11
1.000000000000000
 21
0.0000000000000000
 31
0.0000000000000000
  7
STANDARD
  0
LINE
  5
1AA
100
AcDbEntity
  8
MAIN10
  6
CONTINUOUS
 62
5
370
    18
100
AcDbLine
 10
372.1285201444119
 20
403.2136508252058
 30
0.0000000000000000
 11
393.1285201444119
 21
403.2136508252058
 31
0.0000000000000000
  0
LINE
  5
1AB
100
AcDbEntity
  8
MAIN10
  6
CONTINUOUS
 62
5
370
    18
100
AcDbLine
 10
374.6285201444119
 20
404.7136508848105
 30
0.0000000000000000
 11
379.6285201444119
 21
403.2136508252058
 31
0.0000000000000000
  0
LINE
  5
1AC
100
AcDbEntity
  8
MAIN10
  6
CONTINUOUS
 62
5
370
    18
100
AcDbLine
 10
379.6285201444119
 20
403.2136508252058
 30
0.0000000000000000
 11
374.6285201444119
 21
401.7136507656012
 31
0.0000000000000000
  0
LINE
  5
1AD
100
AcDbEntity
  8
MAIN10
  6
CONTINUOUS
 62
5
370
    18
100
AcDbLine
 10
390.6285201444119
 20
404.7136508848105
 30
0.0000000000000000
 11
385.6285201444119
 21
403.2136508252058
 31
0.0000000000000000
  0
LINE
  5
1AE
100
AcDbEntity
  8
MAIN10
  6
CONTINUOUS
 62
5
370
    18
100
AcDbLine
 10
385.6285201444119
 20
403.2136508252058
 30
0.0000000000000000
 11
390.6285201444119
 21
401.7136507656012
 31
0.0000000000000000
  0
MTEXT
  5
1AF
100
AcDbEntity
  8
MAIN10
  6
CONTINUOUS
 62
7
370
    25
100
AcDbMText
 10
375.0029961009313
 20
404.4636508252058
 30
0.0000000000000000
 40
5.579999828338623
 41
0.0000000000000000
 44
0.7741935722041460
 71
     8
 72
     1
  1
{\H0.67x;{6}}
 11
1.000000000000000
 21
0.0000000000000000
 31
0.0000000000000000
  7
STANDARD
  0
LINE
  5
1B0
100
AcDbEntity
  8
MAIN10
  6
CONTINUOUS
 62
5
370
    18
100
AcDbLine
 10
385.6285201444119
 20
427.2364710548329
 30
0.0000000000000000
 11
385.6285201444119
 21
398.2136508252058
 31
0.0000000000000000
  0
LINE
  5
1B1
100
AcDbEntity
  8
MAIN10
  6
CONTINUOUS
 62
5
370
    18
100
AcDbLine
 10
528.6285201444117
 20
270.2364710548366
 30
0.0000000000000000
 11
528.6285201444117
 21
236.5535173180589
 31
0.0000000000000000
  0
LINE
  5
1B2
100
AcDbEntity
  8
MAIN10
  6
CONTINUOUS
 62
5
370
    18
100
AcDbLine
 10
528.6285201444117
 20
241.5535173180589
 30
0.0000000000000000
 11
458.6285201444117
 21
241.5535173180589
 31
0.0000000000000000
  0
LINE
  5
1B3
100
AcDbEntity
  8
MAIN10
  6
CONTINUOUS
 62
5
370
    18
100
AcDbLine
 10
523.6285201444117
 20
240.0535172584542
 30
0.0000000000000000
 11
528.6285201444117
 21
241.5535173180589
 31
0.0000000000000000
  0
LINE
  5
1B4
100
AcDbEntity
  8
MAIN10
  6
CONTINUOUS
 62
5
370
    18
100
AcDbLine
 10
528.6285201444117
 20
241.5535173180589
 30
0.0000000000000000
 11
523.6285201444117
 21
243.0535173776635
 31
0.0000000000000000
  0
LINE
  5
1B5
100
AcDbEntity
  8
MAIN10
  6
CONTINUOUS
 62
5
370
    18
100
AcDbLine
 10
463.6285201444117
 20
240.0535172584542
 30
0.0000000000000000
 11
458.6285201444117
 21
241.5535173180589
 31
0.0000000000000000
  0
LINE
  5
1B6
100
AcDbEntity
  8
MAIN10
  6
CONTINUOUS
 62
5
370
    18
100
AcDbLine
 10
458.6285201444117
 20
241.5535173180589
 30
0.0000000000000000
 11
463.6285201444117
 21
243.0535173776635
 31
0.0000000000000000
  0
MTEXT
  5
1B7
100
AcDbEntity
  8
MAIN10
  6
CONTINUOUS
 62
7
370
    25
100
AcDbMText
 10
493.6285201444117
 20
242.8035173180589
 30
0.0000000000000000
 40
5.579999828338623
 41
0.0000000000000000
 44
0.7741935722041460
 71
     8
 72
     1
  1
{\H0.69x;{70}}
 11
1.000000000000000
 21
0.0000000000000000
 31
0.0000000000000000
  7
STANDARD
  0
LINE
  5
1B8
100
AcDbEntity
  8
MAIN10
  6
CONTINUOUS
 62
5
370
    18
100
AcDbLine
 10
458.6285201444117
 20
257.8740893018451
 30
0.0000000000000000
 11
458.6285201444117
 21
236.5535173180589
 31
0.0000000000000000
  0
LEADER
  5
1B9
100
AcDbEntity
  8
MAIN0
  6
CONTINUOUS
 62
5
370
    18
100
AcDbLeader
  3
MAIN001
 73
     0
 75
     1
 40
5.579999828338623
 41
67.99900004470345
 76
     3
 10
450.6285201444111
 20
287.8335420891767
 30
0.0000000000000000
 10
423.9932360413413
 20
177.9797509874420
 30
0.0000000000000000
 10
419.5272361729931
 20
177.9797509874420
 30
0.0000000000000000
340
1BA
213
0.0000000000000000
223
-1.250000000000000
233
0.0000000000000000
1001
ACAD
1000
DSTYLE
1002
{
1070
   147
1040
0.0
1070
    77
1070
     1
1070
   341
1005
13
1070
    41
1040
2.000000
1002
}
  0
MTEXT
  5
1BA
102
{ACAD_REACTORS
330
1B9
102
}
100
AcDbEntity
  8
MAIN0
  6
CONTINUOUS
 62
7
370
    25
100
AcDbMText
 10
351.5282361282896
 20
186.9797507490234
 30
0.0000000000000000
 40
5.579999828338623
 41
0.0000000000000000
 44
0.7935483930510365
 71
     1
 72
     1
  1
{\H0.71x;{2-M16 ネジ深30\P2-M16 DEPTH30}}
 11
1.000000000000000
 21
0.0000000000000000
 31
0.0000000000000000
  7
STANDARD
  0
LINE
  5
1BB
100
AcDbEntity
  8
MAIN10
  6
CONTINUOUS
 62
5
370
    18
100
AcDbLine
 10
1081.662149378242
 20
973.7364711144335
 30
0.0000000000000000
 11
1081.662149378242
 21
990.3322151778065
 31
0.0000000000000000
  0
LINE
  5
1BC
100
AcDbEntity
  8
MAIN10
  6
CONTINUOUS
 62
5
370
    18
100
AcDbLine
 10
1081.662149378242
 20
985.3322151778065
 30
0.0000000000000000
 11
1016.662149378242
 21
985.3322151778065
 31
0.0000000000000000
  0
LINE
  5
1BD
100
AcDbEntity
  8
MAIN10
  6
CONTINUOUS
 62
5
370
    18
100
AcDbLine
 10
1076.662149378242
 20
983.8322151182018
 30
0.0000000000000000
 11
1081.662149378242
 21
985.3322151778065
 31
0.0000000000000000
  0
LINE
  5
1BE
100
AcDbEntity
  8
MAIN10
  6
CONTINUOUS
 62
5
370
    18
100
AcDbLine
 10
1081.662149378242
 20
985.3322151778065
 30
0.0000000000000000
 11
1076.662149378242
 21
986.8322152374111
 31
0.0000000000000000
  0
LINE
  5
1BF
100
AcDbEntity
  8
MAIN10
  6
CONTINUOUS
 62
5
370
    18
100
AcDbLine
 10
1021.662149378242
 20
983.8322151182018
 30
0.0000000000000000
 11
1016.662149378242
 21
985.3322151778065
 31
0.0000000000000000
  0
LINE
  5
1C0
100
AcDbEntity
  8
MAIN10
  6
CONTINUOUS
 62
5
370
    18
100
AcDbLine
 10
1016.662149378242
 20
985.3322151778065
 30
0.0000000000000000
 11
1021.662149378242
 21
986.8322152374111
 31
0.0000000000000000
  0
MTEXT
  5
1C1
100
AcDbEntity
  8
MAIN10
  6
CONTINUOUS
 62
7
370
    25
100
AcDbMText
 10
1041.306698654649
 20
986.5822151778065
 30
0.0000000000000000
 40
5.579999828338623
 41
0.0000000000000000
 44
0.7741935722041460
 71
     8
 72
     1
  1
{\H0.69x;{65}}
 11
1.000000000000000
 21
0.0000000000000000
 31
0.0000000000000000
  7
STANDARD
  0
LINE
  5
1C2
100
AcDbEntity
  8
MAIN10
  6
CONTINUOUS
 62
5
370
    18
100
AcDbLine
 10
1016.662149378242
 20
973.7364711144334
 30
0.0000000000000000
 11
1016.662149378242
 21
990.3322151778065
 31
0.0000000000000000
  0
CIRCLE
  5
1C3
100
AcDbEntity
  8
MAIN0
  6
CONTINUOUS
 62
3
370
    35
100
AcDbCircle
 10
1167.912149378240
 20
824.9175044834403
 30
0.0000000000000000
 40
30.00000000000000
  0
ARC
  5
1C4
100
AcDbEntity
  8
MAIN0
  6
CONTINUOUS
 62
3
370
    35
100
AcDbCircle
 10
1049.162149378242
 20
619.2364710846351
 30
0.0000000000000000
 40
259.9999999999704
100
AcDbArc
 50
337.1807557814518
 51
415.4235376977621
  0
ARC
  5
1C5
100
AcDbEntity
  8
MAIN0
  6
CONTINUOUS
 62
3
370
    35
100
AcDbCircle
 10
1049.162149378242
 20
619.2364710846351
 30
0.0000000000000000
 40
259.9999999999704
100
AcDbArc
 50
64.57646230223902
 51
82.81924421854090
  0
LINE
  5
1C6
100
AcDbEntity
  8
MAIN0
  6
CENTER
 62
5
370
    18
100
AcDbLine
 10
1177.092406439553
 20
840.8181761404802
 30
0.0000000000000000
 11
1185.451499446731
 21
855.2965499341066
 31
0.0000000000000000
  0
LINE
  5
1C7
100
AcDbEntity
  8
MAIN0
  6
CENTER
 62
5
370
    18
100
AcDbLine
 10
1149.551635255351
 20
824.9175044832896
 30
0.0000000000000000
 11
1132.833449240995
 21
824.9175044832896
 31
0.0000000000000000
  0
CIRCLE
  5
1C8
100
AcDbEntity
  8
MAIN0
  6
CONTINUOUS
 62
3
370
    35
100
AcDbCircle
 10
1142.912149378240
 20
824.9175044832896
 30
0.0000000000000000
 40
4.000000000000000
  0
LINE
  5
1C9
100
AcDbEntity
  8
MAIN0
  6
CONTINUOUS
 62
3
370
    35
100
AcDbLine
 10
1141.356514459629
 20
823.3618695646793
 30
0.0000000000000000
 11
1144.467784296850
 21
826.4731394019002
 31
0.0000000000000000
  0
LINE
  5
1CA
100
AcDbEntity
  8
MAIN0
  6
CONTINUOUS
 62
3
370
    35
100
AcDbLine
 10
1141.356514459630
 20
826.4731394019001
 30
0.0000000000000000
 11
1144.467784296850
 21
823.3618695646793
 31
0.0000000000000000
  0
LINE
  5
1CB
100
AcDbEntity
  8
MAIN0
  6
CENTER
 62
5
370
    18
100
AcDbLine
 10
1177.092406439814
 20
809.0168328265517
 30
0.0000000000000000
 11
1185.451499446993
 21
794.5384590329253
 31
0.0000000000000000
  0
CIRCLE
  5
1CC
100
AcDbEntity
  8
MAIN0
  6
CONTINUOUS
 62
3
370
    35
100
AcDbCircle
 10
1180.412149378370
 20
803.2668693889050
 30
0.0000000000000000
 40
4.000000000000000
  0
LINE
  5
1CD
100
AcDbEntity
  8
MAIN0
  6
CONTINUOUS
 62
3
370
    35
100
AcDbLine
 10
1182.537186196206
 20
802.6974674896794
 30
0.0000000000000000
 11
1178.287112560534
 21
803.8362712881306
 31
0.0000000000000000
  0
LINE
  5
1CE
100
AcDbEntity
  8
MAIN0
  6
CONTINUOUS
 62
3
370
    35
100
AcDbLine
 10
1179.842747479145
 20
801.1418325710691
 30
0.0000000000000000
 11
1180.981551277596
 21
805.3919062067409
 31
0.0000000000000000
  0
ARC
  5
1CF
100
AcDbEntity
  8
MAIN0
  6
CENTER
 62
5
370
    18
100
AcDbCircle
 10
1167.912149378240
 20
824.9175044834403
 30
0.0000000000000000
 40
25.00000000000000
100
AcDbArc
 50
160.0020549415617
 51
199.8526056169073
  0
ARC
  5
1D0
100
AcDbEntity
  8
MAIN0
  6
CENTER
 62
5
370
    18
100
AcDbCircle
 10
1167.912149378240
 20
824.9175044834403
 30
0.0000000000000000
 40
25.00000000000000
100
AcDbArc
 50
279.0274777204975
 51
322.5250814190869
  0
ARC
  5
1D1
100
AcDbEntity
  8
MAIN0
  6
CENTER
 62
5
370
    18
100
AcDbCircle
 10
1167.912149378240
 20
824.9175044834403
 30
0.0000000000000000
 40
25.00000000000000
100
AcDbArc
 50
39.55068280337064
 51
78.59633768917887
  0
CIRCLE
  5
1D2
100
AcDbEntity
  8
MAIN0
  6
CONTINUOUS
 62
3
370
    35
100
AcDbCircle
 10
1049.162149378242
 20
619.2364710846351
 30
0.0000000000000000
 40
97.50000000000000
  0
LINE
  5
1D3
100
AcDbEntity
  8
MAIN10
  6
CONTINUOUS
 62
5
370
    18
100
AcDbLine
 10
1211.427656558230
 20
588.7747708756635
 30
0.0000000000000000
 11
886.8966421982535
 21
649.6981712936066
 31
0.0000000000000000
  0
LINE
  5
1D4
100
AcDbEntity
  8
MAIN10
  6
CONTINUOUS
 62
5
370
    18
100
AcDbLine
 10
1206.236741427829
 20
588.2230460458821
 30
0.0000000000000000
 11
1211.427656558230
 21
588.7747708756635
 31
0.0000000000000000
  0
LINE
  5
1D5
100
AcDbEntity
  8
MAIN10
  6
CONTINUOUS
 62
5
370
    18
100
AcDbLine
 10
1211.427656558230
 20
588.7747708756635
 30
0.0000000000000000
 11
1206.790255081726
 21
591.1715411451161
 31
0.0000000000000000
  0
LINE
  5
1D6
100
AcDbEntity
  8
MAIN10
  6
CONTINUOUS
 62
5
370
    18
100
AcDbLine
 10
891.5340436747576
 20
647.3014010241541
 30
0.0000000000000000
 11
886.8966421982535
 21
649.6981712936066
 31
0.0000000000000000
  0
LINE
  5
1D7
100
AcDbEntity
  8
MAIN10
  6
CONTINUOUS
 62
5
370
    18
100
AcDbLine
 10
886.8966421982535
 20
649.6981712936066
 30
0.0000000000000000
 11
892.0875573286536
 21
650.2498961233880
 31
0.0000000000000000
  0
MTEXT
  5
1D8
100
AcDbEntity
  8
MAIN10
  6
CONTINUOUS
 62
7
370
    25
100
AcDbMText
 10
973.1819873201882
 20
634.7718732921130
 30
0.0000000000000000
 40
5.579999828338623
 41
0.0000000000000000
 44
0.7741935722041460
 71
     8
 72
     1
  1
{\U+2205330.2}
 11
0.9828316606904181
 21
-0.1845045439671201
 31
0.0000000000000000
  7
STANDARD
  0
MTEXT
  5
1D9
100
AcDbEntity
  8
MAIN10
  6
CONTINUOUS
 62
7
370
    25
100
AcDbMText
 10
995.9177319111926
 20
630.8852990191215
 30
0.0000000000000000
 40
5.039999914169311
 41
0.0000000000000000
 44
0.7500000127724241
 71
     8
 72
     1
  1
{\U+00B10.2}
 11
0.9828316606904181
 21
-0.1845045439671201
 31
0.0000000000000000
  7
STANDARD
  0
LINE
  5
1DA
100
AcDbEntity
  8
MAIN0
  6
CONTINUOUS
 62
3
370
    35
100
AcDbLine
 10
427.6285201444121
 20
732.9864710846350
 30
0.0000000000000000
 11
439.6285201444121
 21
732.9864710846350
 31
0.0000000000000000
  0
LINE
  5
1DB
100
AcDbEntity
  8
MAIN0
  6
CONTINUOUS
 62
3
370
    35
100
AcDbLine
 10
439.6285201444121
 20
726.4864710846350
 30
0.0000000000000000
 11
439.6285201444121
 21
732.9864710846350
 31
0.0000000000000000
  0
LINE
  5
1DC
100
AcDbEntity
  8
MAIN0
  6
CENTER
 62
5
370
    18
100
AcDbLine
 10
407.6569063339437
 20
493.2364710846351
 30
0.0000000000000000
 11
465.5102234428854
 21
493.2364710846351
 31
0.0000000000000000
  0
LINE
  5
1DD
100
AcDbEntity
  8
MAIN0
  6
CONTINUOUS
 62
3
370
    35
100
AcDbLine
 10
408.6285201444121
 20
479.2364710846351
 30
0.0000000000000000
 11
439.6285201444121
 21
479.2364710846351
 31
0.0000000000000000
  0
LINE
  5
1DE
100
AcDbEntity
  8
MAIN0
  6
CONTINUOUS
 62
3
370
    35
100
AcDbLine
 10
439.6285201444121
 20
479.2364710846351
 30
0.0000000000000000
 11
439.6285201444121
 21
486.9507288822387
 31
0.0000000000000000
  0
LINE
  5
1DF
100
AcDbEntity
  8
MAIN0
  6
CONTINUOUS
 62
3
370
    35
100
AcDbLine
 10
408.6285201444121
 20
503.8364710846350
 30
0.0000000000000000
 11
409.2285201444120
 21
503.2364710846351
 31
0.0000000000000000
  0
LINE
  5
1E0
100
AcDbEntity
  8
MAIN0
  6
CONTINUOUS
 62
3
370
    35
100
AcDbLine
 10
409.2285201444120
 20
503.2364710846351
 30
0.0000000000000000
 11
426.1285201444121
 21
503.2364710846351
 31
0.0000000000000000
  0
LINE
  5
1E1
100
AcDbEntity
  8
MAIN0
  6
CONTINUOUS
 62
3
370
    35
100
AcDbLine
 10
426.1285201444121
 20
503.2364710846351
 30
0.0000000000000000
 11
426.1285201444121
 21
483.2364710846351
 31
0.0000000000000000
  0
LINE
  5
1E2
100
AcDbEntity
  8
MAIN0
  6
CONTINUOUS
 62
3
370
    35
100
AcDbLine
 10
426.1285201444121
 20
483.2364710846351
 30
0.0000000000000000
 11
409.2285201444121
 21
483.2364710846351
 31
0.0000000000000000
  0
LINE
  5
1E3
100
AcDbEntity
  8
MAIN0
  6
CONTINUOUS
 62
3
370
    35
100
AcDbLine
 10
409.2285201444120
 20
483.2364710846351
 30
0.0000000000000000
 11
408.6285201444121
 21
482.6364710846351
 31
0.0000000000000000
  0
LINE
  5
1E4
100
AcDbEntity
  8
MAIN0
  6
CONTINUOUS
 62
3
370
    35
100
AcDbLine
 10
426.1285201444121
 20
499.9864710846351
 30
0.0000000000000000
 11
439.0285201444120
 21
499.9864710846351
 31
0.0000000000000000
  0
LINE
  5
1E5
100
AcDbEntity
  8
MAIN0
  6
CONTINUOUS
 62
3
370
    35
100
AcDbLine
 10
439.0285201444120
 20
499.9864710846351
 30
0.0000000000000000
 11
439.6285201444121
 21
500.5864710846351
 31
0.0000000000000000
  0
LINE
  5
1E6
100
AcDbEntity
  8
MAIN0
  6
CONTINUOUS
 62
3
370
    35
100
AcDbLine
 10
426.1285201444121
 20
486.4864710846351
 30
0.0000000000000000
 11
439.0285201444120
 21
486.4864710846351
 31
0.0000000000000000
  0
LINE
  5
1E7
100
AcDbEntity
  8
MAIN0
  6
CONTINUOUS
 62
3
370
    35
100
AcDbLine
 10
439.0285201444120
 20
486.4864710846351
 30
0.0000000000000000
 11
439.6285201444121
 21
485.8864710846351
 31
0.0000000000000000
  0
LINE
  5
1E8
100
AcDbEntity
  8
MAIN0
  6
CONTINUOUS
 62
3
370
    35
100
AcDbLine
 10
426.1285201444121
 20
502.2364710846351
 30
0.0000000000000000
 11
415.3285201444120
 21
502.2364710846351
 31
0.0000000000000000
  0
LINE
  5
1E9
100
AcDbEntity
  8
MAIN0
  6
CONTINUOUS
 62
3
370
    35
100
AcDbLine
 10
415.3285201444121
 20
502.2364710846351
 30
0.0000000000000000
 11
414.1285201444121
 21
500.1580101155524
 31
0.0000000000000000
  0
LINE
  5
1EA
100
AcDbEntity
  8
MAIN0
  6
CONTINUOUS
 62
3
370
    35
100
AcDbLine
 10
414.1285201444121
 20
500.1580101155524
 30
0.0000000000000000
 11
414.1285201444121
 21
486.3149320537178
 31
0.0000000000000000
  0
LINE
  5
1EB
100
AcDbEntity
  8
MAIN0
  6
CONTINUOUS
 62
3
370
    35
100
AcDbLine
 10
414.1285201444121
 20
486.3149320537178
 30
0.0000000000000000
 11
415.3285201444120
 21
484.2364710846351
 31
0.0000000000000000
  0
LINE
  5
1EC
100
AcDbEntity
  8
MAIN0
  6
CONTINUOUS
 62
3
370
    35
100
AcDbLine
 10
415.3285201444120
 20
484.2364710846351
 30
0.0000000000000000
 11
426.1285201444121
 21
484.2364710846351
 31
0.0000000000000000
  0
LINE
  5
1ED
100
AcDbEntity
  8
MAIN0
  6
CONTINUOUS
 62
3
370
    35
100
AcDbLine
 10
415.3285201444120
 20
502.2364710846351
 30
0.0000000000000000
 11
415.3285201444120
 21
484.2364710846351
 31
0.0000000000000000
  0
LINE
  5
1EE
100
AcDbEntity
  8
MAIN0
  6
CONTINUOUS
 62
3
370
    35
100
AcDbLine
 10
426.1285201444121
 20
499.2364710846351
 30
0.0000000000000000
 11
461.1285201444121
 21
499.2364710846351
 31
0.0000000000000000
  0
LINE
  5
1EF
100
AcDbEntity
  8
MAIN0
  6
CONTINUOUS
 62
3
370
    35
100
AcDbLine
 10
461.1285201444121
 20
499.2364710846351
 30
0.0000000000000000
 11
461.1285201444121
 21
487.2364710846351
 31
0.0000000000000000
  0
LINE
  5
1F0
100
AcDbEntity
  8
MAIN0
  6
CONTINUOUS
 62
3
370
    35
100
AcDbLine
 10
461.1285201444121
 20
487.2364710846351
 30
0.0000000000000000
 11
426.1285201444121
 21
487.2364710846351
 31
0.0000000000000000
  0
LINE
  5
1F1
100
AcDbEntity
  8
MAIN0
  6
CONTINUOUS
 62
5
370
    18
100
AcDbLine
 10
426.1285201444121
 20
498.2892555846352
 30
0.0000000000000000
 11
461.1285201444121
 21
498.2892555846352
 31
0.0000000000000000
  0
LINE
  5
1F2
100
AcDbEntity
  8
MAIN0
  6
CONTINUOUS
 62
5
370
    18
100
AcDbLine
 10
426.1285201444121
 20
488.1836865846351
 30
0.0000000000000000
 11
461.1285201444121
 21
488.1836865846351
 31
0.0000000000000000
  0
LINE
  5
1F3
100
AcDbEntity
  8
MAIN0
  6
CONTINUOUS
 62
3
370
    35
100
AcDbLine
 10
525.6285201444117
 20
269.2364710846389
 30
0.0000000000000000
 11
528.6285201444117
 21
272.2364710846389
 31
0.0000000000000000
  0
LINE
  5
1F4
100
AcDbEntity
  8
MAIN0
  6
CONTINUOUS
 62
3
370
    35
100
AcDbLine
 10
382.6285201444121
 20
969.2364710846316
 30
0.0000000000000000
 11
379.6285201444121
 21
966.2364710846316
 31
0.0000000000000000
  0
LINE
  5
1F5
100
AcDbEntity
  8
MAIN0
  6
CONTINUOUS
 62
3
370
    35
100
AcDbLine
 10
382.6285201444118
 20
269.2364710846388
 30
0.0000000000000000
 11
379.6285201444118
 21
272.2364710846388
 31
0.0000000000000000
  0
LINE
  5
1F6
100
AcDbEntity
  8
MAIN0
  6
CONTINUOUS
 62
3
370
    35
100
AcDbLine
 10
405.6285201444119
 20
727.7364710846351
 30
0.0000000000000000
 11
419.6974151067026
 21
727.7364710846351
 31
0.0000000000000000
  0
LINE
  5
1F7
100
AcDbEntity
  8
MAIN0
  6
CONTINUOUS
 62
3
370
    35
100
AcDbLine
 10
423.5596251821215
 20
727.7364710846351
 30
0.0000000000000000
 11
427.6285201444121
 21
727.7364710846351
 31
0.0000000000000000
  0
ARC
  5
1F8
100
AcDbEntity
  8
MAIN0
  6
CONTINUOUS
 62
3
370
    35
100
AcDbCircle
 10
1049.162149378242
 20
619.2364710846351
 30
0.0000000000000000
 40
319.9999999999704
100
AcDbArc
 50
95.82915327989265
 51
204.1708467201010
  0
LINE
  5
1F9
100
AcDbEntity
  8
MAIN0
  6
CONTINUOUS
 62
5
370
    18
100
AcDbLine
 10
531.6285201444119
 20
742.2364710846352
 30
0.0000000000000000
 11
531.6285201444119
 21
792.8911716230134
 31
0.0000000000000000
  0
LINE
  5
1FA
100
AcDbEntity
  8
MAIN0
  6
CONTINUOUS
 62
3
370
    35
100
AcDbLine
 10
531.6285201444119
 20
792.8911716230134
 30
0.0000000000000000
 11
531.6285201444119
 21
970.2364710846316
 31
0.0000000000000000
  0
LINE
  5
1FB
100
AcDbEntity
  8
MAIN0
  6
CONTINUOUS
 62
3
370
    35
100
AcDbLine
 10
533.6285201444117
 20
743.3911716230143
 30
0.0000000000000000
 11
533.6285201444117
 21
791.7364710846351
 31
0.0000000000000000
  0
LINE
  5
1FC
100
AcDbEntity
  8
MAIN0
  6
CONTINUOUS
 62
5
370
    18
100
AcDbLine
 10
533.6285201444117
 20
791.7364710846351
 30
0.0000000000000000
 11
533.6285201444117
 21
969.0817705462553
 31
0.0000000000000000
  0
LINE
  5
1FD
100
AcDbEntity
  8
MAIN0
  6
CONTINUOUS
 62
3
370
    35
100
AcDbLine
 10
405.6285201444119
 20
510.7364710846352
 30
0.0000000000000000
 11
405.6285201444119
 21
727.7364710846351
 31
0.0000000000000000
  0
LINE
  5
1FE
100
AcDbEntity
  8
MAIN0
  6
CONTINUOUS
 62
3
370
    35
100
AcDbLine
 10
408.6285201444121
 20
459.2364710846354
 30
0.0000000000000000
 11
408.6285201444121
 21
510.7364710846352
 31
0.0000000000000000
  0
LINE
  5
1FF
100
AcDbEntity
  8
MAIN0
  6
CONTINUOUS
 62
3
370
    35
100
AcDbLine
 10
408.6285201444121
 20
727.7364710846351
 30
0.0000000000000000
 11
408.6285201444121
 21
779.2364710846351
 31
0.0000000000000000
  0
LINE
  5
200
100
AcDbEntity
  8
MAIN0
  6
CONTINUOUS
 62
3
370
    35
100
AcDbLine
 10
439.6285201444122
 20
659.2364710846352
 30
0.0000000000000000
 11
406.6285201444119
 21
659.2364710846352
 31
0.0000000000000000
  0
LINE
  5
201
100
AcDbEntity
  8
MAIN0
  6
CONTINUOUS
 62
3
370
    35
100
AcDbLine
 10
439.6285201444119
 20
579.2364710846352
 30
0.0000000000000000
 11
406.6285201444121
 21
579.2364710846352
 31
0.0000000000000000
  0
LINE
  5
202
100
AcDbEntity
  8
MAIN0
  6
CONTINUOUS
 62
3
370
    35
100
AcDbLine
 10
439.6285201444121
 20
579.2364710846352
 30
0.0000000000000000
 11
440.6285201444121
 21
578.2364710846352
 31
0.0000000000000000
  0
LINE
  5
203
100
AcDbEntity
  8
MAIN0
  6
CONTINUOUS
 62
3
370
    35
100
AcDbLine
 10
406.6285201444121
 20
579.2364710846352
 30
0.0000000000000000
 11
405.6285201444121
 21
578.2364710846352
 31
0.0000000000000000
  0
LINE
  5
204
100
AcDbEntity
  8
MAIN0
  6
CONTINUOUS
 62
3
370
    35
100
AcDbLine
 10
439.6285201444122
 20
659.2364710846352
 30
0.0000000000000000
 11
440.6285201444122
 21
660.2364710846352
 31
0.0000000000000000
  0
LINE
  5
205
100
AcDbEntity
  8
MAIN0
  6
CONTINUOUS
 62
3
370
    35
100
AcDbLine
 10
406.6285201444119
 20
659.2364710846352
 30
0.0000000000000000
 11
405.6285201444119
 21
660.2364710846352
 31
0.0000000000000000
  0
LINE
  5
206
100
AcDbEntity
  8
MAIN10
  6
CONTINUOUS
 62
5
370
    18
100
AcDbLine
 10
404.6285201146096
 20
659.2364710846352
 30
0.0000000000000000
 11
312.4347647722987
 21
659.2364710846352
 31
0.0000000000000000
  0
LINE
  5
207
100
AcDbEntity
  8
MAIN10
  6
CONTINUOUS
 62
5
370
    18
100
AcDbLine
 10
317.4347647722987
 20
659.2364710846352
 30
0.0000000000000000
 11
317.4347647722987
 21
579.2364710846352
 31
0.0000000000000000
  0
LINE
  5
208
100
AcDbEntity
  8
MAIN10
  6
CONTINUOUS
 62
5
370
    18
100
AcDbLine
 10
318.9347648319034
 20
654.2364710846352
 30
0.0000000000000000
 11
317.4347647722987
 21
659.2364710846352
 31
0.0000000000000000
  0
LINE
  5
209
100
AcDbEntity
  8
MAIN10
  6
CONTINUOUS
 62
5
370
    18
100
AcDbLine
 10
317.4347647722987
 20
659.2364710846352
 30
0.0000000000000000
 11
315.9347647126941
 21
654.2364710846352
 31
0.0000000000000000
  0
LINE
  5
20A
100
AcDbEntity
  8
MAIN10
  6
CONTINUOUS
 62
5
370
    18
100
AcDbLine
 10
318.9347648319034
 20
584.2364710846352
 30
0.0000000000000000
 11
317.4347647722987
 21
579.2364710846352
 31
0.0000000000000000
  0
LINE
  5
20B
100
AcDbEntity
  8
MAIN10
  6
CONTINUOUS
 62
5
370
    18
100
AcDbLine
 10
317.4347647722987
 20
579.2364710846352
 30
0.0000000000000000
 11
315.9347647126941
 21
584.2364710846352
 31
0.0000000000000000
  0
MTEXT
  5
20C
100
AcDbEntity
  8
MAIN10
  6
CONTINUOUS
 62
7
370
    25
100
AcDbMText
 10
316.1847647722987
 20
619.2364710846352
 30
0.0000000000000000
 40
5.579999828338623
 41
0.0000000000000000
 44
0.7741935722041460
 71
     8
 72
     1
  1
{\U+220580}
 11
6.123233995736766e-017
 21
1.000000000000000
 31
0.0000000000000000
  7
STANDARD
  0
LINE
  5
20D
100
AcDbEntity
  8
MAIN10
  6
CONTINUOUS
 62
5
370
    18
100
AcDbLine
 10
404.6285201146097
 20
579.2364710846352
 30
0.0000000000000000
 11
312.4347647722987
 21
579.2364710846352
 31
0.0000000000000000
  0
LEADER
  5
20E
100
AcDbEntity
  8
MAIN0
  6
CONTINUOUS
 62
5
370
    18
100
AcDbLeader
  3
MAIN001
 73
     0
 75
     1
 40
5.579999828338623
 41
53.49900003352758
 76
     3
 10
414.2891404004639
 20
721.7364710846352
 30
0.0000000000000000
 10
354.2216814410539
 20
834.2030809044752
 30
0.0000000000000000
 10
349.7556815727057
 20
834.2030809044752
 30
0.0000000000000000
340
20F
213
0.0000000000000000
223
-1.250000000000000
233
0.0000000000000000
1001
ACAD
1000
DSTYLE
1002
{
1070
   147
1040
0.0
1070
    77
1070
     1
1070
   341
1005
13
1070
    41
1040
2.000000
1002
}
  0
MTEXT
  5
20F
102
{ACAD_REACTORS
330
20E
102
}
100
AcDbEntity
  8
MAIN0
  6
CONTINUOUS
 62
7
370
    25
100
AcDbMText
 10
296.2566815391781
 20
843.2030806660566
 30
0.0000000000000000
 40
5.579999828338623
 41
0.0000000000000000
 44
0.7935483930510365
 71
     1
 72
     1
  1
{\H0.70x;{MAX M205×3}}
 11
1.000000000000000
 21
0.0000000000000000
 31
0.0000000000000000
  7
STANDARD
  0
CIRCLE
  5
210
100
AcDbEntity
  8
MAIN0
  6
CONTINUOUS
 62
3
370
    35
100
AcDbCircle
 10
1049.162149378242
 20
619.2364710846351
 30
0.0000000000000000
 40
40.00000000000014
  0
LINE
  5
211
100
AcDbEntity
  8
MAIN10
  6
CONTINUOUS
 62
5
370
    18
100
AcDbLine
 10
379.6285201444118
 20
270.2364710548365
 30
0.0000000000000000
 11
379.6285201444118
 21
204.4911575396935
 31
0.0000000000000000
  0
LINE
  5
212
100
AcDbEntity
  8
MAIN10
  6
CONTINUOUS
 62
5
370
    18
100
AcDbLine
 10
379.6285201444118
 20
209.4911575396935
 30
0.0000000000000000
 11
528.6285201444117
 21
209.4911575396935
 31
0.0000000000000000
  0
LINE
  5
213
100
AcDbEntity
  8
MAIN10
  6
CONTINUOUS
 62
5
370
    18
100
AcDbLine
 10
384.6285201444118
 20
210.9911575992982
 30
0.0000000000000000
 11
379.6285201444118
 21
209.4911575396935
 31
0.0000000000000000
  0
LINE
  5
214
100
AcDbEntity
  8
MAIN10
  6
CONTINUOUS
 62
5
370
    18
100
AcDbLine
 10
379.6285201444118
 20
209.4911575396935
 30
0.0000000000000000
 11
384.6285201444118
 21
207.9911574800889
 31
0.0000000000000000
  0
LINE
  5
215
100
AcDbEntity
  8
MAIN10
  6
CONTINUOUS
 62
5
370
    18
100
AcDbLine
 10
523.6285201444117
 20
210.9911575992982
 30
0.0000000000000000
 11
528.6285201444117
 21
209.4911575396935
 31
0.0000000000000000
  0
LINE
  5
216
100
AcDbEntity
  8
MAIN10
  6
CONTINUOUS
 62
5
370
    18
100
AcDbLine
 10
528.6285201444117
 20
209.4911575396935
 30
0.0000000000000000
 11
523.6285201444117
 21
207.9911574800889
 31
0.0000000000000000
  0
MTEXT
  5
217
100
AcDbEntity
  8
MAIN10
  6
CONTINUOUS
 62
7
370
    25
100
AcDbMText
 10
454.1285201444118
 20
210.7411575396935
 30
0.0000000000000000
 40
5.579999828338623
 41
0.0000000000000000
 44
0.7741935722041460
 71
     8
 72
     1
  1
{\H0.70x;{149}}
 11
1.000000000000000
 21
0.0000000000000000
 31
0.0000000000000000
  7
STANDARD
  0
LINE
  5
218
100
AcDbEntity
  8
MAIN10
  6
CONTINUOUS
 62
5
370
    18
100
AcDbLine
 10
528.6285201444117
 20
270.2364710548366
 30
0.0000000000000000
 11
528.6285201444117
 21
204.4911575396935
 31
0.0000000000000000
  0
LINE
  5
219
100
AcDbEntity
  8
MAIN0
  6
CENTER
 62
5
370
    18
100
AcDbLine
 10
382.6202298437571
 20
794.2364710846352
 30
0.0000000000000000
 11
433.4786578567540
 21
794.2364710846352
 31
0.0000000000000000
  0
LINE
  5
21A
100
AcDbEntity
  8
MAIN0
  6
PHANTOM
 62
5
370
    18
100
AcDbLine
 10
405.6285201444119
 20
721.7364710846352
 30
0.0000000000000000
 11
440.6285201444121
 21
721.7364710846352
 31
0.0000000000000000
  0
LINE
  5
21B
100
AcDbEntity
  8
MAIN0
  6
PHANTOM
 62
5
370
    18
100
AcDbLine
 10
405.6285201444119
 20
516.7364710846352
 30
0.0000000000000000
 11
440.6285201444121
 21
516.7364710846352
 31
0.0000000000000000
  0
LINE
  5
21C
100
AcDbEntity
  8
MAIN0
  6
PHANTOM
 62
5
370
    18
100
AcDbLine
 10
405.6285201444119
 20
720.1124710846352
 30
0.0000000000000000
 11
440.6285201444121
 21
720.1124710846352
 31
0.0000000000000000
  0
LINE
  5
21D
100
AcDbEntity
  8
MAIN0
  6
PHANTOM
 62
5
370
    18
100
AcDbLine
 10
405.6285201444119
 20
518.3604710846352
 30
0.0000000000000000
 11
440.6285201444121
 21
518.3604710846352
 31
0.0000000000000000
  0
LINE
  5
21E
100
AcDbEntity
  8
MAIN0
  6
CONTINUOUS
 62
3
370
    35
100
AcDbLine
 10
446.1285201444121
 20
516.2364710846352
 30
0.0000000000000000
 11
446.1285201444121
 21
722.2364710846352
 31
0.0000000000000000
  0
LINE
  5
21F
100
AcDbEntity
  8
MAIN0
  6
CONTINUOUS
 62
3
370
    35
100
AcDbLine
 10
440.6285201444121
 20
516.2364710846352
 30
0.0000000000000000
 11
446.1285201444121
 21
516.2364710846352
 31
0.0000000000000000
  0
LINE
  5
220
100
AcDbEntity
  8
MAIN0
  6
CONTINUOUS
 62
3
370
    35
100
AcDbLine
 10
440.6285201444121
 20
722.2364710846352
 30
0.0000000000000000
 11
446.1285201444121
 21
722.2364710846352
 31
0.0000000000000000
  0
LINE
  5
221
100
AcDbEntity
  8
MAIN10
  6
CONTINUOUS
 62
5
370
    18
100
AcDbLine
 10
353.6285201444141
 20
467.1364711144390
 30
0.0000000000000000
 11
353.6285201444140
 21
489.3598271923309
 31
0.0000000000000000
  0
LINE
  5
222
100
AcDbEntity
  8
MAIN10
  6
CONTINUOUS
 62
5
370
    18
100
AcDbLine
 10
353.6285201444140
 20
484.3598271923309
 30
0.0000000000000000
 11
385.6285201444119
 21
484.3598271923309
 31
0.0000000000000000
  0
LINE
  5
223
100
AcDbEntity
  8
MAIN10
  6
CONTINUOUS
 62
5
370
    18
100
AcDbLine
 10
358.6285201444140
 20
485.8598272519355
 30
0.0000000000000000
 11
353.6285201444140
 21
484.3598271923309
 31
0.0000000000000000
  0
LINE
  5
224
100
AcDbEntity
  8
MAIN10
  6
CONTINUOUS
 62
5
370
    18
100
AcDbLine
 10
353.6285201444140
 20
484.3598271923309
 30
0.0000000000000000
 11
358.6285201444140
 21
482.8598271327263
 31
0.0000000000000000
  0
LINE
  5
225
100
AcDbEntity
  8
MAIN10
  6
CONTINUOUS
 62
5
370
    18
100
AcDbLine
 10
380.6285201444119
 20
485.8598272519355
 30
0.0000000000000000
 11
385.6285201444119
 21
484.3598271923309
 31
0.0000000000000000
  0
LINE
  5
226
100
AcDbEntity
  8
MAIN10
  6
CONTINUOUS
 62
5
370
    18
100
AcDbLine
 10
385.6285201444119
 20
484.3598271923309
 30
0.0000000000000000
 11
380.6285201444119
 21
482.8598271327263
 31
0.0000000000000000
  0
MTEXT
  5
227
100
AcDbEntity
  8
MAIN10
  6
CONTINUOUS
 62
7
370
    25
100
AcDbMText
 10
369.6285201444130
 20
485.6098271923309
 30
0.0000000000000000
 40
5.579999828338623
 41
0.0000000000000000
 44
0.7741935722041460
 71
     8
 72
     1
  1
{\H0.69x;{32}}
 11
1.000000000000000
 21
0.0000000000000000
 31
0.0000000000000000
  7
STANDARD
  0
LEADER
  5
228
100
AcDbEntity
  8
MAIN0
  6
CONTINUOUS
 62
5
370
    18
100
AcDbLeader
  3
MAIN001
 73
     0
 75
     1
 40
5.579999828338623
 41
33.92400102519991
 76
     3
 10
367.8579007825050
 20
443.1364718435369
 30
0.0000000000000000
 10
343.0196652877368
 20
400.8747056251171
 30
0.0000000000000000
 10
338.2036654272116
 20
400.8747056251171
 30
0.0000000000000000
340
229
213
0.0000000000000000
223
-1.250000000000000
233
0.0000000000000000
1001
ACAD
1000
DSTYLE
1002
{
1070
   147
1040
0.0
1070
    77
1070
     1
1070
   341
1005
13
1070
    41
1040
2.000000
1002
}
  0
MTEXT
  5
229
102
{ACAD_REACTORS
330
228
102
}
100
AcDbEntity
  8
MAIN0
  6
CONTINUOUS
 62
7
370
    25
100
AcDbMText
 10
304.2796644020117
 20
409.8747053866986
 30
0.0000000000000000
 40
5.579999828338623
 41
0.0000000000000000
 44
0.7935483930510365
 71
     1
 72
     1
  1
{\H0.92x;{6-M22}}
 11
1.000000000000000
 21
0.0000000000000000
 31
0.0000000000000000
  7
STANDARD
  0
LINE
  5
22A
100
AcDbEntity
  8
MAIN10
  6
CONTINUOUS
 62
5
370
    18
100
AcDbLine
 10
403.6285201146096
 20
727.7364710846351
 30
0.0000000000000000
 11
279.7979758859960
 21
727.7364710846351
 31
0.0000000000000000
  0
LINE
  5
22B
100
AcDbEntity
  8
MAIN10
  6
CONTINUOUS
 62
5
370
    18
100
AcDbLine
 10
284.7979758859960
 20
727.7364710846351
 30
0.0000000000000000
 11
284.7979758859960
 21
510.7364710846352
 31
0.0000000000000000
  0
LINE
  5
22C
100
AcDbEntity
  8
MAIN10
  6
CONTINUOUS
 62
5
370
    18
100
AcDbLine
 10
286.2979759456006
 20
722.7364710846351
 30
0.0000000000000000
 11
284.7979758859960
 21
727.7364710846351
 31
0.0000000000000000
  0
LINE
  5
22D
100
AcDbEntity
  8
MAIN10
  6
CONTINUOUS
 62
5
370
    18
100
AcDbLine
 10
284.7979758859960
 20
727.7364710846351
 30
0.0000000000000000
 11
283.2979758263913
 21
722.7364710846351
 31
0.0000000000000000
  0
LINE
  5
22E
100
AcDbEntity
  8
MAIN10
  6
CONTINUOUS
 62
5
370
    18
100
AcDbLine
 10
286.2979759456006
 20
515.7364710846352
 30
0.0000000000000000
 11
284.7979758859960
 21
510.7364710846352
 31
0.0000000000000000
  0
LINE
  5
22F
100
AcDbEntity
  8
MAIN10
  6
CONTINUOUS
 62
5
370
    18
100
AcDbLine
 10
284.7979758859960
 20
510.7364710846352
 30
0.0000000000000000
 11
283.2979758263913
 21
515.7364710846352
 31
0.0000000000000000
  0
MTEXT
  5
230
100
AcDbEntity
  8
MAIN10
  6
CONTINUOUS
 62
7
370
    25
100
AcDbMText
 10
283.5479758859960
 20
619.2364710846352
 30
0.0000000000000000
 40
5.579999828338623
 41
0.0000000000000000
 44
0.7741935722041460
 71
     8
 72
     1
  1
{\U+2205217}
 11
6.123233995736766e-017
 21
1.000000000000000
 31
0.0000000000000000
  7
STANDARD
  0
LINE
  5
231
100
AcDbEntity
  8
MAIN10
  6
CONTINUOUS
 62
5
370
    18
100
AcDbLine
 10
403.6285201146096
 20
510.7364710846352
 30
0.0000000000000000
 11
279.7979758859960
 21
510.7364710846352
 31
0.0000000000000000
  0
LINE
  5
232
100
AcDbEntity
  8
MAIN0
  6
CENTER
 62
5
370
    18
100
AcDbLine
 10
1097.579130546231
 20
438.5418374099645
 30
0.0000000000000000
 11
1090.884679214746
 21
463.5258699080218
 31
0.0000000000000000
  0
ARC
  5
233
100
AcDbEntity
  8
MAIN0
  6
CENTER
 62
5
370
    18
100
AcDbCircle
 10
1049.162149378242
 20
619.2364710846351
 30
0.0000000000000000
 40
175.0000000000001
100
AcDbArc
 50
281.5099035249901
 51
288.6919762528261
  0
LINE
  5
234
100
AcDbEntity
  8
MAIN0
  6
CENTER
 62
5
370
    18
100
AcDbLine
 10
1049.162149378242
 20
262.1314334638091
 30
0.0000000000000000
 11
1049.162149378242
 21
985.3302789904019
 31
0.0000000000000000
  0
LINE
  5
235
100
AcDbEntity
  8
MAIN0
  6
CENTER
 62
5
370
    18
100
AcDbLine
 10
1181.439801884035
 20
751.5141235880019
 30
0.0000000000000000
 11
1163.150220717484
 21
733.2245424215087
 31
0.0000000000000000
  0
CIRCLE
  5
236
100
AcDbEntity
  8
MAIN0
  6
HIDDEN
 62
5
370
    18
100
AcDbCircle
 10
1172.905836087085
 20
742.9801577910796
 30
0.0000000000000000
 40
6.000000000000000
  0
CIRCLE
  5
237
100
AcDbEntity
  8
MAIN0
  6
HIDDEN
 62
7
370
    25
100
AcDbCircle
 10
1172.905836087085
 20
742.9801577910796
 30
0.0000000000000000
 40
5.100000000000001
  0
ARC
  5
238
100
AcDbEntity
  8
MAIN0
  6
CENTER
 62
5
370
    18
100
AcDbCircle
 10
1049.162149378242
 20
619.2364710846351
 30
0.0000000000000000
 40
175.0000000000001
100
AcDbArc
 50
32.48864024065886
 51
48.69197625282606
  0
LINE
  5
239
100
AcDbEntity
  8
MAIN0
  6
CENTER
 62
5
370
    18
100
AcDbLine
 10
868.4675157044591
 20
667.6534522559390
 30
0.0000000000000000
 11
893.4515482024953
 21
660.9590009243748
 31
0.0000000000000000
  0
CIRCLE
  5
23A
100
AcDbEntity
  8
MAIN0
  6
HIDDEN
 62
5
370
    18
100
AcDbCircle
 10
880.1251297780959
 20
664.5298039792144
 30
0.0000000000000000
 40
6.000000000000000
  0
CIRCLE
  5
23B
100
AcDbEntity
  8
MAIN0
  6
HIDDEN
 62
7
370
    25
100
AcDbCircle
 10
880.1251297780959
 20
664.5298039792144
 30
0.0000000000000000
 40
5.100000000000001
  0
ARC
  5
23C
100
AcDbEntity
  8
MAIN0
  6
CENTER
 62
5
370
    18
100
AcDbCircle
 10
1049.162149378242
 20
619.2364710846351
 30
0.0000000000000000
 40
175.0000000000001
100
AcDbArc
 50
161.5099035249901
 51
168.6919762528261
  0
LINE
  5
23D
100
AcDbEntity
  8
MAIN10
  6
CONTINUOUS
 62
5
370
    18
100
AcDbLine
 10
1188.309845398857
 20
725.3633700883966
 30
0.0000000000000000
 11
958.2957210484922
 21
549.9333310545253
 31
0.0000000000000000
  0
LINE
  5
23E
100
AcDbEntity
  8
MAIN10
  6
CONTINUOUS
 62
5
370
    18
100
AcDbLine
 10
1185.243856111590
 20
721.1384783892904
 30
0.0000000000000000
 11
1188.309845398857
 21
725.3633700883966
 31
0.0000000000000000
  0
LINE
  5
23F
100
AcDbEntity
  8
MAIN10
  6
CONTINUOUS
 62
5
370
    18
100
AcDbLine
 10
1188.309845398857
 20
725.3633700883966
 30
0.0000000000000000
 11
1183.424537770660
 21
723.5238675587164
 31
0.0000000000000000
  0
MTEXT
  5
240
100
AcDbEntity
  8
MAIN10
  6
CONTINUOUS
 62
7
370
    25
100
AcDbMText
 10
1098.169879232004
 20
658.1863678604389
 30
0.0000000000000000
 40
5.579999828338623
 41
0.0000000000000000
 44
0.7741935722041460
 71
     8
 72
     1
  1
{\U+2205350}
 11
0.7951296915463710
 21
0.6064394228786357
 31
0.0000000000000000
  7
STANDARD
  0
MTEXT
  5
241
100
AcDbEntity
  8
MAIN10
  6
CONTINUOUS
 62
7
370
    25
100
AcDbMText
 10
1113.099624407400
 20
670.0447930815492
 30
0.0000000000000000
 40
5.039999914169311
 41
0.0000000000000000
 44
0.7500000127724241
 71
     8
 72
     1
  1
{\U+00B10.2}
 11
0.7951296915463710
 21
0.6064394228786357
 31
0.0000000000000000
  7
STANDARD
  0
LINE
  5
242
100
AcDbEntity
  8
MAIN10
  6
CONTINUOUS
 62
5
370
    18
100
AcDbLine
 10
1049.162149378242
 20
260.1314334340067
 30
0.0000000000000000
 11
1049.162149378241
 21
231.1205506879048
 31
0.0000000000000000
  0
ARC
  5
243
100
AcDbEntity
  8
MAIN10
  6
CONTINUOUS
 62
5
370
    18
100
AcDbCircle
 10
1049.162149378242
 20
619.2364710791526
 30
0.0000000000000000
 40
383.1159203912478
100
AcDbArc
 50
270.0000000000000
 51
284.9999999999092
  0
LINE
  5
244
100
AcDbEntity
  8
MAIN10
  6
CONTINUOUS
 62
5
370
    18
100
AcDbLine
 10
1054.162149378242
 20
237.6205507475095
 30
0.0000000000000000
 11
1049.162149378242
 21
236.1205506879048
 31
0.0000000000000000
  0
LINE
  5
245
100
AcDbEntity
  8
MAIN10
  6
CONTINUOUS
 62
5
370
    18
100
AcDbLine
 10
1049.162149378242
 20
236.1205506879048
 30
0.0000000000000000
 11
1054.162149378242
 21
234.6205506283002
 31
0.0000000000000000
  0
LINE
  5
246
100
AcDbEntity
  8
MAIN10
  6
CONTINUOUS
 62
5
370
    18
100
AcDbLine
 10
1143.101988342365
 20
249.3297026820854
 30
0.0000000000000000
 11
1148.319846056891
 21
249.1749091105825
 31
0.0000000000000000
  0
LINE
  5
247
100
AcDbEntity
  8
MAIN10
  6
CONTINUOUS
 62
5
370
    18
100
AcDbLine
 10
1148.319846056891
 20
249.1749091105825
 30
0.0000000000000000
 11
1143.878445508522
 21
246.4319250880697
 31
0.0000000000000000
  0
MTEXT
  5
248
100
AcDbEntity
  8
MAIN10
  6
CONTINUOUS
 62
7
370
    25
100
AcDbMText
 10
1099.005653905216
 20
240.6374665734300
 30
0.0000000000000000
 40
5.579999828338623
 41
0.0000000000000000
 44
0.7741935722041460
 71
     8
 72
     1
  1
{\H0.57x;{15\U+00B0}}
 11
0.9914448613739139
 21
0.1305261922192660
 31
0.0000000000000000
  7
STANDARD
  0
LINE
  5
249
100
AcDbEntity
  8
MAIN10
  6
CONTINUOUS
 62
5
370
    18
100
AcDbLine
 10
1098.096768644146
 20
436.6099857285987
 30
0.0000000000000000
 11
1149.613941282396
 21
244.3452799791352
 31
0.0000000000000000
  0
ARC
  5
24A
100
AcDbEntity
  8
MAIN10
  6
CONTINUOUS
 62
5
370
    18
100
AcDbCircle
 10
1049.162149378242
 20
619.2364710791526
 30
0.0000000000000000
 40
383.1159203912478
100
AcDbArc
 50
284.9999999999092
 51
294.0000000003467
  0
LINE
  5
24B
100
AcDbEntity
  8
MAIN10
  6
CONTINUOUS
 62
5
370
    18
100
AcDbLine
 10
1152.761246605260
 20
251.9178931330954
 30
0.0000000000000000
 11
1148.319846056891
 21
249.1749091105825
 31
0.0000000000000000
  0
LINE
  5
24C
100
AcDbEntity
  8
MAIN10
  6
CONTINUOUS
 62
5
370
    18
100
AcDbLine
 10
1148.319846056891
 20
249.1749091105825
 30
0.0000000000000000
 11
1153.537703771417
 21
249.0201155390796
 31
0.0000000000000000
  0
LINE
  5
24D
100
AcDbEntity
  8
MAIN10
  6
CONTINUOUS
 62
5
370
    18
100
AcDbLine
 10
1199.811600472125
 20
268.5792972816119
 30
0.0000000000000000
 11
1204.989432749191
 21
269.2426622561068
 31
0.0000000000000000
  0
LINE
  5
24E
100
AcDbEntity
  8
MAIN10
  6
CONTINUOUS
 62
5
370
    18
100
AcDbLine
 10
1204.989432749191
 20
269.2426622561068
 30
0.0000000000000000
 11
1201.031810449856
 21
265.8386607997884
 31
0.0000000000000000
  0
MTEXT
  5
24F
100
AcDbEntity
  8
MAIN10
  6
CONTINUOUS
 62
7
370
    25
100
AcDbMText
 10
1176.631612913261
 20
259.2738104845443
 30
0.0000000000000000
 40
5.579999828338623
 41
0.0000000000000000
 44
0.7741935722041460
 71
     8
 72
     1
  1
{\H0.50x;{9\U+00B0}}
 11
0.9426414910914330
 21
0.3338068592358759
 31
0.0000000000000000
  7
STANDARD
  0
LINE
  5
250
100
AcDbEntity
  8
MAIN10
  6
CONTINUOUS
 62
5
370
    18
100
AcDbLine
 10
1199.768607550215
 20
280.9688276429421
 30
0.0000000000000000
 11
1207.023115964598
 21
264.6749349679061
 31
0.0000000000000000
  0
ARC
  5
251
100
AcDbEntity
  8
MAIN10
  6
CONTINUOUS
 62
5
370
    18
100
AcDbCircle
 10
1049.162149378242
 20
619.2364710791526
 30
0.0000000000000000
 40
383.1159203912478
100
AcDbArc
 50
294.0000000003467
 51
330.0000000006990
  0
LINE
  5
252
100
AcDbEntity
  8
MAIN10
  6
CONTINUOUS
 62
5
370
    18
100
AcDbLine
 10
1208.947055048526
 20
272.6466637124252
 30
0.0000000000000000
 11
1204.989432749191
 21
269.2426622561068
 31
0.0000000000000000
  0
LINE
  5
253
100
AcDbEntity
  8
MAIN10
  6
CONTINUOUS
 62
5
370
    18
100
AcDbLine
 10
1204.989432749191
 20
269.2426622561068
 30
0.0000000000000000
 11
1210.167265026257
 21
269.9060272306016
 31
0.0000000000000000
  0
LINE
  5
254
100
AcDbEntity
  8
MAIN10
  6
CONTINUOUS
 62
5
370
    18
100
AcDbLine
 10
1377.151230876403
 20
424.0983838984099
 30
0.0000000000000000
 11
1380.950269033656
 21
427.6785108875761
 31
0.0000000000000000
  0
LINE
  5
255
100
AcDbEntity
  8
MAIN10
  6
CONTINUOUS
 62
5
370
    18
100
AcDbLine
 10
1380.950269033656
 20
427.6785108875761
 30
0.0000000000000000
 11
1379.749307191013
 21
422.5983838388369
 31
0.0000000000000000
  0
MTEXT
  5
256
100
AcDbEntity
  8
MAIN10
  6
CONTINUOUS
 62
7
370
    25
100
AcDbMText
 10
1304.680324240010
 20
335.4547883165658
 30
0.0000000000000000
 40
5.579999828338623
 41
0.0000000000000000
 44
0.7741935722041460
 71
     8
 72
     1
  1
{\H0.57x;{36\U+00B0}}
 11
0.7431448254712886
 21
0.6691306063656393
 31
0.0000000000000000
  7
STANDARD
  0
ARC
  5
257
100
AcDbEntity
  8
MAIN10
  6
CONTINUOUS
 62
5
370
    18
100
AcDbCircle
 10
1049.162149378242
 20
619.2364710791526
 30
0.0000000000000000
 40
383.1159203912478
100
AcDbArc
 50
330.0000000006990
 51
360.0000000000000
  0
LINE
  5
258
100
AcDbEntity
  8
MAIN10
  6
CONTINUOUS
 62
5
370
    18
100
AcDbLine
 10
1382.151230876298
 20
432.7586379363152
 30
0.0000000000000000
 11
1380.950269033656
 21
427.6785108875761
 31
0.0000000000000000
  0
LINE
  5
259
100
AcDbEntity
  8
MAIN10
  6
CONTINUOUS
 62
5
370
    18
100
AcDbLine
 10
1380.950269033656
 20
427.6785108875761
 30
0.0000000000000000
 11
1384.749307190908
 21
431.2586378767423
 31
0.0000000000000000
  0
LINE
  5
25A
100
AcDbEntity
  8
MAIN10
  6
CONTINUOUS
 62
5
370
    18
100
AcDbLine
 10
1430.778069709885
 20
614.2364710791525
 30
0.0000000000000000
 11
1432.278069769489
 21
619.2364710791525
 31
0.0000000000000000
  0
LINE
  5
25B
100
AcDbEntity
  8
MAIN10
  6
CONTINUOUS
 62
5
370
    18
100
AcDbLine
 10
1432.278069769489
 20
619.2364710791525
 30
0.0000000000000000
 11
1433.778069829094
 21
614.2364710791525
 31
0.0000000000000000
  0
MTEXT
  5
25C
100
AcDbEntity
  8
MAIN10
  6
CONTINUOUS
 62
7
370
    25
100
AcDbMText
 10
1418.016304064396
 20
520.4022982085443
 30
0.0000000000000000
 40
5.579999828338623
 41
0.0000000000000000
 44
0.7741935722041460
 71
     8
 72
     1
  1
{\H0.57x;{30\U+00B0}}
 11
0.2588190450966292
 21
0.9659258262906469
 31
0.0000000000000000
  7
STANDARD
  0
LINE
  5
25D
100
AcDbEntity
  8
MAIN10
  6
CONTINUOUS
 62
5
370
    18
100
AcDbLine
 10
1417.449292856368
 20
619.2364710839836
 30
0.0000000000000000
 11
1437.278069769489
 21
619.2364710775235
 31
0.0000000000000000
  0
ARC
  5
25E
100
AcDbEntity
  8
MAIN10
  6
CONTINUOUS
 62
5
370
    18
100
AcDbCircle
 10
1049.162149378242
 20
619.2364710791526
 30
0.0000000000000000
 40
383.1159203912478
100
AcDbArc
 50
0.0000000000000000
 51
45.00000000066195
  0
LINE
  5
25F
100
AcDbEntity
  8
MAIN10
  6
CONTINUOUS
 62
5
370
    18
100
AcDbLine
 10
1430.778069709885
 20
624.2364710791526
 30
0.0000000000000000
 11
1432.278069769489
 21
619.2364710791526
 31
0.0000000000000000
  0
LINE
  5
260
100
AcDbEntity
  8
MAIN10
  6
CONTINUOUS
 62
5
370
    18
100
AcDbLine
 10
1432.278069769489
 20
619.2364710791526
 30
0.0000000000000000
 11
1433.778069829094
 21
624.2364710791526
 31
0.0000000000000000
  0
LINE
  5
261
100
AcDbEntity
  8
MAIN10
  6
CONTINUOUS
 62
5
370
    18
100
AcDbLine
 10
1322.540888356348
 20
885.5441422516284
 30
0.0000000000000000
 11
1320.066014664289
 21
890.1403363714592
 31
0.0000000000000000
  0
LINE
  5
262
100
AcDbEntity
  8
MAIN10
  6
CONTINUOUS
 62
5
370
    18
100
AcDbLine
 10
1320.066014664289
 20
890.1403363714592
 30
0.0000000000000000
 11
1324.662208784177
 21
887.6654626795062
 31
0.0000000000000000
  0
MTEXT
  5
263
100
AcDbEntity
  8
MAIN10
  6
CONTINUOUS
 62
7
370
    25
100
AcDbMText
 10
1401.960257390456
 20
765.3702321997673
 30
0.0000000000000000
 40
5.579999828338623
 41
0.0000000000000000
 44
0.7741935722041460
 71
     8
 72
     1
  1
{\H0.57x;{45\U+00B0}}
 11
-0.3826834323704267
 21
0.9238795325090762
 31
0.0000000000000000
  7
STANDARD
  0
LINE
  5
264
100
AcDbEntity
  8
MAIN10
  6
CONTINUOUS
 62
5
370
    18
100
AcDbLine
 10
1182.854015467465
 20
752.9283371714647
 30
0.0000000000000000
 11
1323.601548570181
 21
893.6758702774328
 31
0.0000000000000000
  0
ARC
  5
265
100
AcDbEntity
  8
MAIN10
  6
CONTINUOUS
 62
5
370
    18
100
AcDbCircle
 10
1049.162149378242
 20
619.2364710791526
 30
0.0000000000000000
 40
383.1159203912478
100
AcDbArc
 50
45.00000000066195
 51
60.00000000058245
  0
LINE
  5
266
100
AcDbEntity
  8
MAIN10
  6
CONTINUOUS
 62
5
370
    18
100
AcDbLine
 10
1315.469820544401
 20
892.6152100634122
 30
0.0000000000000000
 11
1320.066014664289
 21
890.1403363714592
 31
0.0000000000000000
  0
LINE
  5
267
100
AcDbEntity
  8
MAIN10
  6
CONTINUOUS
 62
5
370
    18
100
AcDbLine
 10
1320.066014664289
 20
890.1403363714592
 30
0.0000000000000000
 11
1317.591140972229
 21
894.7365304912900
 31
0.0000000000000000
  0
LINE
  5
268
100
AcDbEntity
  8
MAIN10
  6
CONTINUOUS
 62
5
370
    18
100
AcDbLine
 10
1244.300236559651
 20
947.2255525769177
 30
0.0000000000000000
 11
1240.720109570493
 21
951.0245907341771
 31
0.0000000000000000
  0
LINE
  5
269
100
AcDbEntity
  8
MAIN10
  6
CONTINUOUS
 62
5
370
    18
100
AcDbLine
 10
1240.720109570493
 20
951.0245907341771
 30
0.0000000000000000
 11
1245.800236619230
 21
949.8236288915246
 31
0.0000000000000000
  0
MTEXT
  5
26A
100
AcDbEntity
  8
MAIN10
  6
CONTINUOUS
 62
7
370
    25
100
AcDbMText
 10
1283.149296334558
 20
924.1744579182049
 30
0.0000000000000000
 40
5.579999828338623
 41
0.0000000000000000
 44
0.7741935722041460
 71
     8
 72
     1
  1
{\H0.57x;{15\U+00B0}}
 11
0.7933533402978460
 21
-0.6087614290001053
 31
0.0000000000000000
  7
STANDARD
  0
LINE
  5
26B
100
AcDbEntity
  8
MAIN10
  6
CONTINUOUS
 62
5
370
    18
100
AcDbLine
 10
1185.089570902851
 20
854.6696713071359
 30
0.0000000000000000
 11
1243.220109570449
 21
955.3547177531248
 31
0.0000000000000000
  0
ARC
  5
26C
100
AcDbEntity
  8
MAIN10
  6
CONTINUOUS
 62
5
370
    18
100
AcDbCircle
 10
1049.162149378242
 20
619.2364710791526
 30
0.0000000000000000
 40
383.1159203912478
100
AcDbArc
 50
60.00000000058245
 51
90.00000000000000
  0
LINE
  5
26D
100
AcDbEntity
  8
MAIN10
  6
CONTINUOUS
 62
5
370
    18
100
AcDbLine
 10
1235.639982521756
 20
952.2255525768296
 30
0.0000000000000000
 11
1240.720109570493
 21
951.0245907341771
 31
0.0000000000000000
  0
LINE
  5
26E
100
AcDbEntity
  8
MAIN10
  6
CONTINUOUS
 62
5
370
    18
100
AcDbLine
 10
1240.720109570493
 20
951.0245907341771
 30
0.0000000000000000
 11
1237.139982581334
 21
954.8236288914364
 31
0.0000000000000000
  0
LINE
  5
26F
100
AcDbEntity
  8
MAIN10
  6
CONTINUOUS
 62
5
370
    18
100
AcDbLine
 10
1054.162149378242
 20
1000.852391410796
 30
0.0000000000000000
 11
1049.162149378242
 21
1002.352391470400
 31
0.0000000000000000
  0
LINE
  5
270
100
AcDbEntity
  8
MAIN10
  6
CONTINUOUS
 62
5
370
    18
100
AcDbLine
 10
1049.162149378242
 20
1002.352391470400
 30
0.0000000000000000
 11
1054.162149378242
 21
1003.852391530005
 31
0.0000000000000000
  0
MTEXT
  5
271
100
AcDbEntity
  8
MAIN10
  6
CONTINUOUS
 62
7
370
    25
100
AcDbMText
 10
1148.643369861969
 20
990.5054403309323
 30
0.0000000000000000
 40
5.579999828338623
 41
0.0000000000000000
 44
0.7741935722041460
 71
     8
 72
     1
  1
{\H0.57x;{30\U+00B0}}
 11
0.9659258262903837
 21
-0.2588190450976117
 31
0.0000000000000000
  7
STANDARD
  0
LINE
  5
272
100
AcDbEntity
  8
MAIN10
  6
CONTINUOUS
 62
5
370
    18
100
AcDbLine
 10
1049.162149378242
 20
987.3302790202042
 30
0.0000000000000000
 11
1049.162149378242
 21
1007.352391470400
 31
0.0000000000000000
  0
LINE
  5
273
100
AcDbEntity
  8
MAIN0
  6
CONTINUOUS
 62
3
370
    35
100
AcDbLine
 10
528.6285201444117
 20
144.8350526517406
 30
0.0000000000000000
 11
528.6285201444117
 21
182.4999338998904
 31
0.0000000000000000
  0
LINE
  5
274
100
AcDbEntity
  8
MAIN0
  6
CENTER
 62
5
370
    18
100
AcDbLine
 10
480.5300902153949
 20
112.3350526517406
 30
0.0000000000000000
 11
550.8959915035894
 21
112.3350526517406
 31
0.0000000000000000
  0
LINE
  5
275
100
AcDbEntity
  8
MAIN0
  6
CONTINUOUS
 62
3
370
    35
100
AcDbLine
 10
511.3418752662290
 20
144.8350526517406
 30
0.0000000000000000
 11
531.8964693368426
 21
144.8350526517406
 31
0.0000000000000000
  0
LINE
  5
276
100
AcDbEntity
  8
MAIN0
  6
CONTINUOUS
 62
3
370
    35
100
AcDbLine
 10
533.6285201444117
 20
125.8350526517443
 30
0.0000000000000000
 11
533.6285201444117
 21
143.8350526517406
 31
0.0000000000000000
  0
LINE
  5
277
100
AcDbEntity
  8
MAIN0
  6
CONTINUOUS
 62
5
370
    18
100
AcDbLine
 10
531.6285201444117
 20
124.8350526517406
 30
0.0000000000000000
 11
531.6285201444117
 21
144.8350526517406
 31
0.0000000000000000
  0
LINE
  5
278
100
AcDbEntity
  8
MAIN0
  6
CONTINUOUS
 62
3
370
    35
100
AcDbLine
 10
513.6285201444117
 20
124.8350526517406
 30
0.0000000000000000
 11
539.6285201444117
 21
124.8350526517406
 31
0.0000000000000000
  0
LINE
  5
279
100
AcDbEntity
  8
MAIN0
  6
CONTINUOUS
 62
3
370
    35
100
AcDbLine
 10
531.8964693368430
 20
144.8350526517411
 30
0.0000000000000000
 11
533.6285201444124
 21
143.8350526517409
 31
0.0000000000000000
  0
LINE
  5
27A
100
AcDbEntity
  8
MAIN0
  6
CONTINUOUS
 62
3
370
    35
100
AcDbLine
 10
531.8964693368405
 20
124.8350526517417
 30
0.0000000000000000
 11
533.6285201444109
 21
125.8350526517426
 31
0.0000000000000000
  0
LINE
  5
27B
100
AcDbEntity
  8
MAIN0
  6
CONTINUOUS
 62
3
370
    35
100
AcDbLine
 10
528.6285201444117
 20
79.83505265174063
 30
0.0000000000000000
 11
528.6285201444117
 21
52.91124956455815
 31
0.0000000000000000
  0
LINE
  5
27C
100
AcDbEntity
  8
MAIN0
  6
CONTINUOUS
 62
3
370
    35
100
AcDbLine
 10
512.6918741044971
 20
79.83505265174063
 30
0.0000000000000000
 11
531.8964693368426
 21
79.83505265174063
 31
0.0000000000000000
  0
LINE
  5
27D
100
AcDbEntity
  8
MAIN0
  6
CONTINUOUS
 62
3
370
    35
100
AcDbLine
 10
533.6285201444117
 20
98.83505265174063
 30
0.0000000000000000
 11
533.6285201444117
 21
80.83505265174063
 31
0.0000000000000000
  0
LINE
  5
27E
100
AcDbEntity
  8
MAIN0
  6
CONTINUOUS
 62
5
370
    18
100
AcDbLine
 10
531.6285201444117
 20
99.83505265174063
 30
0.0000000000000000
 11
531.6285201444117
 21
79.83505265174063
 31
0.0000000000000000
  0
LINE
  5
27F
100
AcDbEntity
  8
MAIN0
  6
CONTINUOUS
 62
3
370
    35
100
AcDbLine
 10
513.6285201444117
 20
99.83505265174063
 30
0.0000000000000000
 11
539.6285201444117
 21
99.83505265174063
 31
0.0000000000000000
  0
LINE
  5
280
100
AcDbEntity
  8
MAIN0
  6
CONTINUOUS
 62
3
370
    35
100
AcDbLine
 10
531.8964693368426
 20
79.83505265174415
 30
0.0000000000000000
 11
533.6285201444116
 21
80.83505265174415
 31
0.0000000000000000
  0
LINE
  5
281
100
AcDbEntity
  8
MAIN0
  6
CONTINUOUS
 62
3
370
    35
100
AcDbLine
 10
531.8964693368419
 20
99.83505265174085
 30
0.0000000000000000
 11
533.6285201444123
 21
98.83505265173994
 31
0.0000000000000000
  0
LINE
  5
282
100
AcDbEntity
  8
MAIN0
  6
CONTINUOUS
 62
3
370
    35
100
AcDbLine
 10
539.6285201444117
 20
99.83505265174063
 30
0.0000000000000000
 11
539.6285201444117
 21
124.8350526517406
 31
0.0000000000000000
  0
LINE
  5
283
100
AcDbEntity
  8
MAIN0
  6
CONTINUOUS
 62
3
370
    35
100
AcDbLine
 10
518.6285201444117
 20
124.8350526517406
 30
0.0000000000000000
 11
518.6285201444117
 21
125.3350526517406
 31
0.0000000000000000
  0
LINE
  5
284
100
AcDbEntity
  8
MAIN0
  6
CONTINUOUS
 62
3
370
    35
100
AcDbLine
 10
494.1285201444119
 20
98.58505265174063
 30
0.0000000000000000
 11
494.1285201444119
 21
126.0850526517406
 31
0.0000000000000000
  0
LINE
  5
285
100
AcDbEntity
  8
MAIN0
  6
CONTINUOUS
 62
3
370
    35
100
AcDbLine
 10
512.8285201444118
 20
131.5850526517406
 30
0.0000000000000000
 11
499.6285201444118
 21
131.5850526517406
 31
0.0000000000000000
  0
LINE
  5
286
100
AcDbEntity
  8
MAIN0
  6
CONTINUOUS
 62
3
370
    35
100
AcDbLine
 10
512.8285201444118
 20
93.08505265174063
 30
0.0000000000000000
 11
499.6285201444118
 21
93.08505265174063
 31
0.0000000000000000
  0
LINE
  5
287
100
AcDbEntity
  8
MAIN0
  6
CONTINUOUS
 62
3
370
    35
100
AcDbLine
 10
513.6285201444118
 20
125.3350526517406
 30
0.0000000000000000
 11
518.6285201444117
 21
125.3350526517406
 31
0.0000000000000000
  0
LINE
  5
288
100
AcDbEntity
  8
MAIN0
  6
CONTINUOUS
 62
3
370
    35
100
AcDbLine
 10
518.6285201444117
 20
99.83505265174063
 30
0.0000000000000000
 11
518.6285201444117
 21
99.33505265174063
 31
0.0000000000000000
  0
LINE
  5
289
100
AcDbEntity
  8
MAIN0
  6
CONTINUOUS
 62
3
370
    35
100
AcDbLine
 10
513.6285201444118
 20
99.33505265174063
 30
0.0000000000000000
 11
518.6285201444117
 21
99.33505265174063
 31
0.0000000000000000
  0
LINE
  5
28A
100
AcDbEntity
  8
MAIN0
  6
CONTINUOUS
 62
3
370
    35
100
AcDbLine
 10
513.6285201444117
 20
93.88505255979362
 30
0.0000000000000000
 11
513.6285201444117
 21
99.83505265174063
 31
0.0000000000000000
  0
LINE
  5
28B
100
AcDbEntity
  8
MAIN0
  6
CONTINUOUS
 62
3
370
    35
100
AcDbLine
 10
513.6285201444117
 20
124.8350526517406
 30
0.0000000000000000
 11
513.6285201444117
 21
130.7850525516424
 31
0.0000000000000000
  0
LINE
  5
28C
100
AcDbEntity
  8
MAIN0
  6
CONTINUOUS
 62
3
370
    35
100
AcDbLine
 10
494.6285201444119
 20
99.08505265174063
 30
0.0000000000000000
 11
494.6285201444119
 21
125.5850526517406
 31
0.0000000000000000
  0
LINE
  5
28D
100
AcDbEntity
  8
MAIN0
  6
CONTINUOUS
 62
3
370
    35
100
AcDbLine
 10
512.1285201444118
 20
131.0850526517406
 30
0.0000000000000000
 11
500.1285201444118
 21
131.0850526517406
 31
0.0000000000000000
  0
LINE
  5
28E
100
AcDbEntity
  8
MAIN0
  6
CONTINUOUS
 62
3
370
    35
100
AcDbLine
 10
512.1285201444118
 20
93.58505265174063
 30
0.0000000000000000
 11
500.1285201444118
 21
93.58505265174063
 31
0.0000000000000000
  0
LINE
  5
28F
100
AcDbEntity
  8
MAIN0
  6
CONTINUOUS
 62
3
370
    35
100
AcDbLine
 10
500.1285201444110
 20
93.58505265174097
 30
0.0000000000000000
 11
494.6285201444113
 21
99.08505265174063
 31
0.0000000000000000
  0
LINE
  5
290
100
AcDbEntity
  8
MAIN0
  6
CONTINUOUS
 62
3
370
    35
100
AcDbLine
 10
500.1285201444110
 20
131.0850526517434
 30
0.0000000000000000
 11
494.6285201444114
 21
125.5850526517437
 31
0.0000000000000000
  0
LINE
  5
291
100
AcDbEntity
  8
MAIN0
  6
CONTINUOUS
 62
3
370
    35
100
AcDbLine
 10
512.1285201444132
 20
131.0850526517432
 30
0.0000000000000000
 11
513.6285201444122
 21
129.5850526517443
 31
0.0000000000000000
  0
LINE
  5
292
100
AcDbEntity
  8
MAIN0
  6
CONTINUOUS
 62
3
370
    35
100
AcDbLine
 10
512.1285201444109
 20
93.58505265174347
 30
0.0000000000000000
 11
513.6285201444099
 21
95.08505265174244
 31
0.0000000000000000
  0
ARC
  5
293
100
AcDbEntity
  8
MAIN0
  6
CONTINUOUS
 62
3
370
    35
100
AcDbCircle
 10
499.6285201444118
 20
98.58505265174063
 30
0.0000000000000000
 40
5.499999999999996
100
AcDbArc
 50
179.9999999999998
 51
269.9999999999999
  0
ARC
  5
294
100
AcDbEntity
  8
MAIN0
  6
CONTINUOUS
 62
3
370
    35
100
AcDbCircle
 10
499.6285201444118
 20
126.0850526517406
 30
0.0000000000000000
 40
5.499999999999996
100
AcDbArc
 50
89.99999999999970
 51
179.9999999999998
  0
ARC
  5
295
100
AcDbEntity
  8
MAIN0
  6
CONTINUOUS
 62
3
370
    35
100
AcDbCircle
 10
512.8285201444118
 20
93.88505265173990
 30
0.0000000000000000
 40
0.7999999999999999
100
AcDbArc
 50
269.9999999999999
 51
359.9999999999998
  0
ARC
  5
296
100
AcDbEntity
  8
MAIN0
  6
CONTINUOUS
 62
3
370
    35
100
AcDbCircle
 10
512.8285201444118
 20
130.7850526517414
 30
0.0000000000000000
 40
0.7999999999999999
100
AcDbArc
 50
0.0000000000000000
 51
89.99999999999970
  0
MTEXT
  5
297
100
AcDbEntity
  8
MAIN0
  6
CONTINUOUS
 62
7
370
    25
100
AcDbMText
 10
571.7920920746417
 20
99.27142907858570
 30
0.0000000000000000
 40
5.579999828338623
 41
0.0000000000000000
 44
0.7741935722041460
 71
     1
 72
     1
  1
{\H0.70x;{H8/h8}}
 11
6.123233995736766e-017
 21
1.000000000000000
 31
0.0000000000000000
  7
STANDARD
  0
LINE
  5
298
100
AcDbEntity
  8
MAIN0
  6
CONTINUOUS
 62
5
370
    18
100
AcDbLine
 10
541.6285201742140
 20
124.8350526517406
 30
0.0000000000000000
 11
573.6285201444121
 21
124.8350526517406
 31
0.0000000000000000
  0
LINE
  5
299
100
AcDbEntity
  8
MAIN0
  6
CONTINUOUS
 62
5
370
    18
100
AcDbLine
 10
568.6285201444121
 20
124.8350526517406
 30
0.0000000000000000
 11
568.6285201444121
 21
99.83505265174063
 31
0.0000000000000000
  0
LINE
  5
29A
100
AcDbEntity
  8
MAIN0
  6
CONTINUOUS
 62
5
370
    18
100
AcDbLine
 10
570.1285202040167
 20
119.8350526517406
 30
0.0000000000000000
 11
568.6285201444121
 21
124.8350526517406
 31
0.0000000000000000
  0
LINE
  5
29B
100
AcDbEntity
  8
MAIN0
  6
CONTINUOUS
 62
5
370
    18
100
AcDbLine
 10
568.6285201444121
 20
124.8350526517406
 30
0.0000000000000000
 11
567.1285200848074
 21
119.8350526517406
 31
0.0000000000000000
  0
LINE
  5
29C
100
AcDbEntity
  8
MAIN0
  6
CONTINUOUS
 62
5
370
    18
100
AcDbLine
 10
570.1285202040167
 20
104.8350526517406
 30
0.0000000000000000
 11
568.6285201444121
 21
99.83505265174063
 31
0.0000000000000000
  0
LINE
  5
29D
100
AcDbEntity
  8
MAIN0
  6
CONTINUOUS
 62
5
370
    18
100
AcDbLine
 10
568.6285201444121
 20
99.83505265174063
 30
0.0000000000000000
 11
567.1285200848074
 21
104.8350526517406
 31
0.0000000000000000
  0
MTEXT
  5
29E
100
AcDbEntity
  8
MAIN0
  6
CONTINUOUS
 62
7
370
    25
100
AcDbMText
 10
567.3785201444121
 20
112.3350526517406
 30
0.0000000000000000
 40
5.579999828338623
 41
0.0000000000000000
 44
0.7741935722041460
 71
     8
 72
     1
  1
{\H0.69x;{25}}
 11
6.123233995736766e-017
 21
1.000000000000000
 31
0.0000000000000000
  7
STANDARD
  0
LINE
  5
29F
100
AcDbEntity
  8
MAIN0
  6
CONTINUOUS
 62
5
370
    18
100
AcDbLine
 10
541.6285201742140
 20
99.83505265174063
 30
0.0000000000000000
 11
573.6285201444121
 21
99.83505265174063
 31
0.0000000000000000
  0
LINE
  5
2A0
100
AcDbEntity
  8
MAIN0
  6
CONTINUOUS
 62
5
370
    18
100
AcDbLine
 10
533.8964693666450
 20
144.8350526517406
 30
0.0000000000000000
 11
595.8665371924783
 21
144.8350526517406
 31
0.0000000000000000
  0
LINE
  5
2A1
100
AcDbEntity
  8
MAIN0
  6
CONTINUOUS
 62
5
370
    18
100
AcDbLine
 10
590.8665371924783
 20
144.8350526517406
 30
0.0000000000000000
 11
590.8665371924783
 21
79.83505265174063
 31
0.0000000000000000
  0
LINE
  5
2A2
100
AcDbEntity
  8
MAIN0
  6
CONTINUOUS
 62
5
370
    18
100
AcDbLine
 10
592.3665372520829
 20
139.8350526517406
 30
0.0000000000000000
 11
590.8665371924783
 21
144.8350526517406
 31
0.0000000000000000
  0
LINE
  5
2A3
100
AcDbEntity
  8
MAIN0
  6
CONTINUOUS
 62
5
370
    18
100
AcDbLine
 10
590.8665371924783
 20
144.8350526517406
 30
0.0000000000000000
 11
589.3665371328737
 21
139.8350526517406
 31
0.0000000000000000
  0
LINE
  5
2A4
100
AcDbEntity
  8
MAIN0
  6
CONTINUOUS
 62
5
370
    18
100
AcDbLine
 10
592.3665372520829
 20
84.83505265174063
 30
0.0000000000000000
 11
590.8665371924783
 21
79.83505265174063
 31
0.0000000000000000
  0
LINE
  5
2A5
100
AcDbEntity
  8
MAIN0
  6
CONTINUOUS
 62
5
370
    18
100
AcDbLine
 10
590.8665371924783
 20
79.83505265174063
 30
0.0000000000000000
 11
589.3665371328737
 21
84.83505265174063
 31
0.0000000000000000
  0
MTEXT
  5
2A6
100
AcDbEntity
  8
MAIN0
  6
CONTINUOUS
 62
7
370
    25
100
AcDbMText
 10
589.6165371924783
 20
112.3350526517406
 30
0.0000000000000000
 40
5.579999828338623
 41
0.0000000000000000
 44
0.7741935722041460
 71
     8
 72
     1
  1
{\H0.69x;{65}}
 11
6.123233995736766e-017
 21
1.000000000000000
 31
0.0000000000000000
  7
STANDARD
  0
LINE
  5
2A7
100
AcDbEntity
  8
MAIN0
  6
CONTINUOUS
 62
5
370
    18
100
AcDbLine
 10
533.8964693666450
 20
79.83505265174063
 30
0.0000000000000000
 11
595.8665371924783
 21
79.83505265174063
 31
0.0000000000000000
  0
LINE
  5
2A8
100
AcDbEntity
  8
MAIN0
  6
CONTINUOUS
 62
5
370
    18
100
AcDbLine
 10
539.6285201444117
 20
126.8350526815430
 30
0.0000000000000000
 11
539.6285201444117
 21
167.0966050338529
 31
0.0000000000000000
  0
LINE
  5
2A9
100
AcDbEntity
  8
MAIN0
  6
CONTINUOUS
 62
5
370
    18
100
AcDbLine
 10
547.1285201444117
 20
162.0966050338529
 30
0.0000000000000000
 11
533.6285201444117
 21
162.0966050338529
 31
0.0000000000000000
  0
LINE
  5
2AA
100
AcDbEntity
  8
MAIN0
  6
CONTINUOUS
 62
5
370
    18
100
AcDbLine
 10
544.6285201444117
 20
160.5966049742483
 30
0.0000000000000000
 11
539.6285201444117
 21
162.0966050338529
 31
0.0000000000000000
  0
LINE
  5
2AB
100
AcDbEntity
  8
MAIN0
  6
CONTINUOUS
 62
5
370
    18
100
AcDbLine
 10
539.6285201444117
 20
162.0966050338529
 30
0.0000000000000000
 11
544.6285201444117
 21
163.5966050934576
 31
0.0000000000000000
  0
POLYLINE
  5
2AC
100
AcDbEntity
  8
MAIN0
  6
CONTINUOUS
 62
5
370
    18
100
AcDb2dPolyline
 66
     1
 10
0.0000000000000000
 20
0.0000000000000000
 30
0.0000000000000000
 70
     1
 40
1.250000000000000
 41
1.250000000000000
  0
VERTEX
  5
2AD
100
AcDbEntity
  8
MAIN0
  6
CONTINUOUS
 62
5
370
    18
100
AcDbVertex
100
AcDb2dVertex
 10
534.2535201444117
 20
162.0966050338529
 30
0.0000000000000000
 42
1.000000000000000
  0
VERTEX
  5
2AE
100
AcDbEntity
  8
MAIN0
  6
CONTINUOUS
 62
5
370
    18
100
AcDbVertex
100
AcDb2dVertex
 10
533.0035201444117
 20
162.0966050338529
 30
0.0000000000000000
 42
1.000000000000000
  0
SEQEND
  5
2AF
100
AcDbEntity
  8
MAIN0
  6
CONTINUOUS
 62
5
370
    18
  0
MTEXT
  5
2B0
100
AcDbEntity
  8
MAIN0
  6
CONTINUOUS
 62
7
370
    25
100
AcDbMText
 10
544.0948749016160
 20
163.3466050338529
 30
0.0000000000000000
 40
5.579999828338623
 41
0.0000000000000000
 44
0.7741935722041460
 71
     8
 72
     1
  1
{\H0.67x;{6}}
 11
1.000000000000000
 21
0.0000000000000000
 31
0.0000000000000000
  7
STANDARD
  0
LINE
  5
2B1
100
AcDbEntity
  8
MAIN0
  6
CONTINUOUS
 62
5
370
    18
100
AcDbLine
 10
533.6285201444117
 20
145.8350526815430
 30
0.0000000000000000
 11
533.6285201444117
 21
167.0966050338529
 31
0.0000000000000000
  0
LINE
  5
2B2
100
AcDbEntity
  8
MAIN0
  6
CONTINUOUS
 62
5
370
    18
100
AcDbLine
 10
533.6285201444117
 20
162.0966050338529
 30
0.0000000000000000
 11
523.7137404813258
 21
162.0966050338529
 31
0.0000000000000000
  0
POLYLINE
  5
2B3
100
AcDbEntity
  8
MAIN0
  6
CONTINUOUS
 62
5
370
    18
100
AcDb2dPolyline
 66
     1
 10
0.0000000000000000
 20
0.0000000000000000
 30
0.0000000000000000
 70
     1
 40
1.250000000000000
 41
1.250000000000000
  0
VERTEX
  5
2B4
100
AcDbEntity
  8
MAIN0
  6
CONTINUOUS
 62
5
370
    18
100
AcDbVertex
100
AcDb2dVertex
 10
534.2535201444117
 20
162.0966050338529
 30
0.0000000000000000
 42
1.000000000000000
  0
VERTEX
  5
2B5
100
AcDbEntity
  8
MAIN0
  6
CONTINUOUS
 62
5
370
    18
100
AcDbVertex
100
AcDb2dVertex
 10
533.0035201444117
 20
162.0966050338529
 30
0.0000000000000000
 42
1.000000000000000
  0
SEQEND
  5
2B6
100
AcDbEntity
  8
MAIN0
  6
CONTINUOUS
 62
5
370
    18
  0
LINE
  5
2B7
100
AcDbEntity
  8
MAIN0
  6
CONTINUOUS
 62
5
370
    18
100
AcDbLine
 10
523.6285201444117
 20
160.5966049742483
 30
0.0000000000000000
 11
528.6285201444117
 21
162.0966050338529
 31
0.0000000000000000
  0
LINE
  5
2B8
100
AcDbEntity
  8
MAIN0
  6
CONTINUOUS
 62
5
370
    18
100
AcDbLine
 10
528.6285201444117
 20
162.0966050338529
 30
0.0000000000000000
 11
523.6285201444117
 21
163.5966050934576
 31
0.0000000000000000
  0
MTEXT
  5
2B9
100
AcDbEntity
  8
MAIN0
  6
CONTINUOUS
 62
7
370
    25
100
AcDbMText
 10
518.9665709916073
 20
163.3466050338529
 30
0.0000000000000000
 40
5.579999828338623
 41
0.0000000000000000
 44
0.7741935722041460
 71
     8
 72
     1
  1
{\H0.67x;{5}}
 11
1.000000000000000
 21
0.0000000000000000
 31
0.0000000000000000
  7
STANDARD
  0
LEADER
  5
2BA
100
AcDbEntity
  8
MAIN0
  6
CONTINUOUS
 62
5
370
    18
100
AcDbLeader
  3
MAIN001
 73
     0
 74
     0
 75
     1
 40
5.579999828338623
 41
89.72600264644620
 76
     3
 10
1178.636991533414
 20
744.7560680506425
 30
0.0000000000000000
 10
1356.482635838376
 20
877.4696779125034
 30
0.0000000000000000
 10
1361.296635698901
 20
877.4696779125034
 30
0.0000000000000000
340
2BB
213
0.0000000000000000
223
-1.250000000000000
233
0.0000000000000000
1001
ACAD
1000
DSTYLE
1002
{
1070
   147
1040
0.0
1070
    77
1070
     1
1070
   341
1005
13
1070
    41
1040
2.000000
1002
}
  0
MTEXT
  5
2BB
102
{ACAD_REACTORS
330
2BA
102
}
100
AcDbEntity
  8
MAIN0
  6
CONTINUOUS
 62
7
370
    25
100
AcDbMText
 10
1361.297635698901
 20
886.4696776740848
 30
0.0000000000000000
 40
5.579999828338623
 41
0.0000000000000000
 44
0.7935483930510365
 71
     1
 72
     1
  1
{\H0.93x;{3-M12 ネジ深30\P3-M12 DEPTH30}}
 11
1.000000000000000
 21
0.0000000000000000
 31
0.0000000000000000
  7
STANDARD
  0
LINE
  5
2BC
100
AcDbEntity
  8
MAIN0
  6
CONTINUOUS
 62
3
370
    35
100
AcDbLine
 10
726.3875868774053
 20
483.8977042718923
 30
0.0000000000000000
 11
730.1872326499026
 21
469.7172331981682
 31
0.0000000000000000
  0
LINE
  5
2BD
100
AcDbEntity
  8
MAIN0
  6
CONTINUOUS
 62
3
370
    35
100
AcDbLine
 10
730.1872326499021
 20
469.7172331981714
 30
0.0000000000000000
 11
760.1872326499049
 21
417.7557089711003
 31
0.0000000000000000
  0
ARC
  5
2BE
100
AcDbEntity
  8
MAIN0
  6
CONTINUOUS
 62
3
370
    35
100
AcDbCircle
 10
1049.162149378242
 20
619.2364710846351
 30
0.0000000000000000
 40
350.0000000000000
100
AcDbArc
 50
215.3279979039972
 51
229.5444122264940
  0
ARC
  5
2BF
100
AcDbEntity
  8
MAIN0
  6
CONTINUOUS
 62
3
370
    35
100
AcDbCircle
 10
1049.162149378242
 20
619.2364710846351
 30
0.0000000000000000
 40
350.0000000000000
100
AcDbArc
 50
258.0220095534225
 51
324.6720020959921
  0
ARC
  5
2C0
100
AcDbEntity
  8
MAIN0
  6
CONTINUOUS
 62
3
370
    35
100
AcDbCircle
 10
1049.162149378242
 20
619.2364710846351
 30
0.0000000000000000
 40
319.9999999999704
100
AcDbArc
 50
215.8291532798926
 51
236.2858366555211
  0
ARC
  5
2C1
100
AcDbEntity
  8
MAIN0
  6
CONTINUOUS
 62
3
370
    35
100
AcDbCircle
 10
1049.162149378242
 20
619.2364710846351
 30
0.0000000000000000
 40
319.9999999999704
100
AcDbArc
 50
252.7023986407142
 51
324.1708467200945
  0
ARC
  5
2C2
100
AcDbEntity
  8
MAIN0
  6
CONTINUOUS
 62
3
370
    35
100
AcDbCircle
 10
1049.162149378242
 20
619.2364710846351
 30
0.0000000000000000
 40
289.9999999999704
100
AcDbArc
 50
216.4345961486390
 51
242.2871700014982
  0
ARC
  5
2C3
100
AcDbEntity
  8
MAIN0
  6
CONTINUOUS
 62
3
370
    35
100
AcDbCircle
 10
1049.162149378242
 20
619.2364710846351
 30
0.0000000000000000
 40
289.9999999999704
100
AcDbArc
 50
242.2871700014982
 51
323.5654038513483
  0
LINE
  5
2C4
100
AcDbEntity
  8
MAIN10
  6
CONTINUOUS
 62
5
370
    18
100
AcDbLine
 10
456.2309419049711
 20
633.9288795271198
 30
0.0000000000000000
 11
433.1285201444121
 21
633.9288795271198
 31
0.0000000000000000
  0
LINE
  5
2C5
100
AcDbEntity
  8
MAIN10
  6
CONTINUOUS
 62
5
370
    18
100
AcDbLine
 10
451.1285201444121
 20
632.4288794675151
 30
0.0000000000000000
 11
446.1285201444121
 21
633.9288795271198
 31
0.0000000000000000
  0
LINE
  5
2C6
100
AcDbEntity
  8
MAIN10
  6
CONTINUOUS
 62
5
370
    18
100
AcDbLine
 10
446.1285201444121
 20
633.9288795271198
 30
0.0000000000000000
 11
451.1285201444121
 21
635.4288795867244
 31
0.0000000000000000
  0
LINE
  5
2C7
100
AcDbEntity
  8
MAIN10
  6
CONTINUOUS
 62
5
370
    18
100
AcDbLine
 10
435.6285201444121
 20
632.4288794675151
 30
0.0000000000000000
 11
440.6285201444121
 21
633.9288795271198
 31
0.0000000000000000
  0
LINE
  5
2C8
100
AcDbEntity
  8
MAIN10
  6
CONTINUOUS
 62
5
370
    18
100
AcDbLine
 10
440.6285201444121
 20
633.9288795271198
 30
0.0000000000000000
 11
435.6285201444121
 21
635.4288795867244
 31
0.0000000000000000
  0
MTEXT
  5
2C9
100
AcDbEntity
  8
MAIN10
  6
CONTINUOUS
 62
7
370
    25
100
AcDbMText
 10
464.7595737614305
 20
635.1788795271198
 30
0.0000000000000000
 40
5.579999828338623
 41
0.0000000000000000
 44
0.7741935722041460
 71
     8
 72
     1
  1
{\H0.58x;{5.5}}
 11
1.000000000000000
 21
0.0000000000000000
 31
0.0000000000000000
  7
STANDARD
  0
LINE
  5
2CA
100
AcDbEntity
  8
MAIN10
  6
CONTINUOUS
 62
5
370
    18
100
AcDbLine
 10
440.6285201444121
 20
633.9288795271198
 30
0.0000000000000000
 11
405.6285201444119
 21
633.9288795271198
 31
0.0000000000000000
  0
LINE
  5
2CB
100
AcDbEntity
  8
MAIN10
  6
CONTINUOUS
 62
5
370
    18
100
AcDbLine
 10
435.6285201444121
 20
632.4288794675151
 30
0.0000000000000000
 11
440.6285201444121
 21
633.9288795271198
 31
0.0000000000000000
  0
LINE
  5
2CC
100
AcDbEntity
  8
MAIN10
  6
CONTINUOUS
 62
5
370
    18
100
AcDbLine
 10
440.6285201444121
 20
633.9288795271198
 30
0.0000000000000000
 11
435.6285201444121
 21
635.4288795867244
 31
0.0000000000000000
  0
LINE
  5
2CD
100
AcDbEntity
  8
MAIN10
  6
CONTINUOUS
 62
5
370
    18
100
AcDbLine
 10
410.6285201444119
 20
632.4288794675151
 30
0.0000000000000000
 11
405.6285201444119
 21
633.9288795271198
 31
0.0000000000000000
  0
LINE
  5
2CE
100
AcDbEntity
  8
MAIN10
  6
CONTINUOUS
 62
5
370
    18
100
AcDbLine
 10
405.6285201444119
 20
633.9288795271198
 30
0.0000000000000000
 11
410.6285201444119
 21
635.4288795867244
 31
0.0000000000000000
  0
MTEXT
  5
2CF
100
AcDbEntity
  8
MAIN10
  6
CONTINUOUS
 62
7
370
    25
100
AcDbMText
 10
423.1285201444120
 20
635.1788795271198
 30
0.0000000000000000
 40
5.579999828338623
 41
0.0000000000000000
 44
0.7741935722041460
 71
     8
 72
     1
  1
{\H0.69x;{35}}
 11
1.000000000000000
 21
0.0000000000000000
 31
0.0000000000000000
  7
STANDARD
  0
LINE
  5
2D0
100
AcDbEntity
  8
MAIN10
  6
CONTINUOUS
 62
5
370
    18
100
AcDbLine
 10
413.1285201444118
 20
633.9288795271198
 30
0.0000000000000000
 11
366.8746425046414
 21
633.9288795271198
 31
0.0000000000000000
  0
LINE
  5
2D1
100
AcDbEntity
  8
MAIN10
  6
CONTINUOUS
 62
5
370
    18
100
AcDbLine
 10
410.6285201444118
 20
632.4288794675151
 30
0.0000000000000000
 11
405.6285201444118
 21
633.9288795271198
 31
0.0000000000000000
  0
LINE
  5
2D2
100
AcDbEntity
  8
MAIN10
  6
CONTINUOUS
 62
5
370
    18
100
AcDbLine
 10
405.6285201444118
 20
633.9288795271198
 30
0.0000000000000000
 11
410.6285201444118
 21
635.4288795867244
 31
0.0000000000000000
  0
LINE
  5
2D3
100
AcDbEntity
  8
MAIN10
  6
CONTINUOUS
 62
5
370
    18
100
AcDbLine
 10
380.6285201444119
 20
632.4288794675151
 30
0.0000000000000000
 11
385.6285201444119
 21
633.9288795271198
 31
0.0000000000000000
  0
LINE
  5
2D4
100
AcDbEntity
  8
MAIN10
  6
CONTINUOUS
 62
5
370
    18
100
AcDbLine
 10
385.6285201444119
 20
633.9288795271198
 30
0.0000000000000000
 11
380.6285201444119
 21
635.4288795867244
 31
0.0000000000000000
  0
MTEXT
  5
2D5
100
AcDbEntity
  8
MAIN10
  6
CONTINUOUS
 62
7
370
    25
100
AcDbMText
 10
354.4938243178191
 20
635.1788795271198
 30
0.0000000000000000
 40
5.579999828338623
 41
0.0000000000000000
 44
0.7741935722041460
 71
     8
 72
     1
  1
{MAX 20}
 11
1.000000000000000
 21
0.0000000000000000
 31
0.0000000000000000
  7
STANDARD
  0
MTEXT
  5
2D6
100
AcDbEntity
  8
MAIN0
  6
CONTINUOUS
 62
7
370
    25
100
AcDbMText
 10
338.8083866721809
 20
631.7086026856118
 30
0.0000000000000000
 40
5.579999828338623
 41
0.0000000000000000
 44
0.7741935722041460
 71
     1
 72
     1
  1
{\H0.70x;{MIN -3}}
 11
1.000000000000000
 21
0.0000000000000000
 31
0.0000000000000000
  7
STANDARD
  0
LINE
  5
2D7
100
AcDbEntity
  8
MAIN10
  6
CONTINUOUS
 62
5
370
    18
100
AcDbLine
 10
190.4087869795738
 20
660.2671186268449
 30
0.0000000000000000
 11
190.4087869795738
 21
969.2364710846316
 31
0.0000000000000000
  0
LINE
  5
2D8
100
AcDbEntity
  8
MAIN10
  6
CONTINUOUS
 62
5
370
    18
100
AcDbLine
 10
188.9087869199692
 20
964.2364710846316
 30
0.0000000000000000
 11
190.4087869795738
 21
969.2364710846316
 31
0.0000000000000000
  0
LINE
  5
2D9
100
AcDbEntity
  8
MAIN10
  6
CONTINUOUS
 62
5
370
    18
100
AcDbLine
 10
190.4087869795738
 20
969.2364710846316
 30
0.0000000000000000
 11
191.9087870391784
 21
964.2364710846316
 31
0.0000000000000000
  0
MTEXT
  5
2DA
100
AcDbEntity
  8
MAIN10
  6
CONTINUOUS
 62
7
370
    25
100
AcDbMText
 10
189.1587869795738
 20
618.8313476970845
 30
0.0000000000000000
 40
5.579999828338623
 41
0.0000000000000000
 44
0.7741935722041460
 71
     8
 72
     1
  1
{\U+2205700}
 11
6.123233995736766e-017
 21
1.000000000000000
 31
0.0000000000000000
  7
STANDARD
  0
LINE
  5
2DB
100
AcDbEntity
  8
MAIN10
  6
CONTINUOUS
 62
5
370
    18
100
AcDbLine
 10
380.6285201146097
 20
969.2364710846316
 30
0.0000000000000000
 11
185.4087869795738
 21
969.2364710846316
 31
0.0000000000000000
  0
LEADER
  5
2DC
100
AcDbEntity
  8
MAIN2
  6
CONTINUOUS
 62
5
370
    18
100
AcDbLeader
  3
MAIN001
 73
     0
 74
     0
 75
     0
 40
0.0000000000000000
 41
0.0000000000000000
 76
     4
 10
864.7467187189357
 20
158.9542053744615
 30
0.0000000000000000
 10
875.9967187189357
 20
158.9542053744615
 30
0.0000000000000000
 10
870.3717187189357
 20
168.6969911670363
 30
0.0000000000000000
 10
864.7467187189357
 20
158.9542053744615
 30
0.0000000000000000
340
2DD
213
-3.674999999999955
223
-0.7500000000000568
233
0.0000000000000000
1001
ACAD
1000
DSTYLE
1002
{
1070
   147
1040
0.0
1070
    77
1070
     0
1070
   341
1005
1
1070
    41
1040
2.000000
1002
}
  0
MTEXT
  5
2DD
102
{ACAD_REACTORS
330
2DC
102
}
100
AcDbEntity
  8
MAIN2
  6
CONTINUOUS
 62
7
370
    25
100
AcDbMText
 10
868.4217187189356
 20
164.7042053744615
 30
0.0000000000000000
 40
3.600000000000000
 41
0.0000000000000000
 44
0.6720000028610229
 71
     1
 72
     1
  1
{\H0.82x;{2}}
 11
1.000000000000000
 21
0.0000000000000000
 31
0.0000000000000000
  7
STANDARD
  0
LEADER
  5
2DE
100
AcDbEntity
  8
MAIN2
  6
CONTINUOUS
 62
5
370
    18
100
AcDbLeader
  3
MAIN001
 73
     0
 74
     0
 75
     0
 40
0.0000000000000000
 41
0.0000000000000000
 76
     4
 10
1172.096020530762
 20
159.2147590219905
 30
0.0000000000000000
 10
1183.346020530762
 20
159.2147590219905
 30
0.0000000000000000
 10
1177.721020530762
 20
168.9575448145654
 30
0.0000000000000000
 10
1172.096020530762
 20
159.2147590219905
 30
0.0000000000000000
340
2DF
213
-3.674999999999955
223
-0.7500000000000568
233
0.0000000000000000
1001
ACAD
1000
DSTYLE
1002
{
1070
   147
1040
0.0
1070
    77
1070
     0
1070
   341
1005
1
1070
    41
1040
2.000000
1002
}
  0
MTEXT
  5
2DF
102
{ACAD_REACTORS
330
2DE
102
}
100
AcDbEntity
  8
MAIN2
  6
CONTINUOUS
 62
7
370
    25
100
AcDbMText
 10
1175.771020530762
 20
164.9647590219905
 30
0.0000000000000000
 40
3.600000000000000
 41
0.0000000000000000
 44
0.6720000028610229
 71
     1
 72
     1
  1
{\H0.82x;{2}}
 11
1.000000000000000
 21
0.0000000000000000
 31
0.0000000000000000
  7
STANDARD
  0
LEADER
  5
2E0
100
AcDbEntity
  8
MAIN2
  6
CONTINUOUS
 62
5
370
    18
100
AcDbLeader
  3
MAIN001
 73
     0
 74
     0
 75
     0
 40
0.0000000000000000
 41
0.0000000000000000
 76
     4
 10
75.39244618494024
 20
523.6821051947934
 30
0.0000000000000000
 10
86.64244618494024
 20
523.6821051947934
 30
0.0000000000000000
 10
81.01744618494024
 20
533.4248909873684
 30
0.0000000000000000
 10
75.39244618494001
 20
523.6821051947934
 30
0.0000000000000000
340
2E1
213
-3.675000000000239
223
-0.7500000000000000
233
0.0000000000000000
1001
ACAD
1000
DSTYLE
1002
{
1070
   147
1040
0.0
1070
    77
1070
     0
1070
   341
1005
1
1070
    41
1040
2.000000
1002
}
  0
MTEXT
  5
2E1
102
{ACAD_REACTORS
330
2E0
102
}
100
AcDbEntity
  8
MAIN2
  6
CONTINUOUS
 62
7
370
    25
100
AcDbMText
 10
79.06744618494025
 20
529.4321051947934
 30
0.0000000000000000
 40
3.600000000000000
 41
0.0000000000000000
 44
0.6720000028610229
 71
     1
 72
     1
  1
{\H0.82x;{2}}
 11
1.000000000000000
 21
0.0000000000000000
 31
0.0000000000000000
  7
STANDARD
  0
LINE
  5
2E2
100
AcDbEntity
  8
MAIN0
  6
CONTINUOUS
 62
3
370
    35
100
AcDbLine
 10
385.6285201444119
 20
429.2364710846352
 30
0.0000000000000000
 11
385.6285201444119
 21
477.2364710846352
 31
0.0000000000000000
  0
LINE
  5
2E3
100
AcDbEntity
  8
MAIN0
  6
CONTINUOUS
 62
3
370
    35
100
AcDbLine
 10
385.6285201444119
 20
477.2364710846352
 30
0.0000000000000000
 11
385.6285201444121
 21
809.2364710846352
 31
0.0000000000000000
  0
LINE
  5
2E4
100
AcDbEntity
  8
MAIN0
  6
CENTER
 62
5
370
    18
100
AcDbLine
 10
348.7623436543977
 20
454.1364710846358
 30
0.0000000000000000
 11
485.8785203828305
 21
454.1364710846358
 31
0.0000000000000000
  0
LINE
  5
2E5
100
AcDbEntity
  8
MAIN0
  6
CONTINUOUS
 62
3
370
    35
100
AcDbLine
 10
379.6285201444118
 20
272.2364710846388
 30
0.0000000000000000
 11
379.6285201444121
 21
966.2364710846316
 31
0.0000000000000000
  0
LEADER
  5
2E6
100
AcDbEntity
  8
MAIN2
  6
CONTINUOUS
 62
5
370
    18
100
AcDbLeader
  3
MAIN001
 73
     0
 74
     0
 75
     0
 40
0.0000000000000000
 41
0.0000000000000000
 76
     4
 10
427.5118965069607
 20
741.7219037169041
 30
0.0000000000000000
 10
438.7618965069607
 20
741.7219037169041
 30
0.0000000000000000
 10
433.1368965069607
 20
751.4646895094791
 30
0.0000000000000000
 10
427.5118965069607
 20
741.7219037169041
 30
0.0000000000000000
340
2E7
213
-3.675000000000011
223
-0.7500000000000000
233
0.0000000000000000
1001
ACAD
1000
DSTYLE
1002
{
1070
   147
1040
0.0
1070
    77
1070
     0
1070
   341
1005
1
1070
    41
1040
2.000000
1002
}
  0
MTEXT
  5
2E7
102
{ACAD_REACTORS
330
2E6
102
}
100
AcDbEntity
  8
MAIN2
  6
CONTINUOUS
 62
7
370
    25
100
AcDbMText
 10
431.1868965069607
 20
747.4719037169041
 30
0.0000000000000000
 40
3.600000000000000
 41
0.0000000000000000
 44
0.6720000028610229
 71
     1
 72
     1
  1
{\H0.82x;{2}}
 11
1.000000000000000
 21
0.0000000000000000
 31
0.0000000000000000
  7
STANDARD
  0
HATCH
  5
2E8
100
AcDbEntity
  8
MAIN0
  6
CONTINUOUS
 62
5
370
    18
100
AcDbHatch
 10
0.000000
 20
0.000000
 30
0.000000
210
0.000000
220
0.000000
230
1.000000
  2
CAE_H1
 70
0
 71
0
 91
1
 92
5
 93
4
 72
1
 10
385.6285201444119
 20
429.2364710846352
 11
385.6285201444119
 21
477.2364710846352
 72
1
 10
385.6285201444119
 20
477.2364710846352
 11
352.6285201444119
 21
477.2364710846352
 72
1
 10
352.6285201444119
 20
477.2364710846352
 11
352.6285201444118
 21
429.2364710846352
 72
1
 10
352.6285201444118
 20
429.2364710846352
 11
385.6285201444119
 21
429.2364710846352
 97
0
 75
0
 76
1
 52
0.000000
 41
1.000000
 77
0
 78
1
 53
45.000001
 43
0.000000
 44
0.000000
 45
-3.535534
 46
3.535534
 79
0
 47
0.100000
 98
1
 10
0.000000
 20
0.000000
  0
LINE
  5
2E9
100
AcDbEntity
  8
MAIN0
  6
PHANTOM
 62
5
370
    18
100
AcDbLine
 10
353.6285201444140
 20
443.1364710846366
 30
0.0000000000000000
 11
353.6285201444141
 21
465.1364710846366
 31
0.0000000000000000
  0
LINE
  5
2EA
100
AcDbEntity
  8
MAIN0
  6
PHANTOM
 62
5
370
    18
100
AcDbLine
 10
503.6285351444142
 20
470.6364710846358
 30
0.0000000000000000
 11
524.6285501444140
 21
470.6364560846358
 31
0.0000000000000000
  0
LINE
  5
2EB
100
AcDbEntity
  8
MAIN0
  6
PHANTOM
 62
5
370
    18
100
AcDbLine
 10
524.6285961444139
 20
437.6364640846358
 30
0.0000000000000000
 11
503.6285051444140
 21
437.6364710846358
 31
0.0000000000000000
  0
LINE
  5
2EC
100
AcDbEntity
  8
MAIN0
  6
PHANTOM
 62
5
370
    18
100
AcDbLine
 10
524.6285271444141
 20
470.6364560846358
 30
0.0000000000000000
 11
524.6285121444139
 21
437.6364640846358
 31
0.0000000000000000
  0
LINE
  5
2ED
100
AcDbEntity
  8
MAIN0
  6
PHANTOM
 62
5
370
    18
100
AcDbLine
 10
525.6285661444141
 20
468.9044160846357
 30
0.0000000000000000
 11
524.6285271444141
 21
470.6364560846358
 31
0.0000000000000000
  0
LINE
  5
2EE
100
AcDbEntity
  8
MAIN0
  6
PHANTOM
 62
5
370
    18
100
AcDbLine
 10
525.6285501444139
 20
439.3687020846357
 30
0.0000000000000000
 11
524.6285121444139
 21
437.6364640846358
 31
0.0000000000000000
  0
LINE
  5
2EF
100
AcDbEntity
  8
MAIN0
  6
PHANTOM
 62
5
370
    18
100
AcDbLine
 10
525.6285201444140
 20
439.3686501194704
 30
0.0000000000000000
 11
525.6285201444141
 21
468.9044957553684
 31
0.0000000000000000
  0
LINE
  5
2F0
100
AcDbEntity
  8
MAIN0
  6
PHANTOM
 62
5
370
    18
100
AcDbLine
 10
409.6285201444140
 20
443.1364710846364
 30
0.0000000000000000
 11
409.6285201444141
 21
465.1364710846364
 31
0.0000000000000000
  0
LINE
  5
2F1
100
AcDbEntity
  8
MAIN0
  6
PHANTOM
 62
5
370
    18
100
AcDbLine
 10
353.6285201444140
 20
465.1364710846366
 30
0.0000000000000000
 11
503.6285201444142
 21
465.1364480846358
 31
0.0000000000000000
  0
LINE
  5
2F2
100
AcDbEntity
  8
MAIN0
  6
PHANTOM
 62
5
370
    18
100
AcDbLine
 10
353.6285201444141
 20
464.1364710846366
 30
0.0000000000000000
 11
409.6285201444142
 21
464.1364710846366
 31
0.0000000000000000
  0
LINE
  5
2F3
100
AcDbEntity
  8
MAIN0
  6
PHANTOM
 62
5
370
    18
100
AcDbLine
 10
353.6285201444140
 20
444.1364710846366
 30
0.0000000000000000
 11
409.6285201444140
 21
444.1364710846366
 31
0.0000000000000000
  0
LINE
  5
2F4
100
AcDbEntity
  8
MAIN0
  6
PHANTOM
 62
5
370
    18
100
AcDbLine
 10
353.6285201444141
 20
443.1364710846367
 30
0.0000000000000000
 11
503.6285201444142
 21
443.1364790846359
 31
0.0000000000000000
  0
LINE
  5
2F5
100
AcDbEntity
  8
MAIN0
  6
CONTINUOUS
 62
3
370
    35
100
AcDbLine
 10
601.6285201444121
 20
971.7364710846316
 30
0.0000000000000000
 11
601.6285201444119
 21
791.7364710846351
 31
0.0000000000000000
  0
LINE
  5
2F6
100
AcDbEntity
  8
MAIN0
  6
CENTER
 62
5
370
    18
100
AcDbLine
 10
608.8207843004093
 20
931.7364710846316
 30
0.0000000000000000
 11
523.6313726676829
 21
931.7364710846316
 31
0.0000000000000000
  0
LINE
  5
2F7
100
AcDbEntity
  8
MAIN0
  6
CENTER
 62
5
370
    18
100
AcDbLine
 10
610.2181375432454
 20
871.7364710846351
 30
0.0000000000000000
 11
523.6313726676829
 21
871.7364710846350
 31
0.0000000000000000
  0
LINE
  5
2F8
100
AcDbEntity
  8
MAIN0
  6
CONTINUOUS
 62
3
370
    35
100
AcDbLine
 10
556.6285201444118
 20
947.7364710846316
 30
0.0000000000000000
 11
556.6285201444118
 21
915.7364710846351
 31
0.0000000000000000
  0
LINE
  5
2F9
100
AcDbEntity
  8
MAIN0
  6
CONTINUOUS
 62
3
370
    35
100
AcDbLine
 10
556.6285201444119
 20
947.7364710846316
 30
0.0000000000000000
 11
601.6285201444118
 21
947.7364710846316
 31
0.0000000000000000
  0
LINE
  5
2FA
100
AcDbEntity
  8
MAIN0
  6
CONTINUOUS
 62
3
370
    35
100
AcDbLine
 10
601.6285201444121
 20
915.7364710846351
 30
0.0000000000000000
 11
556.6285201444121
 21
915.7364710846351
 31
0.0000000000000000
  0
LINE
  5
2FB
100
AcDbEntity
  8
MAIN0
  6
CONTINUOUS
 62
3
370
    35
100
AcDbLine
 10
556.6285201444119
 20
942.2364710846315
 30
0.0000000000000000
 11
540.6285201444118
 21
942.2364710846315
 31
0.0000000000000000
  0
LINE
  5
2FC
100
AcDbEntity
  8
MAIN0
  6
CONTINUOUS
 62
3
370
    35
100
AcDbLine
 10
540.6285201444118
 20
921.2364710846315
 30
0.0000000000000000
 11
556.6285201444119
 21
921.2364710846315
 31
0.0000000000000000
  0
LINE
  5
2FD
100
AcDbEntity
  8
MAIN0
  6
CONTINUOUS
 62
3
370
    35
100
AcDbLine
 10
556.6285201444118
 20
887.7364710846351
 30
0.0000000000000000
 11
556.6285201444118
 21
855.7364710846351
 31
0.0000000000000000
  0
LINE
  5
2FE
100
AcDbEntity
  8
MAIN0
  6
CONTINUOUS
 62
3
370
    35
100
AcDbLine
 10
556.6285201444119
 20
887.7364710846351
 30
0.0000000000000000
 11
601.6285201444118
 21
887.7364710846351
 31
0.0000000000000000
  0
LINE
  5
2FF
100
AcDbEntity
  8
MAIN0
  6
CONTINUOUS
 62
3
370
    35
100
AcDbLine
 10
601.6285201444119
 20
855.7364710846351
 30
0.0000000000000000
 11
556.6285201444119
 21
855.7364710846351
 31
0.0000000000000000
  0
LINE
  5
300
100
AcDbEntity
  8
MAIN0
  6
CONTINUOUS
 62
3
370
    35
100
AcDbLine
 10
556.6285201444119
 20
882.2364710846350
 30
0.0000000000000000
 11
540.6285201444118
 21
882.2364710846350
 31
0.0000000000000000
  0
LINE
  5
301
100
AcDbEntity
  8
MAIN0
  6
CONTINUOUS
 62
3
370
    35
100
AcDbLine
 10
540.6285201444118
 20
861.2364710846351
 30
0.0000000000000000
 11
556.6285201444119
 21
861.2364710846351
 31
0.0000000000000000
  0
LINE
  5
302
100
AcDbEntity
  8
MAIN0
  6
CONTINUOUS
 62
3
370
    35
100
AcDbLine
 10
531.6285201444124
 20
970.5817705462553
 30
0.0000000000000000
 11
533.6285201444121
 21
971.7364710846343
 31
0.0000000000000000
  0
LINE
  5
303
100
AcDbEntity
  8
MAIN0
  6
CONTINUOUS
 62
3
370
    35
100
AcDbLine
 10
531.6285201444122
 20
792.8911716230134
 30
0.0000000000000000
 11
533.6285201444108
 21
791.7364710846350
 31
0.0000000000000000
  0
LINE
  5
304
100
AcDbEntity
  8
MAIN0
  6
CONTINUOUS
 62
3
370
    35
100
AcDbLine
 10
540.6285201444119
 20
941.7364542179651
 30
0.0000000000000000
 11
540.6285201444119
 21
971.7364710846316
 31
0.0000000000000000
  0
LINE
  5
305
100
AcDbEntity
  8
MAIN0
  6
CONTINUOUS
 62
3
370
    35
100
AcDbLine
 10
540.6285201444119
 20
791.7364710846351
 30
0.0000000000000000
 11
540.6285201444119
 21
861.7364769513017
 31
0.0000000000000000
  0
LINE
  5
306
100
AcDbEntity
  8
MAIN0
  6
CONTINUOUS
 62
3
370
    35
100
AcDbLine
 10
540.6285201444119
 20
881.7364542179685
 30
0.0000000000000000
 11
540.6285201444119
 21
921.7364769513017
 31
0.0000000000000000
  0
LINE
  5
307
100
AcDbEntity
  8
MAIN0
  6
CONTINUOUS
 62
3
370
    35
100
AcDbLine
 10
533.6285201444117
 20
971.7364710846316
 30
0.0000000000000000
 11
601.6285201444119
 21
971.7364710846316
 31
0.0000000000000000
  0
LINE
  5
308
100
AcDbEntity
  8
MAIN0
  6
CONTINUOUS
 62
3
370
    35
100
AcDbLine
 10
1016.662149378242
 20
971.7364710846312
 30
0.0000000000000000
 11
1081.662149378242
 21
971.7364710846310
 31
0.0000000000000000
  0
LINE
  5
309
100
AcDbEntity
  8
MAIN0
  6
CONTINUOUS
 62
3
370
    35
100
AcDbLine
 10
533.6285201444107
 20
791.7364710846351
 30
0.0000000000000000
 11
601.6285201444118
 21
791.7364710846351
 31
0.0000000000000000
  0
LINE
  5
30A
100
AcDbEntity
  8
MAIN0
  6
CONTINUOUS
 62
3
370
    35
100
AcDbLine
 10
1016.662149378242
 20
791.7364710846352
 30
0.0000000000000000
 11
1081.662149378242
 21
791.7364710846352
 31
0.0000000000000000
  0
LINE
  5
30B
100
AcDbEntity
  8
MAIN0
  6
CONTINUOUS
 62
3
370
    35
100
AcDbLine
 10
556.6285351444119
 20
946.7364710846327
 30
0.0000000000000000
 11
575.6285501444120
 21
946.7364560846329
 31
0.0000000000000000
  0
LINE
  5
30C
100
AcDbEntity
  8
MAIN0
  6
CONTINUOUS
 62
3
370
    35
100
AcDbLine
 10
575.6285961444120
 20
916.7364640846350
 30
0.0000000000000000
 11
556.6285051444119
 21
916.7364710846350
 31
0.0000000000000000
  0
LINE
  5
30D
100
AcDbEntity
  8
MAIN0
  6
CONTINUOUS
 62
3
370
    35
100
AcDbLine
 10
575.6285271444119
 20
946.7364560846346
 30
0.0000000000000000
 11
575.6285121444120
 21
916.7364640846351
 31
0.0000000000000000
  0
LINE
  5
30E
100
AcDbEntity
  8
MAIN0
  6
CONTINUOUS
 62
3
370
    35
100
AcDbLine
 10
576.6285661444119
 20
945.0044160846351
 30
0.0000000000000000
 11
575.6285271444119
 21
946.7364560846351
 31
0.0000000000000000
  0
LINE
  5
30F
100
AcDbEntity
  8
MAIN0
  6
CONTINUOUS
 62
3
370
    35
100
AcDbLine
 10
576.6285501444120
 20
918.4687020846352
 30
0.0000000000000000
 11
575.6285121444120
 21
916.7364640846351
 31
0.0000000000000000
  0
LINE
  5
310
100
AcDbEntity
  8
MAIN0
  6
CONTINUOUS
 62
3
370
    35
100
AcDbLine
 10
576.6285201444119
 20
918.4686501194698
 30
0.0000000000000000
 11
576.6285201444119
 21
945.0044957553666
 31
0.0000000000000000
  0
LINE
  5
311
100
AcDbEntity
  8
MAIN0
  6
CONTINUOUS
 62
3
370
    35
100
AcDbLine
 10
542.6285201444121
 20
921.7364710846316
 30
0.0000000000000000
 11
542.6285201444121
 21
941.7364710846316
 31
0.0000000000000000
  0
LINE
  5
312
100
AcDbEntity
  8
MAIN0
  6
CONTINUOUS
 62
3
370
    35
100
AcDbLine
 10
539.6285201444117
 20
941.7364546012991
 30
0.0000000000000000
 11
556.6285201444118
 21
941.7364480846325
 31
0.0000000000000000
  0
LINE
  5
313
100
AcDbEntity
  8
MAIN0
  6
CONTINUOUS
 62
5
370
    18
100
AcDbLine
 10
539.6285201444117
 20
940.7364710846318
 30
0.0000000000000000
 11
542.6285201444121
 21
940.7364710846318
 31
0.0000000000000000
  0
LINE
  5
314
100
AcDbEntity
  8
MAIN0
  6
CONTINUOUS
 62
5
370
    18
100
AcDbLine
 10
539.6285201444117
 20
922.7364710846318
 30
0.0000000000000000
 11
542.6285201444121
 21
922.7364710846318
 31
0.0000000000000000
  0
LINE
  5
315
100
AcDbEntity
  8
MAIN0
  6
CONTINUOUS
 62
3
370
    35
100
AcDbLine
 10
539.6285201444117
 20
921.7364768179659
 30
0.0000000000000000
 11
556.6285201444118
 21
921.7364790846326
 31
0.0000000000000000
  0
LINE
  5
316
100
AcDbEntity
  8
MAIN0
  6
CONTINUOUS
 62
3
370
    35
100
AcDbLine
 10
556.6285351444118
 20
886.7364710846350
 30
0.0000000000000000
 11
575.6285501444119
 21
886.7364560846352
 31
0.0000000000000000
  0
LINE
  5
317
100
AcDbEntity
  8
MAIN0
  6
CONTINUOUS
 62
3
370
    35
100
AcDbLine
 10
575.6285961444120
 20
856.7364640846351
 30
0.0000000000000000
 11
556.6285051444119
 21
856.7364710846351
 31
0.0000000000000000
  0
LINE
  5
318
100
AcDbEntity
  8
MAIN0
  6
CONTINUOUS
 62
3
370
    35
100
AcDbLine
 10
575.6285271444119
 20
886.7364560846352
 30
0.0000000000000000
 11
575.6285121444120
 21
856.7364640846351
 31
0.0000000000000000
  0
LINE
  5
319
100
AcDbEntity
  8
MAIN0
  6
CONTINUOUS
 62
3
370
    35
100
AcDbLine
 10
576.6285661444119
 20
885.0044160846351
 30
0.0000000000000000
 11
575.6285271444119
 21
886.7364560846352
 31
0.0000000000000000
  0
LINE
  5
31A
100
AcDbEntity
  8
MAIN0
  6
CONTINUOUS
 62
3
370
    35
100
AcDbLine
 10
576.6285501444120
 20
858.4687020846351
 30
0.0000000000000000
 11
575.6285121444121
 21
856.7364640846350
 31
0.0000000000000000
  0
LINE
  5
31B
100
AcDbEntity
  8
MAIN0
  6
CONTINUOUS
 62
3
370
    35
100
AcDbLine
 10
576.6285201444119
 20
858.4686501194698
 30
0.0000000000000000
 11
576.6285201444119
 21
885.0044957553678
 31
0.0000000000000000
  0
LINE
  5
31C
100
AcDbEntity
  8
MAIN0
  6
CONTINUOUS
 62
3
370
    35
100
AcDbLine
 10
542.6285201444119
 20
861.7364710846351
 30
0.0000000000000000
 11
542.6285201444119
 21
881.7364710846351
 31
0.0000000000000000
  0
LINE
  5
31D
100
AcDbEntity
  8
MAIN0
  6
CONTINUOUS
 62
3
370
    35
100
AcDbLine
 10
539.6285201444117
 20
881.7364546013018
 30
0.0000000000000000
 11
556.6285201444119
 21
881.7364480846352
 31
0.0000000000000000
  0
LINE
  5
31E
100
AcDbEntity
  8
MAIN0
  6
CONTINUOUS
 62
5
370
    18
100
AcDbLine
 10
539.6285201444117
 20
880.7364710846351
 30
0.0000000000000000
 11
542.6285201444119
 21
880.7364710846351
 31
0.0000000000000000
  0
LINE
  5
31F
100
AcDbEntity
  8
MAIN0
  6
CONTINUOUS
 62
5
370
    18
100
AcDbLine
 10
539.6285201444117
 20
862.7364710846351
 30
0.0000000000000000
 11
542.6285201444119
 21
862.7364710846351
 31
0.0000000000000000
  0
LINE
  5
320
100
AcDbEntity
  8
MAIN0
  6
CONTINUOUS
 62
3
370
    35
100
AcDbLine
 10
539.6285201444117
 20
861.7364768179684
 30
0.0000000000000000
 11
556.6285201444119
 21
861.7364790846351
 31
0.0000000000000000
  0
LINE
  5
321
100
AcDbEntity
  8
MAIN0
  6
CONTINUOUS
 62
3
370
    35
100
AcDbLine
 10
1049.162149378242
 20
941.5514280846348
 30
0.0000000000000000
 11
1040.662149378242
 21
936.6439490846348
 31
0.0000000000000000
  0
LINE
  5
322
100
AcDbEntity
  8
MAIN0
  6
CONTINUOUS
 62
3
370
    35
100
AcDbLine
 10
1040.662149378242
 20
936.6439490846326
 30
0.0000000000000000
 11
1040.662149378242
 21
926.8289850846315
 31
0.0000000000000000
  0
LINE
  5
323
100
AcDbEntity
  8
MAIN0
  6
CONTINUOUS
 62
3
370
    35
100
AcDbLine
 10
1040.662149378238
 20
926.8289850846338
 30
0.0000000000000000
 11
1049.162149378239
 21
921.9215140846333
 31
0.0000000000000000
  0
LINE
  5
324
100
AcDbEntity
  8
MAIN0
  6
CONTINUOUS
 62
3
370
    35
100
AcDbLine
 10
1049.162149378241
 20
921.9215140846343
 30
0.0000000000000000
 11
1057.662149378242
 21
926.8290000846346
 31
0.0000000000000000
  0
LINE
  5
325
100
AcDbEntity
  8
MAIN0
  6
CONTINUOUS
 62
3
370
    35
100
AcDbLine
 10
1057.662149378242
 20
926.8290000846330
 30
0.0000000000000000
 11
1057.662149378242
 21
936.6439490846326
 31
0.0000000000000000
  0
LINE
  5
326
100
AcDbEntity
  8
MAIN0
  6
CONTINUOUS
 62
3
370
    35
100
AcDbLine
 10
1057.662149378239
 20
936.6439490846333
 30
0.0000000000000000
 11
1049.162149378238
 21
941.5514280846335
 31
0.0000000000000000
  0
CIRCLE
  5
327
100
AcDbEntity
  8
MAIN0
  6
CONTINUOUS
 62
3
370
    35
100
AcDbCircle
 10
1049.162149378242
 20
931.7364710846316
 30
0.0000000000000000
 40
15.00000000000000
  0
LINE
  5
328
100
AcDbEntity
  8
MAIN0
  6
CONTINUOUS
 62
3
370
    35
100
AcDbLine
 10
1049.162149378242
 20
881.5514280846346
 30
0.0000000000000000
 11
1040.662149378241
 21
876.6439490846344
 31
0.0000000000000000
  0
LINE
  5
329
100
AcDbEntity
  8
MAIN0
  6
CONTINUOUS
 62
3
370
    35
100
AcDbLine
 10
1040.662149378242
 20
876.6439490846349
 30
0.0000000000000000
 11
1040.662149378242
 21
866.8289850846350
 31
0.0000000000000000
  0
LINE
  5
32A
100
AcDbEntity
  8
MAIN0
  6
CONTINUOUS
 62
3
370
    35
100
AcDbLine
 10
1040.662149378241
 20
866.8289850846338
 30
0.0000000000000000
 11
1049.162149378239
 21
861.9215140846352
 31
0.0000000000000000
  0
LINE
  5
32B
100
AcDbEntity
  8
MAIN0
  6
CONTINUOUS
 62
3
370
    35
100
AcDbLine
 10
1049.162149378241
 20
861.9215140846345
 30
0.0000000000000000
 11
1057.662149378242
 21
866.8290000846347
 31
0.0000000000000000
  0
LINE
  5
32C
100
AcDbEntity
  8
MAIN0
  6
CONTINUOUS
 62
3
370
    35
100
AcDbLine
 10
1057.662149378242
 20
866.8290000846349
 30
0.0000000000000000
 11
1057.662149378242
 21
876.6439490846349
 31
0.0000000000000000
  0
LINE
  5
32D
100
AcDbEntity
  8
MAIN0
  6
CONTINUOUS
 62
3
370
    35
100
AcDbLine
 10
1057.662149378240
 20
876.6439490846340
 30
0.0000000000000000
 11
1049.162149378240
 21
881.5514280846340
 31
0.0000000000000000
  0
CIRCLE
  5
32E
100
AcDbEntity
  8
MAIN0
  6
CONTINUOUS
 62
3
370
    35
100
AcDbCircle
 10
1049.162149378242
 20
871.7364710846349
 30
0.0000000000000000
 40
15.00000000000000
  0
LINE
  5
32F
100
AcDbEntity
  8
MAIN0
  6
CENTER
 62
5
370
    18
100
AcDbLine
 10
1198.955134251930
 20
282.7959185854480
 30
0.0000000000000000
 11
1171.408378805755
 21
344.6669443193053
 31
0.0000000000000000
  0
LINE
  5
330
100
AcDbEntity
  8
MAIN0
  6
CENTER
 62
5
370
    18
100
AcDbLine
 10
900.6402889347348
 20
952.8220313694151
 30
0.0000000000000000
 11
927.0027183690083
 21
893.6110454105822
 31
0.0000000000000000
  0
LINE
  5
331
100
AcDbEntity
  8
MAIN0
  6
HIDDEN
 62
5
370
    18
100
AcDbLine
 10
911.6980599328422
 20
908.3171243856604
 30
0.0000000000000000
 11
899.7400026264138
 21
935.1753608403526
 31
0.0000000000000000
  0
LINE
  5
332
100
AcDbEntity
  8
MAIN0
  6
HIDDEN
 62
5
370
    18
100
AcDbLine
 10
926.3147872551239
 20
914.8249106748732
 30
0.0000000000000000
 11
914.3567299486954
 21
941.6831471295656
 31
0.0000000000000000
  0
LINE
  5
333
100
AcDbEntity
  8
MAIN0
  6
HIDDEN
 62
5
370
    18
100
AcDbLine
 10
901.0602847271323
 20
934.6685520257871
 30
0.0000000000000000
 11
898.9478333659831
 21
935.4794461290935
 31
0.0000000000000000
  0
LINE
  5
334
100
AcDbEntity
  8
MAIN0
  6
HIDDEN
 62
5
370
    18
100
AcDbLine
 10
913.8499211341282
 20
940.3628650288483
 30
0.0000000000000000
 11
914.6608152374348
 21
942.4753163899975
 31
0.0000000000000000
  0
LINE
  5
335
100
AcDbEntity
  8
MAIN0
  6
HIDDEN
 62
5
370
    18
100
AcDbLine
 10
915.4587618920155
 20
902.3290428252378
 30
0.0000000000000000
 11
901.0602847271321
 21
934.6685520257861
 31
0.0000000000000000
  0
LINE
  5
336
100
AcDbEntity
  8
MAIN0
  6
HIDDEN
 62
5
370
    18
100
AcDbLine
 10
928.2483982990118
 20
908.0233558282992
 30
0.0000000000000000
 11
913.8499211341284
 21
940.3628650288472
 31
0.0000000000000000
  0
LINE
  5
337
100
AcDbEntity
  8
MAIN0
  6
HIDDEN
 62
5
370
    18
100
AcDbLine
 10
911.6980599328422
 20
908.3171243856604
 30
0.0000000000000000
 11
926.3147872551238
 21
914.8249106748731
 31
0.0000000000000000
  0
LINE
  5
338
100
AcDbEntity
  8
MAIN0
  6
HIDDEN
 62
5
370
    18
100
AcDbLine
 10
915.4587618920155
 20
902.3290428252378
 30
0.0000000000000000
 11
928.2483982990118
 21
908.0233558282992
 31
0.0000000000000000
  0
LINE
  5
339
100
AcDbEntity
  8
MAIN0
  6
HIDDEN
 62
5
370
    18
100
AcDbLine
 10
923.4973866680969
 20
901.4841493155612
 30
0.0000000000000000
 11
915.4587618920170
 21
902.3290428252387
 31
0.0000000000000000
  0
LINE
  5
33A
100
AcDbEntity
  8
MAIN0
  6
HIDDEN
 62
5
370
    18
100
AcDbLine
 10
923.4973866680975
 20
901.4841493155587
 30
0.0000000000000000
 11
928.2483982990129
 21
908.0233558282990
 31
0.0000000000000000
  0
LINE
  5
33B
100
AcDbEntity
  8
MAIN0
  6
HIDDEN
 62
5
370
    18
100
AcDbLine
 10
901.0602847271327
 20
934.6685520257864
 30
0.0000000000000000
 11
913.8499211341291
 21
940.3628650288474
 31
0.0000000000000000
  0
LINE
  5
33C
100
AcDbEntity
  8
MAIN0
  6
CENTER
 62
5
370
    18
100
AcDbLine
 10
458.6285201444117
 20
259.8740893316474
 30
0.0000000000000000
 11
458.6285201444117
 21
316.1135142792239
 31
0.0000000000000000
  0
LINE
  5
33D
100
AcDbEntity
  8
MAIN0
  6
HIDDEN
 62
5
370
    18
100
AcDbLine
 10
466.6285201444111
 20
299.2364710846388
 30
0.0000000000000000
 11
466.6285201444111
 21
269.8364710846374
 31
0.0000000000000000
  0
LINE
  5
33E
100
AcDbEntity
  8
MAIN0
  6
HIDDEN
 62
5
370
    18
100
AcDbLine
 10
450.6285201444111
 20
299.2364710846388
 30
0.0000000000000000
 11
450.6285201444111
 21
269.8364710846373
 31
0.0000000000000000
  0
LINE
  5
33F
100
AcDbEntity
  8
MAIN0
  6
HIDDEN
 62
5
370
    18
100
AcDbLine
 10
465.6285201444132
 20
270.8364710846372
 30
0.0000000000000000
 11
467.2285201444136
 21
269.2364710846374
 31
0.0000000000000000
  0
LINE
  5
340
100
AcDbEntity
  8
MAIN0
  6
HIDDEN
 62
5
370
    18
100
AcDbLine
 10
451.6285201444136
 20
270.8364710846377
 30
0.0000000000000000
 11
450.0285201444140
 21
269.2364710846379
 31
0.0000000000000000
  0
LINE
  5
341
100
AcDbEntity
  8
MAIN0
  6
HIDDEN
 62
5
370
    18
100
AcDbLine
 10
465.6285201444113
 20
306.2364710846390
 30
0.0000000000000000
 11
465.6285201444112
 21
270.8364710846375
 31
0.0000000000000000
  0
LINE
  5
342
100
AcDbEntity
  8
MAIN0
  6
HIDDEN
 62
5
370
    18
100
AcDbLine
 10
451.6285201444113
 20
306.2364710846387
 30
0.0000000000000000
 11
451.6285201444114
 21
270.8364710846373
 31
0.0000000000000000
  0
LINE
  5
343
100
AcDbEntity
  8
MAIN0
  6
HIDDEN
 62
5
370
    18
100
AcDbLine
 10
466.6285201444111
 20
299.2364710846389
 30
0.0000000000000000
 11
450.6285201444111
 21
299.2364710846389
 31
0.0000000000000000
  0
LINE
  5
344
100
AcDbEntity
  8
MAIN0
  6
HIDDEN
 62
5
370
    18
100
AcDbLine
 10
465.6285201444114
 20
306.2364710846384
 30
0.0000000000000000
 11
451.6285201444113
 21
306.2364710846383
 31
0.0000000000000000
  0
LINE
  5
345
100
AcDbEntity
  8
MAIN0
  6
HIDDEN
 62
5
370
    18
100
AcDbLine
 10
458.6285201444125
 20
310.2779229689646
 30
0.0000000000000000
 11
465.6285201444124
 21
306.2364710846373
 31
0.0000000000000000
  0
LINE
  5
346
100
AcDbEntity
  8
MAIN0
  6
HIDDEN
 62
5
370
    18
100
AcDbLine
 10
458.6285201444113
 20
310.2779229689628
 30
0.0000000000000000
 11
451.6285201444113
 21
306.2364710846354
 31
0.0000000000000000
  0
LINE
  5
347
100
AcDbEntity
  8
MAIN0
  6
HIDDEN
 62
5
370
    18
100
AcDbLine
 10
465.6285201444113
 20
270.8364710846382
 30
0.0000000000000000
 11
451.6285201444114
 21
270.8364710846383
 31
0.0000000000000000
  0
CIRCLE
  5
348
100
AcDbEntity
  8
MAIN0
  6
CONTINUOUS
 62
5
370
    18
100
AcDbCircle
 10
830.4907349226683
 20
492.9864710846351
 30
0.0000000000000000
 40
9.999999999999998
  0
CIRCLE
  5
349
100
AcDbEntity
  8
MAIN0
  6
CONTINUOUS
 62
3
370
    35
100
AcDbCircle
 10
830.4907349226683
 20
492.9864710846351
 30
0.0000000000000000
 40
8.749999999999996
  0
CIRCLE
  5
34A
100
AcDbEntity
  8
MAIN0
  6
CONTINUOUS
 62
5
370
    18
100
AcDbCircle
 10
778.5292106956017
 20
462.9864710846351
 30
0.0000000000000000
 40
9.999999999999998
  0
CIRCLE
  5
34B
100
AcDbEntity
  8
MAIN0
  6
CONTINUOUS
 62
3
370
    35
100
AcDbCircle
 10
778.5292106956017
 20
462.9864710846351
 30
0.0000000000000000
 40
8.749999999999996
  0
LINE
  5
34C
100
AcDbEntity
  8
MAIN0
  6
CENTER
 62
5
370
    18
100
AcDbLine
 10
1117.714737600713
 20
550.6838828621612
 30
0.0000000000000000
 11
1146.779654734604
 21
521.6189657282698
 31
0.0000000000000000
  0
LINE
  5
34D
100
AcDbEntity
  8
MAIN0
  6
CONTINUOUS
 62
3
370
    35
100
AcDbLine
 10
528.2285201444119
 20
501.2364710846354
 30
0.0000000000000000
 11
522.1285201444118
 21
501.2364710846354
 31
0.0000000000000000
  0
LINE
  5
34E
100
AcDbEntity
  8
MAIN0
  6
CONTINUOUS
 62
3
370
    35
100
AcDbLine
 10
528.2285201444119
 20
512.2364710846354
 30
0.0000000000000000
 11
522.1285201444118
 21
512.2364710846354
 31
0.0000000000000000
  0
LINE
  5
34F
100
AcDbEntity
  8
MAIN0
  6
CONTINUOUS
 62
3
370
    35
100
AcDbLine
 10
517.0285201444118
 20
503.4364710846353
 30
0.0000000000000000
 11
522.1285201444118
 21
503.4364710846353
 31
0.0000000000000000
  0
LINE
  5
350
100
AcDbEntity
  8
MAIN0
  6
CONTINUOUS
 62
3
370
    35
100
AcDbLine
 10
517.0285201444118
 20
510.0364710846354
 30
0.0000000000000000
 11
522.1285201444118
 21
510.0364710846354
 31
0.0000000000000000
  0
LINE
  5
351
100
AcDbEntity
  8
MAIN0
  6
CONTINUOUS
 62
3
370
    35
100
AcDbLine
 10
522.1285201444118
 20
501.2364710846353
 30
0.0000000000000000
 11
522.1285201444118
 21
512.2364710846354
 31
0.0000000000000000
  0
LINE
  5
352
100
AcDbEntity
  8
MAIN0
  6
CONTINUOUS
 62
3
370
    35
100
AcDbLine
 10
528.6285201444118
 20
500.8364710846354
 30
0.0000000000000000
 11
528.2285201444119
 21
501.2364710846354
 31
0.0000000000000000
  0
LINE
  5
353
100
AcDbEntity
  8
MAIN0
  6
CONTINUOUS
 62
3
370
    35
100
AcDbLine
 10
528.6285201444118
 20
512.6364710846353
 30
0.0000000000000000
 11
528.2285201444119
 21
512.2364710846354
 31
0.0000000000000000
  0
LINE
  5
354
100
AcDbEntity
  8
MAIN0
  6
CONTINUOUS
 62
3
370
    35
100
AcDbLine
 10
516.6285201444118
 20
503.0364710846354
 30
0.0000000000000000
 11
517.0285201444118
 21
503.4364710846353
 31
0.0000000000000000
  0
LINE
  5
355
100
AcDbEntity
  8
MAIN0
  6
CONTINUOUS
 62
3
370
    35
100
AcDbLine
 10
516.6285201444118
 20
510.4364710846355
 30
0.0000000000000000
 11
517.0285201444118
 21
510.0364710846354
 31
0.0000000000000000
  0
LINE
  5
356
100
AcDbEntity
  8
MAIN0
  6
CONTINUOUS
 62
3
370
    35
100
AcDbLine
 10
506.1285181444119
 20
503.7364700846353
 30
0.0000000000000000
 11
506.1285181444119
 21
509.7364700846353
 31
0.0000000000000000
  0
LINE
  5
357
100
AcDbEntity
  8
MAIN0
  6
CONTINUOUS
 62
5
370
    18
100
AcDbLine
 10
522.1285201444118
 20
504.2364700846353
 30
0.0000000000000000
 11
506.1285181444119
 21
504.2364700846353
 31
0.0000000000000000
  0
LINE
  5
358
100
AcDbEntity
  8
MAIN0
  6
CONTINUOUS
 62
5
370
    18
100
AcDbLine
 10
522.1285201444118
 20
509.2364700846353
 30
0.0000000000000000
 11
506.1285181444119
 21
509.2364700846353
 31
0.0000000000000000
  0
LINE
  5
359
100
AcDbEntity
  8
MAIN0
  6
CONTINUOUS
 62
3
370
    35
100
AcDbLine
 10
506.1285181444119
 20
509.7364700846352
 30
0.0000000000000000
 11
522.1285201444118
 21
509.7364730846352
 31
0.0000000000000000
  0
LINE
  5
35A
100
AcDbEntity
  8
MAIN0
  6
CONTINUOUS
 62
3
370
    35
100
AcDbLine
 10
522.1285201444118
 20
503.7364700846353
 30
0.0000000000000000
 11
506.1285181444119
 21
503.7364700846353
 31
0.0000000000000000
  0
LINE
  5
35B
100
AcDbEntity
  8
MAIN0
  6
CONTINUOUS
 62
3
370
    35
100
AcDbLine
 10
522.1285221444118
 20
511.7364710846352
 30
0.0000000000000000
 11
527.7285361444118
 21
511.7364680846353
 31
0.0000000000000000
  0
LINE
  5
35C
100
AcDbEntity
  8
MAIN0
  6
CONTINUOUS
 62
3
370
    35
100
AcDbLine
 10
527.7285301444118
 20
501.7364680846353
 30
0.0000000000000000
 11
522.1285181444118
 21
501.7364710846353
 31
0.0000000000000000
  0
LINE
  5
35D
100
AcDbEntity
  8
MAIN0
  6
CONTINUOUS
 62
3
370
    35
100
AcDbLine
 10
527.7285211444118
 20
511.7364680846353
 30
0.0000000000000000
 11
527.7285151444119
 21
501.7364680846353
 31
0.0000000000000000
  0
LINE
  5
35E
100
AcDbEntity
  8
MAIN0
  6
CONTINUOUS
 62
3
370
    35
100
AcDbLine
 10
528.1285371444119
 20
511.0437950846353
 30
0.0000000000000000
 11
527.7285211444118
 21
511.7364680846353
 31
0.0000000000000000
  0
LINE
  5
35F
100
AcDbEntity
  8
MAIN0
  6
CONTINUOUS
 62
3
370
    35
100
AcDbLine
 10
528.1285321444118
 20
502.4291710846354
 30
0.0000000000000000
 11
527.7285151444117
 21
501.7364680846354
 31
0.0000000000000000
  0
LINE
  5
360
100
AcDbEntity
  8
MAIN0
  6
CONTINUOUS
 62
3
370
    35
100
AcDbLine
 10
528.1285201444118
 20
502.4291503044285
 30
0.0000000000000000
 11
528.1285201444118
 21
511.0438245220603
 31
0.0000000000000000
  0
LINE
  5
361
100
AcDbEntity
  8
MAIN0
  6
HIDDEN
 62
5
370
    18
100
AcDbLine
 10
1186.626238823641
 20
330.1558177836098
 30
0.0000000000000000
 11
1198.584296130069
 21
303.2975813289176
 31
0.0000000000000000
  0
LINE
  5
362
100
AcDbEntity
  8
MAIN0
  6
HIDDEN
 62
5
370
    18
100
AcDbLine
 10
1172.009511501359
 20
323.6480314943971
 30
0.0000000000000000
 11
1183.967568807788
 21
296.7897950397047
 31
0.0000000000000000
  0
LINE
  5
363
100
AcDbEntity
  8
MAIN0
  6
HIDDEN
 62
5
370
    18
100
AcDbLine
 10
1197.264014029351
 20
303.8043901434831
 30
0.0000000000000000
 11
1199.376465390500
 21
302.9934960401767
 31
0.0000000000000000
  0
LINE
  5
364
100
AcDbEntity
  8
MAIN0
  6
HIDDEN
 62
5
370
    18
100
AcDbLine
 10
1184.474377622355
 20
298.1100771404219
 30
0.0000000000000000
 11
1183.663483519048
 21
295.9976257792728
 31
0.0000000000000000
  0
LINE
  5
365
100
AcDbEntity
  8
MAIN0
  6
HIDDEN
 62
5
370
    18
100
AcDbLine
 10
1182.865536864467
 20
336.1438993440323
 30
0.0000000000000000
 11
1197.264014029351
 21
303.8043901434839
 31
0.0000000000000000
  0
LINE
  5
366
100
AcDbEntity
  8
MAIN0
  6
HIDDEN
 62
5
370
    18
100
AcDbLine
 10
1170.075900457471
 20
330.4495863409711
 30
0.0000000000000000
 11
1184.474377622355
 21
298.1100771404231
 31
0.0000000000000000
  0
LINE
  5
367
100
AcDbEntity
  8
MAIN0
  6
HIDDEN
 62
5
370
    18
100
AcDbLine
 10
1186.626238823641
 20
330.1558177836099
 30
0.0000000000000000
 11
1172.009511501359
 21
323.6480314943971
 31
0.0000000000000000
  0
LINE
  5
368
100
AcDbEntity
  8
MAIN0
  6
HIDDEN
 62
5
370
    18
100
AcDbLine
 10
1182.865536864468
 20
336.1438993440324
 30
0.0000000000000000
 11
1170.075900457471
 21
330.4495863409711
 31
0.0000000000000000
  0
LINE
  5
369
100
AcDbEntity
  8
MAIN0
  6
HIDDEN
 62
5
370
    18
100
AcDbLine
 10
1174.826912088387
 20
336.9887928537090
 30
0.0000000000000000
 11
1182.865536864466
 21
336.1438993440315
 31
0.0000000000000000
  0
LINE
  5
36A
100
AcDbEntity
  8
MAIN0
  6
HIDDEN
 62
5
370
    18
100
AcDbLine
 10
1174.826912088386
 20
336.9887928537114
 30
0.0000000000000000
 11
1170.075900457470
 21
330.4495863409712
 31
0.0000000000000000
  0
LINE
  5
36B
100
AcDbEntity
  8
MAIN0
  6
HIDDEN
 62
5
370
    18
100
AcDbLine
 10
1197.264014029350
 20
303.8043901434838
 30
0.0000000000000000
 11
1184.474377622354
 21
298.1100771404228
 31
0.0000000000000000
  0
CIRCLE
  5
36C
100
AcDbEntity
  8
MAIN0
  6
CONTINUOUS
 62
3
370
    35
100
AcDbCircle
 10
1180.412149378109
 20
846.5681395781268
 30
0.0000000000000000
 40
4.000000000000000
  0
LINE
  5
36D
100
AcDbEntity
  8
MAIN0
  6
CONTINUOUS
 62
3
370
    35
100
AcDbLine
 10
1179.842747478883
 20
848.6931763959627
 30
0.0000000000000000
 11
1180.981551277335
 21
844.4431027602909
 31
0.0000000000000000
  0
LINE
  5
36E
100
AcDbEntity
  8
MAIN0
  6
CONTINUOUS
 62
3
370
    35
100
AcDbLine
 10
1182.537186195945
 20
847.1375414773524
 30
0.0000000000000000
 11
1178.287112560273
 21
845.9987376789013
 31
0.0000000000000000
  0
LINE
  5
36F
100
AcDbEntity
  8
MAIN0
  6
CONTINUOUS
 62
3
370
    35
100
AcDbLine
 10
424.1285201444121
 20
727.7364710846351
 30
0.0000000000000000
 11
419.1285201444121
 21
727.7364710846351
 31
0.0000000000000000
  0
LINE
  5
370
100
AcDbEntity
  8
MAIN0
  6
HIDDEN
 62
5
370
    18
100
AcDbLine
 10
385.6285201444119
 20
800.9364710846353
 30
0.0000000000000000
 11
387.2285201444119
 21
799.3364710846353
 31
0.0000000000000000
  0
LINE
  5
371
100
AcDbEntity
  8
MAIN0
  6
HIDDEN
 62
5
370
    18
100
AcDbLine
 10
387.2285201444120
 20
799.3364710846353
 30
0.0000000000000000
 11
387.2285201444120
 21
789.1364710846352
 31
0.0000000000000000
  0
LINE
  5
372
100
AcDbEntity
  8
MAIN0
  6
HIDDEN
 62
5
370
    18
100
AcDbLine
 10
387.2285201444120
 20
789.1364710846352
 30
0.0000000000000000
 11
385.6285201444119
 21
787.5364710846352
 31
0.0000000000000000
  0
LINE
  5
373
100
AcDbEntity
  8
MAIN0
  6
HIDDEN
 62
5
370
    18
100
AcDbLine
 10
386.3285201444119
 20
800.2364710846352
 30
0.0000000000000000
 11
415.6285201444119
 21
800.2364710846352
 31
0.0000000000000000
  0
LINE
  5
374
100
AcDbEntity
  8
MAIN0
  6
HIDDEN
 62
5
370
    18
100
AcDbLine
 10
415.6285201444119
 20
800.2364710846352
 30
0.0000000000000000
 11
415.6285201444119
 21
788.2364710846352
 31
0.0000000000000000
  0
LINE
  5
375
100
AcDbEntity
  8
MAIN0
  6
HIDDEN
 62
5
370
    18
100
AcDbLine
 10
415.6285201444119
 20
788.2364710846352
 30
0.0000000000000000
 11
386.3285201444119
 21
788.2364710846352
 31
0.0000000000000000
  0
LINE
  5
376
100
AcDbEntity
  8
MAIN0
  6
HIDDEN
 62
5
370
    18
100
AcDbLine
 10
387.2285201444120
 20
799.3364710846353
 30
0.0000000000000000
 11
425.6285201444119
 21
799.3364710846353
 31
0.0000000000000000
  0
LINE
  5
377
100
AcDbEntity
  8
MAIN0
  6
HIDDEN
 62
5
370
    18
100
AcDbLine
 10
425.6285201444119
 20
799.3364710846353
 30
0.0000000000000000
 11
425.6285201444119
 21
789.1364710846352
 31
0.0000000000000000
  0
LINE
  5
378
100
AcDbEntity
  8
MAIN0
  6
HIDDEN
 62
5
370
    18
100
AcDbLine
 10
425.6285201444119
 20
789.1364710846352
 30
0.0000000000000000
 11
387.2285201444120
 21
789.1364710846352
 31
0.0000000000000000
  0
LINE
  5
379
100
AcDbEntity
  8
MAIN0
  6
HIDDEN
 62
5
370
    18
100
AcDbLine
 10
425.6285201444119
 20
799.3364710846353
 30
0.0000000000000000
 11
428.5730065172789
 21
794.2364710846352
 31
0.0000000000000000
  0
LINE
  5
37A
100
AcDbEntity
  8
MAIN0
  6
HIDDEN
 62
5
370
    18
100
AcDbLine
 10
428.5730065172789
 20
794.2364710846352
 30
0.0000000000000000
 11
425.6285201444119
 21
789.1364710846353
 31
0.0000000000000000
  0
CIRCLE
  5
37B
100
AcDbEntity
  8
MAIN0
  6
HIDDEN
 62
5
370
    18
100
AcDbCircle
 10
1094.455482269543
 20
450.1994514836113
 30
0.0000000000000000
 40
6.000000000000000
  0
CIRCLE
  5
37C
100
AcDbEntity
  8
MAIN0
  6
HIDDEN
 62
7
370
    25
100
AcDbCircle
 10
1094.455482269543
 20
450.1994514836113
 30
0.0000000000000000
 40
5.100000000000001
  0
MTEXT
  5
37D
100
AcDbEntity
  8
MAIN0
  6
CONTINUOUS
 62
7
370
    25
100
AcDbMText
 10
1207.888502384607
 20
192.2070627004707
 30
0.0000000000000000
 40
5.039999914169311
 41
0.0000000000000000
 44
0.7500000127724241
 71
     1
 72
     1
  1
{\H0.67x;{BALANCE SHOULD BE WITHIN 12g AT THE PERIPHERY OF BODY.}}
 11
1.000000000000000
 21
0.0000000000000000
 31
0.0000000000000000
  7
STANDARD
  0
MTEXT
  5
37E
100
AcDbEntity
  8
MAIN0
  6
CONTINUOUS
 62
7
370
    25
100
AcDbMText
 10
902.5099305914147
 20
192.9570625812614
 30
0.0000000000000000
 40
5.579999828338623
 41
0.0000000000000000
 44
0.6677419652551825
 71
     1
 72
     1
  1
{\H0.94x;{バランスは本体外周にて12g以内を目標とする}}
 11
1.000000000000000
 21
0.0000000000000000
 31
0.0000000000000000
  7
STANDARD
  0
INSERT
  5
388
100
AcDbEntity
  8
MAIN0
  6
CONTINUOUS
 62
5
100
AcDbBlockReference
  2
M0
 10
0.0000000000000000
 20
0.0000000000000000
 30
0.0000000000000000
 50
0.0000000000000000
  0
LINE
  5
389
100
AcDbEntity
  8
MAIN0
  6
CONTINUOUS
 62
3
370
    35
100
AcDbLine
 10
379.6285201444122
 20
357.7364710852365
 30
0.0000000000000000
 11
380.6285201444118
 21
356.7364710852350
 31
0.0000000000000000
  0
LINE
  5
38A
100
AcDbEntity
  8
MAIN0
  6
CONTINUOUS
 62
3
370
    35
100
AcDbLine
 10
380.6285201444118
 20
356.7364710846352
 30
0.0000000000000000
 11
380.6285201444118
 21
291.7364710846352
 31
0.0000000000000000
  0
LINE
  5
38B
100
AcDbEntity
  8
MAIN0
  6
CONTINUOUS
 62
3
370
    35
100
AcDbLine
 10
379.6285201444118
 20
290.7364710853793
 30
0.0000000000000000
 11
380.6285201444114
 21
291.7364710853814
 31
0.0000000000000000
  0
CIRCLE
  5
38C
100
AcDbEntity
  8
MAIN0
  6
CENTER
 62
5
370
    18
100
AcDbCircle
 10
421.6285201444121
 20
728.8911716230143
 30
0.0000000000000000
 40
2.250000000000000
  0
LINE
  5
38D
100
AcDbEntity
  8
MAIN0
  6
CENTER
 62
5
370
    18
100
AcDbLine
 10
419.4285201444119
 20
729.3864856807027
 30
0.0000000000000000
 11
423.8285201444120
 21
730.9879547114726
 31
0.0000000000000000
  0
LINE
  5
38E
100
AcDbEntity
  8
MAIN0
  6
CENTER
 62
5
370
    18
100
AcDbLine
 10
419.4285201444123
 20
732.5894237424056
 30
0.0000000000000000
 11
423.8285201444121
 21
730.9879547116361
 31
0.0000000000000000
  0
LINE
  5
38F
100
AcDbEntity
  8
MAIN0
  6
CENTER
 62
5
370
    18
100
AcDbLine
 10
424.1285201444121
 20
758.4364710846351
 30
0.0000000000000000
 11
424.1285201444121
 21
727.7364710846351
 31
0.0000000000000000
  0
LINE
  5
390
100
AcDbEntity
  8
MAIN0
  6
CENTER
 62
5
370
    18
100
AcDbLine
 10
421.6285201444121
 20
760.5911097006008
 30
0.0000000000000000
 11
421.6285201444121
 21
724.6521269646654
 31
0.0000000000000000
  0
LINE
  5
391
100
AcDbEntity
  8
MAIN0
  6
CENTER
 62
5
370
    18
100
AcDbLine
 10
419.4285201444123
 20
732.5894237424056
 30
0.0000000000000000
 11
423.8285201444124
 21
734.1908927731756
 31
0.0000000000000000
  0
LINE
  5
392
100
AcDbEntity
  8
MAIN0
  6
CENTER
 62
5
370
    18
100
AcDbLine
 10
419.1285201444121
 20
727.7364710846351
 30
0.0000000000000000
 11
419.1285201444121
 21
758.4364710846351
 31
0.0000000000000000
  0
LINE
  5
393
100
AcDbEntity
  8
MAIN0
  6
CENTER
 62
5
370
    18
100
AcDbLine
 10
419.4285201444127
 20
735.7923618041086
 30
0.0000000000000000
 11
423.8285201444126
 21
734.1908927733391
 31
0.0000000000000000
  0
LINE
  5
394
100
AcDbEntity
  8
MAIN0
  6
CENTER
 62
5
370
    18
100
AcDbLine
 10
419.4285201444127
 20
735.7923618041086
 30
0.0000000000000000
 11
423.8285201444129
 21
737.3938308348786
 31
0.0000000000000000
  0
LINE
  5
395
100
AcDbEntity
  8
MAIN0
  6
CENTER
 62
5
370
    18
100
AcDbLine
 10
419.4285201444131
 20
738.9952998658116
 30
0.0000000000000000
 11
423.8285201444133
 21
740.5967688965816
 31
0.0000000000000000
  0
LINE
  5
396
100
AcDbEntity
  8
MAIN0
  6
CENTER
 62
5
370
    18
100
AcDbLine
 10
419.4285201444131
 20
738.9952998658116
 30
0.0000000000000000
 11
423.8285201444130
 21
737.3938308350421
 31
0.0000000000000000
  0
LINE
  5
397
100
AcDbEntity
  8
MAIN0
  6
CENTER
 62
5
370
    18
100
AcDbLine
 10
419.4285201444136
 20
742.1982379275146
 30
0.0000000000000000
 11
423.8285201444134
 21
740.5967688967451
 31
0.0000000000000000
  0
LINE
  5
398
100
AcDbEntity
  8
MAIN0
  6
CONTINUOUS
 62
7
370
    25
100
AcDbLine
 10
419.4285201444136
 20
742.1982379275146
 30
0.0000000000000000
 11
420.9073035900054
 21
742.7364710846351
 31
0.0000000000000000
  0
LINE
  5
399
100
AcDbEntity
  8
MAIN0
  6
CENTER
 62
5
370
    18
100
AcDbLine
 10
424.6285201444121
 20
742.7364710846351
 30
0.0000000000000000
 11
418.6285201444121
 21
742.7364710846351
 31
0.0000000000000000
  0
LINE
  5
39A
100
AcDbEntity
  8
MAIN0
  6
CENTER
 62
5
370
    18
100
AcDbLine
 10
418.6285201444121
 20
743.7364710846351
 30
0.0000000000000000
 11
419.6285201444121
 21
742.7364710846351
 31
0.0000000000000000
  0
LINE
  5
39B
100
AcDbEntity
  8
MAIN0
  6
CENTER
 62
5
370
    18
100
AcDbLine
 10
424.6285201444121
 20
743.7364710846351
 30
0.0000000000000000
 11
418.6285201444121
 21
743.7364710846351
 31
0.0000000000000000
  0
LINE
  5
39C
100
AcDbEntity
  8
MAIN0
  6
CENTER
 62
5
370
    18
100
AcDbLine
 10
419.1697861444121
 20
743.1952050846351
 30
0.0000000000000000
 11
419.1697861444121
 21
752.5489711554383
 31
0.0000000000000000
  0
LINE
  5
39D
100
AcDbEntity
  8
MAIN0
  6
CENTER
 62
5
370
    18
100
AcDbLine
 10
418.6285201444121
 20
742.7364710846351
 30
0.0000000000000000
 11
418.6285201444121
 21
758.9364710846351
 31
0.0000000000000000
  0
LINE
  5
39E
100
AcDbEntity
  8
MAIN0
  6
CENTER
 62
5
370
    18
100
AcDbLine
 10
424.0872541444120
 20
743.1952050846351
 30
0.0000000000000000
 11
424.0872541444120
 21
752.5489711554383
 31
0.0000000000000000
  0
LINE
  5
39F
100
AcDbEntity
  8
MAIN0
  6
CENTER
 62
5
370
    18
100
AcDbLine
 10
424.6285201444121
 20
758.9364710846351
 30
0.0000000000000000
 11
424.6285201444121
 21
742.7364710846351
 31
0.0000000000000000
  0
LINE
  5
3A0
100
AcDbEntity
  8
MAIN0
  6
CENTER
 62
5
370
    18
100
AcDbLine
 10
423.6285201444121
 20
742.7364710846351
 30
0.0000000000000000
 11
424.6285201444121
 21
743.7364710846351
 31
0.0000000000000000
  0
LINE
  5
3A1
100
AcDbEntity
  8
MAIN0
  6
CENTER
 62
5
370
    18
100
AcDbLine
 10
424.6285201444121
 20
752.2364710846351
 30
0.0000000000000000
 11
418.6285201444121
 21
752.2364710846351
 31
0.0000000000000000
  0
LINE
  5
3A2
100
AcDbEntity
  8
MAIN0
  6
CENTER
 62
5
370
    18
100
AcDbLine
 10
423.7624947406276
 20
752.7364710846351
 30
0.0000000000000000
 11
419.4945455481965
 21
752.7364710846351
 31
0.0000000000000000
  0
LINE
  5
3A3
100
AcDbEntity
  8
MAIN0
  6
CENTER
 62
5
370
    18
100
AcDbLine
 10
424.6285201444121
 20
752.2364710846351
 30
0.0000000000000000
 11
423.7624947406276
 21
752.7364710846351
 31
0.0000000000000000
  0
LINE
  5
3A4
100
AcDbEntity
  8
MAIN0
  6
CENTER
 62
5
370
    18
100
AcDbLine
 10
419.4945455481965
 20
752.7364710846351
 30
0.0000000000000000
 11
418.6285201444121
 21
752.2364710846351
 31
0.0000000000000000
  0
LINE
  5
3A5
100
AcDbEntity
  8
MAIN0
  6
CENTER
 62
5
370
    18
100
AcDbLine
 10
424.1285201444121
 20
758.4364710846351
 30
0.0000000000000000
 11
419.1285201444121
 21
758.4364710846351
 31
0.0000000000000000
  0
LINE
  5
3A6
100
AcDbEntity
  8
MAIN0
  6
CENTER
 62
5
370
    18
100
AcDbLine
 10
419.1285201444121
 20
758.4364710846351
 30
0.0000000000000000
 11
418.3285201444120
 21
759.2364710846351
 31
0.0000000000000000
  0
LINE
  5
3A7
100
AcDbEntity
  8
MAIN0
  6
CENTER
 62
5
370
    18
100
AcDbLine
 10
424.9285201444121
 20
759.2364710846351
 30
0.0000000000000000
 11
424.1285201444121
 21
758.4364710846351
 31
0.0000000000000000
  0
LINE
  5
3A8
100
AcDbEntity
  8
MAIN0
  6
CENTER
 62
5
370
    18
100
AcDbLine
 10
408.6285201444121
 20
759.2364710846351
 30
0.0000000000000000
 11
429.6285201444117
 21
759.2364710846351
 31
0.0000000000000000
  0
MTEXT
  5
3A9
100
AcDbEntity
  8
MAIN0
  6
CONTINUOUS
 62
7
370
    25
100
AcDbMText
 10
75.46695866208563
 20
496.7444562875396
 30
0.0000000000000000
 40
6.735471010208129
 41
0.0000000000000000
 44
0.8000000764585179
 71
     1
 72
     1
  1
{\H0.43x;{IN CASE YOU USE CYLINDER WITH LONGER STROKE \PTHAN PLUNGER STROKE, PROVIDE BACK PLATE \PWHICH HAS STOPPER FACE RESTRICTS CYLINDER \PSTOROKE. }}
 11
1.000000000000000
 21
0.0000000000000000
 31
0.0000000000000000
  7
STANDARD
  0
LINE
  5
3AA
100
AcDbEntity
  8
MAIN0
  6
PHANTOM
 62
5
370
    18
100
AcDbLine
 10
352.6285201444118
 20
429.2364710846352
 30
0.0000000000000000
 11
385.6285201444119
 21
429.2364710846352
 31
0.0000000000000000
  0
LINE
  5
3AB
100
AcDbEntity
  8
MAIN0
  6
PHANTOM
 62
5
370
    18
100
AcDbLine
 10
352.6285201444118
 20
477.2364710846352
 30
0.0000000000000000
 11
385.6285201444119
 21
477.2364710846352
 31
0.0000000000000000
  0
LEADER
  5
3AC
100
AcDbEntity
  8
MAIN0
  6
CONTINUOUS
 62
5
370
    18
100
AcDbLeader
  3
MAIN001
 73
     0
 75
     1
 40
5.579999828338623
 41
164.3490037491322
 76
     3
 10
397.7158356732908
 20
456.6870788165171
 30
0.0000000000000000
 10
242.3482828677524
 20
412.6308455944379
 30
0.0000000000000000
 10
237.5322830072273
 20
412.6308455944379
 30
0.0000000000000000
340
3AD
213
0.0000000000000000
223
-1.250000000000000
233
0.0000000000000000
1001
ACAD
1000
DSTYLE
1002
{
1070
   147
1040
0.0
1070
    77
1070
     1
1070
   341
1005
1
1070
    41
1040
2.000000
1002
}
  0
MTEXT
  5
3AD
102
{ACAD_REACTORS
330
3AC
102
}
100
AcDbEntity
  8
MAIN0
  6
CONTINUOUS
 62
7
370
    25
100
AcDbMText
 10
73.18327925809507
 20
421.6308453560193
 30
0.0000000000000000
 40
5.579999828338623
 41
0.0000000000000000
 44
0.7935483930510365
 71
     1
 72
     1
  1
{\H0.94x;{プランジャストロークより長い\Pストロークのシリンダと組合わせる場合、\Pバックプレートで引側ストロークを\P規制してください}}
 11
1.000000000000000
 21
0.0000000000000000
 31
0.0000000000000000
  7
STANDARD
  0
INSERT
  5
3B5
100
AcDbEntity
  8
MAIN0
  6
CONTINUOUS
 62
1
100
AcDbBlockReference
  2
M1
 10
0.0000000000000000
 20
0.0000000000000000
 30
0.0000000000000000
 50
0.0000000000000000
  0
INSERT
  5
3BD
100
AcDbEntity
  8
MAIN0
  6
CONTINUOUS
 62
1
100
AcDbBlockReference
  2
M2
 10
0.0000000000000000
 20
0.0000000000000000
 30
0.0000000000000000
 50
0.0000000000000000
  0
LEADER
  5
3BE
100
AcDbEntity
  8
MAIN0
  6
CONTINUOUS
 62
5
370
    18
100
AcDbLeader
  3
MAIN001
 73
     3
 74
     0
 75
     0
 76
     2
 10
385.6285201444119
 20
469.1678112455026
 30
0.0000000000000000
 10
397.7158356732908
 20
456.6870788165171
 30
0.0000000000000000
1001
ACAD
1000
DSTYLE
1002
{
1070
   341
1005
13
1070
    41
1040
2.000000
1002
}
  0
LEADER
  5
3BF
100
AcDbEntity
  8
MAIN0
  6
CONTINUOUS
 62
5
370
    18
100
AcDbLeader
  3
MAIN001
 73
     0
 75
     1
 40
5.579999828338623
 41
68.79900203847876
 76
     3
 10
366.9521320824786
 20
469.1502891575540
 30
0.0000000000000000
 10
343.1270638547272
 20
476.6869776797502
 30
0.0000000000000000
 10
338.3110639942021
 20
476.6869776797502
 30
0.0000000000000000
340
3C0
213
0.0000000000000000
223
-1.250000000000000
233
0.0000000000000000
1001
ACAD
1000
DSTYLE
1002
{
1070
   147
1040
0.0
1070
    77
1070
     1
1070
   341
1005
B
1070
    41
1040
1.000000
1002
}
  0
MTEXT
  5
3C0
102
{ACAD_REACTORS
330
3BF
102
}
100
AcDbEntity
  8
MAIN0
  6
CONTINUOUS
 62
7
370
    25
100
AcDbMText
 10
269.5120619557233
 20
485.6869774413316
 30
0.0000000000000000
 40
5.579999828338623
 41
0.0000000000000000
 44
0.7935483930510365
 71
     1
 72
     1
  1
{\H0.93x;{BACK PLATE\Pバックプレート}}
 11
1.000000000000000
 21
0.0000000000000000
 31
0.0000000000000000
  7
STANDARD
  0
LINE
  5
3C1
100
AcDbEntity
  8
MAIN0
  6
PHANTOM
 62
5
370
    18
100
AcDbLine
 10
352.6285201444118
 20
429.2364710846352
 30
0.0000000000000000
 11
352.6285201444119
 21
477.2364710846352
 31
0.0000000000000000
  0
LINE
  5
3C2
100
AcDbEntity
  8
MAIN0
  6
PHANTOM
 62
5
370
    18
100
AcDbLine
 10
352.6285201444119
 20
477.2364710846352
 30
0.0000000000000000
 11
352.6285201444118
 21
482.4896839425567
 31
0.0000000000000000
  0
LINE
  5
3C3
100
AcDbEntity
  8
MAIN0
  6
CONTINUOUS
 62
3
370
    35
100
AcDbLine
 10
379.6285201444118
 20
947.7364710838912
 30
0.0000000000000000
 11
380.6285201444114
 21
946.7364710838890
 31
0.0000000000000000
  0
LINE
  5
3C4
100
AcDbEntity
  8
MAIN0
  6
CONTINUOUS
 62
3
370
    35
100
AcDbLine
 10
380.6285201444118
 20
881.7364710846352
 30
0.0000000000000000
 11
380.6285201444118
 21
946.7364710846352
 31
0.0000000000000000
  0
LINE
  5
3C5
100
AcDbEntity
  8
MAIN0
  6
CONTINUOUS
 62
3
370
    35
100
AcDbLine
 10
379.6285201444122
 20
880.7364710840338
 30
0.0000000000000000
 11
380.6285201444118
 21
881.7364710840354
 31
0.0000000000000000
  0
LINE
  5
3C6
100
AcDbEntity
  8
MAIN0
  6
CONTINUOUS
 62
3
370
    35
100
AcDbLine
 10
379.6285201444120
 20
809.2364710846351
 30
0.0000000000000000
 11
385.6285201444122
 21
809.2364710846351
 31
0.0000000000000000
  0
LINE
  5
3C7
100
AcDbEntity
  8
MAIN0
  6
CONTINUOUS
 62
3
370
    35
100
AcDbLine
 10
379.6285201444118
 20
429.2364710846353
 30
0.0000000000000000
 11
385.6285201444119
 21
429.2364710846353
 31
0.0000000000000000
  0
LINE
  5
3C8
100
AcDbEntity
  8
MAIN0
  6
CENTER
 62
5
370
    18
100
AcDbLine
 10
740.4695330878351
 20
441.0127059725198
 30
0.0000000000000000
 11
1049.162149378240
 21
619.2364710846351
 31
0.0000000000000000
  0
ARC
  5
3C9
100
AcDbEntity
  8
MAIN0
  6
CENTER
 62
5
370
    18
100
AcDbCircle
 10
1049.162149378242
 20
619.2364710846351
 30
0.0000000000000000
 40
165.0999999999999
100
AcDbArc
 50
232.4533134061329
 51
247.7474671580368
  0
CIRCLE
  5
3CA
100
AcDbEntity
  8
MAIN0
  6
CONTINUOUS
 62
3
370
    35
100
AcDbCircle
 10
966.6121493782422
 20
762.2172652494462
 30
0.0000000000000000
 40
12.00000000000000
  0
CIRCLE
  5
3CB
100
AcDbEntity
  8
MAIN0
  6
CONTINUOUS
 62
3
370
    35
100
AcDbCircle
 10
884.0621493782394
 20
619.2364710846350
 30
0.0000000000000000
 40
12.00000000000000
  0
MTEXT
  5
3CC
100
AcDbEntity
  8
MAIN0
  6
CONTINUOUS
 62
7
370
    25
100
AcDbMText
 10
1207.888502384607
 20
154.7070627004709
 30
0.0000000000000000
 40
5.039999914169311
 41
0.0000000000000000
 44
0.7500000127724241
 71
     1
 72
     1
  1
{\H0.67x;{FORWORDED　END SO THAT THE REFERANCE MARK OF MASTER JAW}}
 11
1.000000000000000
 21
0.0000000000000000
 31
0.0000000000000000
  7
STANDARD
  0
LINE
  5
3CD
100
AcDbEntity
  8
MAIN0
  6
CONTINUOUS
 62
7
370
    25
100
AcDbLine
 10
1182.888502384607
 20
133.9570628196802
 30
0.0000000000000000
 11
1450.597073691146
 21
133.9570628196802
 31
0.0000000000000000
  0
MTEXT
  5
3CE
100
AcDbEntity
  8
MAIN0
  6
CONTINUOUS
 62
7
370
    25
100
AcDbMText
 10
1207.913502384616
 20
142.2070627004709
 30
0.0000000000000000
 40
5.039999914169311
 41
0.0000000000000000
 44
0.7500000127724241
 71
     1
 72
     1
  1
{\H0.67x;{MEETS THE LINE OF THE EXTERNAL SIDE OF THE STROKE MARK.}}
 11
1.000000000000000
 21
0.0000000000000000
 31
0.0000000000000000
  7
STANDARD
  0
MTEXT
  5
3CF
100
AcDbEntity
  8
MAIN0
  6
CONTINUOUS
 62
7
370
    25
100
AcDbMText
 10
1207.888502384607
 20
167.2070627004709
 30
0.0000000000000000
 40
5.039999914169311
 41
0.0000000000000000
 44
0.7500000127724241
 71
     1
 72
     1
  1
{\H0.67x;{ADJUST THE POSITION OF PLUNGER AT THE CYLINDER}}
 11
1.000000000000000
 21
0.0000000000000000
 31
0.0000000000000000
  7
STANDARD
  0
MTEXT
  5
3D0
100
AcDbEntity
  8
MAIN0
  6
CONTINUOUS
 62
7
370
    25
100
AcDbMText
 10
1207.888502384607
 20
179.7070627004707
 30
0.0000000000000000
 40
5.039999914169311
 41
0.0000000000000000
 44
0.7500000127724241
 71
     1
 72
     1
  1
{\H0.67x;{(NOT INCLUDING SOFT JAWS)}}
 11
1.000000000000000
 21
0.0000000000000000
 31
0.0000000000000000
  7
STANDARD
  0
MTEXT
  5
3D1
100
AcDbEntity
  8
MAIN0
  6
CONTINUOUS
 62
7
370
    25
100
AcDbMText
 10
902.5099305914147
 20
155.4570625812616
 30
0.0000000000000000
 40
5.579999828338623
 41
0.0000000000000000
 44
0.6677419652551825
 71
     1
 72
     1
  1
{\H0.94x;{外側の線に合うようにプランジャ位置を調整してください}}
 11
1.000000000000000
 21
0.0000000000000000
 31
0.0000000000000000
  7
STANDARD
  0
MTEXT
  5
3D2
100
AcDbEntity
  8
MAIN0
  6
CONTINUOUS
 62
7
370
    25
100
AcDbMText
 10
902.5099305914147
 20
167.9570625812616
 30
0.0000000000000000
 40
5.579999828338623
 41
0.0000000000000000
 44
0.6677419652551825
 71
     1
 72
     1
  1
{\H0.94x;{シリンダ前進端でマスタジョー側面の基線マークがストロークマーク\P}
 11
1.000000000000000
 21
0.0000000000000000
 31
0.0000000000000000
  7
STANDARD
  0
MTEXT
  5
3D3
100
AcDbEntity
  8
MAIN0
  6
CONTINUOUS
 62
7
370
    25
100
AcDbMText
 10
902.5099305914147
 20
180.4570625812614
 30
0.0000000000000000
 40
5.579999828338623
 41
0.0000000000000000
 44
0.6677419652551825
 71
     1
 72
     1
  1
{\H0.94x;{（ソフトジョーは含まない）}}
 11
1.000000000000000
 21
0.0000000000000000
 31
0.0000000000000000
  7
STANDARD
  0
INSERT
  5
3E1
100
AcDbEntity
  8
MAIN0
  6
CONTINUOUS
 62
5
100
AcDbBlockReference
  2
M3
 10
0.0000000000000000
 20
0.0000000000000000
 30
0.0000000000000000
 50
0.0000000000000000
  0
INSERT
  5
3EF
100
AcDbEntity
  8
MAIN0
  6
CONTINUOUS
 62
5
100
AcDbBlockReference
  2
M4
 10
0.0000000000000000
 20
0.0000000000000000
 30
0.0000000000000000
 50
0.0000000000000000
  0
LINE
  5
3F0
100
AcDbEntity
  8
MAIN0
  6
CONTINUOUS
 62
3
370
    35
100
AcDbLine
 10
1350.334507231929
 20
482.8822967225406
 30
0.0000000000000000
 11
1352.334507231929
 21
486.3463983376783
 31
0.0000000000000000
  0
LINE
  5
3F1
100
AcDbEntity
  8
MAIN0
  6
CONTINUOUS
 62
3
370
    35
100
AcDbLine
 10
1351.633545338220
 20
482.1322967236068
 30
0.0000000000000000
 11
1353.633545338220
 21
485.5963983387445
 31
0.0000000000000000
  0
LINE
  5
3F2
100
AcDbEntity
  8
MAIN0
  6
CONTINUOUS
 62
3
370
    35
100
AcDbLine
 10
1355.963672359193
 20
479.6322967271584
 30
0.0000000000000000
 11
1357.963672359193
 21
483.0963983422961
 31
0.0000000000000000
  0
LINE
  5
3F3
100
AcDbEntity
  8
MAIN0
  6
CONTINUOUS
 62
3
370
    35
100
AcDbLine
 10
1353.633545338219
 20
485.5963983387447
 30
0.0000000000000000
 11
1357.963672359192
 21
483.0963983422964
 31
0.0000000000000000
  0
LINE
  5
3F4
100
AcDbEntity
  8
MAIN0
  6
CENTER
 62
5
370
    18
100
AcDbLine
 10
1352.819875260150
 20
479.1870804229255
 30
0.0000000000000000
 11
1357.244664800639
 21
486.8510407198498
 31
0.0000000000000000
  0
LINE
  5
3F5
100
AcDbEntity
  8
MAIN0
  6
CONTINUOUS
 62
3
370
    35
100
AcDbLine
 10
1357.262710465487
 20
478.8822967282227
 30
0.0000000000000000
 11
1359.262710465487
 21
482.3463983433605
 31
0.0000000000000000
  0
MTEXT
  5
3F6
100
AcDbEntity
  8
MAIN0
  6
CONTINUOUS
 62
5
370
    18
100
AcDbMText
 10
1359.584893581900
 20
502.8213036678282
 30
0.0000000000000000
 40
5.580000686645508
 41
0.0000000000000000
 44
0.6719999870792528
 71
     1
 72
     1
  1
{\H0.81x;{1}}
 11
0.5000000000000072
 21
0.8660254037844345
 31
0.0000000000000000
  7
STANDARD
  0
MTEXT
  5
3F7
100
AcDbEntity
  8
MAIN0
  6
CONTINUOUS
 62
5
370
    18
100
AcDbMText
 10
994.7692696451857
 20
946.2780371858855
 30
0.0000000000000000
 40
5.580000686645508
 41
0.0000000000000000
 44
0.6719999870792528
 71
     1
 72
     1
  1
{\H0.81x;{3}}
 11
-1.000000000000000
 21
8.560159667065925e-015
 31
0.0000000000000000
  7
STANDARD
  0
MTEXT
  5
3F8
100
AcDbEntity
  8
MAIN0
  6
CONTINUOUS
 62
5
370
    18
100
AcDbMText
 10
793.1322849076389
 20
408.6100724001918
 30
0.0000000000000000
 40
5.580000686645508
 41
0.0000000000000000
 44
0.6719999870792528
 71
     1
 72
     1
  1
{\H0.81x;{2}}
 11
0.4999999999999924
 21
-0.8660254037844430
 31
0.0000000000000000
  7
STANDARD
  0
LINE
  5
3F9
100
AcDbEntity
  8
A0
  6
CONTINUOUS
 62
3
370
    35
100
AcDbLine
 10
647.8536432201481
 20
83.79822608789198
 30
0.0000000000000000
 11
647.8536432201481
 21
292.1315594212254
 31
0.0000000000000000
  0
LINE
  5
3FA
100
AcDbEntity
  8
A0
  6
CONTINUOUS
 62
6
370
    25
100
AcDbLine
 10
647.8536432201481
 20
125.4648927545587
 30
0.0000000000000000
 11
856.1869765534815
 21
125.4648927545587
 31
0.0000000000000000
  0
LINE
  5
3FB
100
AcDbEntity
  8
A0
  6
CONTINUOUS
 62
6
370
    25
100
AcDbLine
 10
647.8536432201481
 20
167.1315594212253
 30
0.0000000000000000
 11
856.1869765534815
 21
167.1315594212253
 31
0.0000000000000000
  0
LINE
  5
3FC
100
AcDbEntity
  8
A0
  6
CONTINUOUS
 62
6
370
    25
100
AcDbLine
 10
647.8536432201481
 20
208.7982260878920
 30
0.0000000000000000
 11
856.1869765534815
 21
208.7982260878920
 31
0.0000000000000000
  0
LINE
  5
3FD
100
AcDbEntity
  8
A0
  6
CONTINUOUS
 62
6
370
    25
100
AcDbLine
 10
647.8536432201481
 20
250.4648927545587
 30
0.0000000000000000
 11
856.1869765534815
 21
250.4648927545587
 31
0.0000000000000000
  0
LINE
  5
3FE
100
AcDbEntity
  8
A0
  6
CONTINUOUS
 62
6
370
    25
100
AcDbLine
 10
647.8536432201481
 20
292.1315594212254
 30
0.0000000000000000
 11
856.1869765534815
 21
292.1315594212254
 31
0.0000000000000000
  0
LINE
  5
3FF
100
AcDbEntity
  8
A0
  6
CONTINUOUS
 62
6
370
    25
100
AcDbLine
 10
689.5203098868149
 20
83.79822608789198
 30
0.0000000000000000
 11
689.5203098868149
 21
292.1315594212254
 31
0.0000000000000000
  0
LINE
  5
400
100
AcDbEntity
  8
A0
  6
CONTINUOUS
 62
6
370
    25
100
AcDbLine
 10
731.1869765534815
 20
83.79822608789198
 30
0.0000000000000000
 11
731.1869765534815
 21
292.1315594212254
 31
0.0000000000000000
  0
LINE
  5
401
100
AcDbEntity
  8
A0
  6
CONTINUOUS
 62
6
370
    25
100
AcDbLine
 10
772.8536432201481
 20
83.79822608789198
 30
0.0000000000000000
 11
772.8536432201481
 21
292.1315594212254
 31
0.0000000000000000
  0
LINE
  5
402
100
AcDbEntity
  8
A0
  6
CONTINUOUS
 62
6
370
    25
100
AcDbLine
 10
814.5203098868149
 20
83.79822608789198
 30
0.0000000000000000
 11
814.5203098868149
 21
292.1315594212254
 31
0.0000000000000000
  0
MTEXT
  5
403
100
AcDbEntity
  8
A0
  6
CONTINUOUS
 62
7
370
    25
100
AcDbMText
 10
685.0249626604451
 20
82.25591940802683
 30
0.0000000000000000
 40
5.579999828338623
 41
0.0000000000000000
 44
0.6677419652551825
 71
     1
 72
     1
  1
{\H0.88x;{20}}
 11
1.000000000000000
 21
0.0000000000000000
 31
0.0000000000000000
  7
STANDARD
  0
MTEXT
  5
404
100
AcDbEntity
  8
A0
  6
CONTINUOUS
 62
7
370
    25
100
AcDbMText
 10
726.6916293271117
 20
82.25591940802683
 30
0.0000000000000000
 40
5.579999828338623
 41
0.0000000000000000
 44
0.6677419652551825
 71
     1
 72
     1
  1
{\H0.88x;{40}}
 11
1.000000000000000
 21
0.0000000000000000
 31
0.0000000000000000
  7
STANDARD
  0
MTEXT
  5
405
100
AcDbEntity
  8
A0
  6
CONTINUOUS
 62
7
370
    25
100
AcDbMText
 10
768.3582959937784
 20
82.25591940802683
 30
0.0000000000000000
 40
5.579999828338623
 41
0.0000000000000000
 44
0.6677419652551825
 71
     1
 72
     1
  1
{\H0.88x;{60}}
 11
1.000000000000000
 21
0.0000000000000000
 31
0.0000000000000000
  7
STANDARD
  0
MTEXT
  5
406
100
AcDbEntity
  8
A0
  6
CONTINUOUS
 62
7
370
    25
100
AcDbMText
 10
810.0249626604451
 20
82.25591940802683
 30
0.0000000000000000
 40
5.579999828338623
 41
0.0000000000000000
 44
0.6677419652551825
 71
     1
 72
     1
  1
{\H0.88x;{80}}
 11
1.000000000000000
 21
0.0000000000000000
 31
0.0000000000000000
  7
STANDARD
  0
MTEXT
  5
407
100
AcDbEntity
  8
A0
  6
CONTINUOUS
 62
7
370
    25
100
AcDbMText
 10
851.6916293271117
 20
82.25591940802683
 30
0.0000000000000000
 40
5.579999828338623
 41
0.0000000000000000
 44
0.6677419652551825
 71
     1
 72
     1
  1
{\H0.90x;{100}}
 11
1.000000000000000
 21
0.0000000000000000
 31
0.0000000000000000
  7
STANDARD
  0
MTEXT
  5
408
100
AcDbEntity
  8
A0
  6
CONTINUOUS
 62
7
370
    25
100
AcDbMText
 10
635.0249626604451
 20
82.25591940802683
 30
0.0000000000000000
 40
5.579999828338623
 41
0.0000000000000000
 44
0.6677419652551825
 71
     1
 72
     1
  1
{\H0.88x;{ 0}}
 11
1.000000000000000
 21
0.0000000000000000
 31
0.0000000000000000
  7
STANDARD
  0
MTEXT
  5
409
100
AcDbEntity
  8
A0
  6
CONTINUOUS
 62
7
370
    25
100
AcDbMText
 10
625.5379079909901
 20
130.3976192266090
 30
0.0000000000000000
 40
5.579999828338623
 41
0.0000000000000000
 44
0.6677419652551825
 71
     1
 72
     1
  1
{\H0.90x;{ 50}}
 11
1.000000000000000
 21
0.0000000000000000
 31
0.0000000000000000
  7
STANDARD
  0
MTEXT
  5
40A
100
AcDbEntity
  8
A0
  6
CONTINUOUS
 62
7
370
    25
100
AcDbMText
 10
625.5379079909901
 20
172.0642858932756
 30
0.0000000000000000
 40
5.579999828338623
 41
0.0000000000000000
 44
0.6677419652551825
 71
     1
 72
     1
  1
{\H0.90x;{100}}
 11
1.000000000000000
 21
0.0000000000000000
 31
0.0000000000000000
  7
STANDARD
  0
MTEXT
  5
40B
100
AcDbEntity
  8
A0
  6
CONTINUOUS
 62
7
370
    25
100
AcDbMText
 10
625.5379079909901
 20
213.7309525599423
 30
0.0000000000000000
 40
5.579999828338623
 41
0.0000000000000000
 44
0.6677419652551825
 71
     1
 72
     1
  1
{\H0.90x;{150}}
 11
1.000000000000000
 21
0.0000000000000000
 31
0.0000000000000000
  7
STANDARD
  0
MTEXT
  5
40C
100
AcDbEntity
  8
A0
  6
CONTINUOUS
 62
7
370
    25
100
AcDbMText
 10
625.5379079909901
 20
255.3976192266090
 30
0.0000000000000000
 40
5.579999828338623
 41
0.0000000000000000
 44
0.6677419652551825
 71
     1
 72
     1
  1
{\H0.90x;{200}}
 11
1.000000000000000
 21
0.0000000000000000
 31
0.0000000000000000
  7
STANDARD
  0
MTEXT
  5
40D
100
AcDbEntity
  8
A0
  6
CONTINUOUS
 62
7
370
    25
100
AcDbMText
 10
625.5379079909901
 20
297.0642858932757
 30
0.0000000000000000
 40
5.579999828338623
 41
0.0000000000000000
 44
0.6677419652551825
 71
     1
 72
     1
  1
{\H0.90x;{250}}
 11
1.000000000000000
 21
0.0000000000000000
 31
0.0000000000000000
  7
STANDARD
  0
LINE
  5
40E
100
AcDbEntity
  8
A0
  6
CONTINUOUS
 62
6
370
    25
100
AcDbLine
 10
647.8536432201481
 20
104.6315594212253
 30
0.0000000000000000
 11
856.1869765534815
 21
104.6315594212253
 31
0.0000000000000000
  0
LINE
  5
40F
100
AcDbEntity
  8
A0
  6
CONTINUOUS
 62
6
370
    25
100
AcDbLine
 10
647.8536432201481
 20
146.2982260878920
 30
0.0000000000000000
 11
856.1869765534815
 21
146.2982260878920
 31
0.0000000000000000
  0
LINE
  5
410
100
AcDbEntity
  8
A0
  6
CONTINUOUS
 62
6
370
    25
100
AcDbLine
 10
647.8536432201481
 20
187.9648927545587
 30
0.0000000000000000
 11
856.1869765534815
 21
187.9648927545587
 31
0.0000000000000000
  0
LINE
  5
411
100
AcDbEntity
  8
A0
  6
CONTINUOUS
 62
6
370
    25
100
AcDbLine
 10
647.8536432201481
 20
229.6315594212254
 30
0.0000000000000000
 11
856.1869765534815
 21
229.6315594212254
 31
0.0000000000000000
  0
LINE
  5
412
100
AcDbEntity
  8
A0
  6
CONTINUOUS
 62
6
370
    25
100
AcDbLine
 10
647.8536432201481
 20
271.2982260878920
 30
0.0000000000000000
 11
856.1869765534815
 21
271.2982260878920
 31
0.0000000000000000
  0
LINE
  5
413
100
AcDbEntity
  8
A0
  6
CONTINUOUS
 62
6
370
    25
100
AcDbLine
 10
710.3536432201481
 20
83.79822608789198
 30
0.0000000000000000
 11
710.3536432201481
 21
292.1315594212254
 31
0.0000000000000000
  0
LINE
  5
414
100
AcDbEntity
  8
A0
  6
CONTINUOUS
 62
6
370
    25
100
AcDbLine
 10
752.0203098868149
 20
83.79822608789198
 30
0.0000000000000000
 11
752.0203098868149
 21
292.1315594212254
 31
0.0000000000000000
  0
LINE
  5
415
100
AcDbEntity
  8
A0
  6
CONTINUOUS
 62
6
370
    25
100
AcDbLine
 10
793.6869765534815
 20
83.79822608789198
 30
0.0000000000000000
 11
793.6869765534815
 21
292.1315594212254
 31
0.0000000000000000
  0
LINE
  5
416
100
AcDbEntity
  8
A0
  6
CONTINUOUS
 62
6
370
    25
100
AcDbLine
 10
835.3536432201481
 20
83.79822608789198
 30
0.0000000000000000
 11
835.3536432201481
 21
292.1315594212254
 31
0.0000000000000000
  0
LINE
  5
417
100
AcDbEntity
  8
A0
  6
CONTINUOUS
 62
3
370
    35
100
AcDbLine
 10
856.1869765534815
 20
220.1493235008681
 30
0.0000000000000000
 11
856.1869765534815
 21
83.79822608789198
 31
0.0000000000000000
  0
LEADER
  5
418
100
AcDbEntity
  8
A0
  6
CONTINUOUS
 62
5
370
    18
100
AcDbLeader
  3
A002
 73
     0
 74
     0
 75
     1
 40
5.579999828338623
 41
42.55100099539754
 76
     3
 10
818.8953098868149
 20
248.2815594212253
 30
0.0000000000000000
 10
865.5532423999097
 20
283.8693385224722
 30
0.0000000000000000
 10
870.3672422604348
 20
283.8693385224722
 30
0.0000000000000000
340
419
213
-0.001000000000090040
223
-1.250000000000000
233
0.0000000000000000
1001
ACAD
1000
DSTYLE
1002
{
1070
   147
1040
0.0
1070
    77
1070
     1
1070
   341
1005
13
1070
    41
1040
2.000000
1002
}
  0
MTEXT
  5
419
102
{ACAD_REACTORS
330
418
102
}
100
AcDbEntity
  8
A0
  6
CONTINUOUS
 62
7
370
    25
100
AcDbMText
 10
870.3682422604348
 20
292.8693382840536
 30
0.0000000000000000
 40
5.579999828338623
 41
0.0000000000000000
 44
0.7935483930510365
 71
     1
 72
     1
  1
{\H0.93x;{把握力限界}}
 11
1.000000000000000
 21
0.0000000000000000
 31
0.0000000000000000
  7
STANDARD
  0
MTEXT
  5
41A
100
AcDbEntity
  8
A0
  6
CONTINUOUS
 62
7
370
    25
100
AcDbMText
 10
739.2029014991560
 20
284.5990408048889
 30
0.0000000000000000
 40
5.579999828338623
 41
0.0000000000000000
 44
0.6677419652551825
 71
     1
 72
     1
  1
{\H0.91x;{90kN}}
 11
0.9903831087933175
 21
-0.1383520791924857
 31
0.0000000000000000
  7
STANDARD
  0
MTEXT
  5
41B
100
AcDbEntity
  8
A0
  6
CONTINUOUS
 62
7
370
    25
100
AcDbMText
 10
737.2333966795874
 20
263.3862328431311
 30
0.0000000000000000
 40
5.579999828338623
 41
0.0000000000000000
 44
0.6677419652551825
 71
     1
 72
     1
  1
{\H0.91x;{80kN}}
 11
0.9922998856369679
 21
-0.1238585361001028
 31
0.0000000000000000
  7
STANDARD
  0
MTEXT
  5
41C
100
AcDbEntity
  8
A0
  6
CONTINUOUS
 62
7
370
    25
100
AcDbMText
 10
735.2571848544236
 20
242.1159190951688
 30
0.0000000000000000
 40
5.579999828338623
 41
0.0000000000000000
 44
0.6677419652551825
 71
     1
 72
     1
  1
{\H0.91x;{70kN}}
 11
0.9940272471935089
 21
-0.1091321759926686
 31
0.0000000000000000
  7
STANDARD
  0
MTEXT
  5
41D
100
AcDbEntity
  8
A0
  6
CONTINUOUS
 62
7
370
    25
100
AcDbMText
 10
733.2759906920882
 20
220.7845037362843
 30
0.0000000000000000
 40
5.579999828338623
 41
0.0000000000000000
 44
0.6677419652551825
 71
     1
 72
     1
  1
{\H0.91x;{60kN}}
 11
0.9955312044714543
 21
-0.09443315584907433
 31
0.0000000000000000
  7
STANDARD
  0
MTEXT
  5
41E
100
AcDbEntity
  8
A0
  6
CONTINUOUS
 62
7
370
    25
100
AcDbMText
 10
731.2866538083417
 20
199.3974098638999
 30
0.0000000000000000
 40
5.579999828338623
 41
0.0000000000000000
 44
0.6677419652551825
 71
     1
 72
     1
  1
{\H0.91x;{50kN}}
 11
0.9968511218109737
 21
-0.07929590748710361
 31
0.0000000000000000
  7
STANDARD
  0
MTEXT
  5
41F
100
AcDbEntity
  8
A0
  6
CONTINUOUS
 62
7
370
    25
100
AcDbMText
 10
729.2905219684747
 20
177.9505923100488
 30
0.0000000000000000
 40
5.579999828338623
 41
0.0000000000000000
 44
0.6677419652551825
 71
     1
 72
     1
  1
{\H0.91x;{40kN}}
 11
0.9979539298925012
 21
-0.06393710825579195
 31
0.0000000000000000
  7
STANDARD
  0
LEADER
  5
420
100
AcDbEntity
  8
A0
  6
CONTINUOUS
 62
5
370
    18
100
AcDbLeader
  3
A002
 73
     0
 74
     0
 75
     1
 40
5.579999828338623
 41
16.45100040531156
 76
     3
 10
751.2323817326911
 20
283.4716869704328
 30
0.0000000000000000
 10
766.9365873039910
 20
303.9744284587545
 30
0.0000000000000000
 10
771.7505871645161
 20
303.9744284587545
 30
0.0000000000000000
340
421
213
0.0000000000000000
223
-1.250000000000000
233
0.0000000000000000
1001
ACAD
1000
DSTYLE
1002
{
1070
   147
1040
0.0
1070
    77
1070
     1
1070
   341
1005
13
1070
    41
1040
2.000000
1002
}
  0
MTEXT
  5
421
102
{ACAD_REACTORS
330
420
102
}
100
AcDbEntity
  8
A0
  6
CONTINUOUS
 62
7
370
    25
100
AcDbMText
 10
771.7515871645161
 20
312.9744282203359
 30
0.0000000000000000
 40
5.579999828338623
 41
0.0000000000000000
 44
0.7935483930510365
 71
     1
 72
     1
  1
{\H0.89x;{入力}}
 11
1.000000000000000
 21
0.0000000000000000
 31
0.0000000000000000
  7
STANDARD
  0
MTEXT
  5
422
100
AcDbEntity
  8
A0
  6
CONTINUOUS
 62
7
370
    25
100
AcDbMText
 10
652.4368797727123
 20
343.5025969395355
 30
0.0000000000000000
 40
7.199999999999999
 41
0.0000000000000000
 44
0.6749999999999999
 71
     1
 72
     1
  1
{\H0.94x;{\L把握中心高さと静的把握力および入力の関係}}
 11
1.000000000000000
 21
0.0000000000000000
 31
0.0000000000000000
  7
STANDARD
  0
MTEXT
  5
423
100
AcDbEntity
  8
A0
  6
CONTINUOUS
 62
7
370
    25
100
AcDbMText
 10
604.6434000121923
 20
114.4514611332337
 30
0.0000000000000000
 40
5.579999828338623
 41
0.0000000000000000
 44
0.6677419652551825
 71
     1
 72
     1
  1
{\H0.93x;{静的把握力 Ｐ(kN)}}
 11
6.123233995736766e-017
 21
1.000000000000000
 31
0.0000000000000000
  7
STANDARD
  0
MTEXT
  5
424
100
AcDbEntity
  8
A0
  6
CONTINUOUS
 62
7
370
    25
100
AcDbMText
 10
742.0551830961803
 20
65.33175220798646
 30
0.0000000000000000
 40
5.579999828338623
 41
0.0000000000000000
 44
0.6677419652551825
 71
     1
 72
     1
  1
{\H0.94x;{把握部中心高さ Ｈ(mm)}}
 11
1.000000000000000
 21
0.0000000000000000
 31
0.0000000000000000
  7
STANDARD
  0
LINE
  5
425
100
AcDbEntity
  8
A0
  6
CONTINUOUS
 62
3
370
    35
100
AcDbLine
 10
647.8536432201482
 20
83.79822608789198
 30
0.0000000000000000
 11
856.1869765534815
 21
83.79822608789198
 31
0.0000000000000000
  0
MTEXT
  5
426
100
AcDbEntity
  8
A0
  6
CONTINUOUS
 62
7
370
    25
100
AcDbMText
 10
727.2856585792869
 20
156.4438245575603
 30
0.0000000000000000
 40
5.579999828338623
 41
0.0000000000000000
 44
0.6677419652551825
 71
     1
 72
     1
  1
{\H0.91x;{30kN}}
 11
0.9988420606153410
 21
-0.04810964503817824
 31
0.0000000000000000
  7
STANDARD
  0
MTEXT
  5
427
100
AcDbEntity
  8
A0
  6
CONTINUOUS
 62
7
370
    25
100
AcDbMText
 10
717.4325127101664
 20
100.1497381671304
 30
0.0000000000000000
 40
5.579999828338623
 41
0.0000000000000000
 44
0.6677419652551825
 71
     1
 72
     1
  1
{\H0.88x;{37}}
 11
1.000000000000000
 21
0.0000000000000000
 31
0.0000000000000000
  7
STANDARD
  0
LINE
  5
428
100
AcDbEntity
  8
A0
  6
HIDDEN
 62
5
370
    18
100
AcDbLine
 10
724.9369765534815
 20
83.79822608789198
 30
0.0000000000000000
 11
724.9369765534815
 21
91.85342154576992
 31
0.0000000000000000
  0
LINE
  5
429
100
AcDbEntity
  8
A0
  6
HIDDEN
 62
5
370
    18
100
AcDbLine
 10
724.9369765534815
 20
102.0200880534909
 30
0.0000000000000000
 11
724.9369765534815
 21
278.7982260878920
 31
0.0000000000000000
  0
MTEXT
  5
42A
100
AcDbEntity
  8
A0
  6
CONTINUOUS
 62
7
370
    25
100
AcDbMText
 10
651.7632376349932
 20
283.1340463538589
 30
0.0000000000000000
 40
5.579999828338623
 41
0.0000000000000000
 44
0.6677419652551825
 71
     1
 72
     1
  1
{\H0.90x;{234}}
 11
1.000000000000000
 21
0.0000000000000000
 31
0.0000000000000000
  7
STANDARD
  0
LINE
  5
42B
100
AcDbEntity
  8
A0
  6
HIDDEN
 62
5
370
    18
100
AcDbLine
 10
647.8536432201481
 20
278.7982260878920
 30
0.0000000000000000
 11
650.9409217588635
 21
278.7982260878920
 31
0.0000000000000000
  0
LINE
  5
42C
100
AcDbEntity
  8
A0
  6
HIDDEN
 62
5
370
    18
100
AcDbLine
 10
673.7471935247689
 20
278.7982260878920
 30
0.0000000000000000
 11
724.9369765534813
 21
278.7982260878920
 31
0.0000000000000000
  0
MTEXT
  5
42D
100
AcDbEntity
  8
A0
  6
CONTINUOUS
 62
7
370
    25
100
AcDbMText
 10
793.9304216252539
 20
100.9407070370229
 30
0.0000000000000000
 40
5.579999828338623
 41
0.0000000000000000
 44
0.6677419652551825
 71
     1
 72
     1
  1
{\H0.88x;{73}}
 11
1.000000000000000
 21
0.0000000000000000
 31
0.0000000000000000
  7
STANDARD
  0
LINE
  5
42E
100
AcDbEntity
  8
A0
  6
HIDDEN
 62
5
370
    18
100
AcDbLine
 10
799.9369765534815
 20
83.79822608789198
 30
0.0000000000000000
 11
799.9369765534815
 21
91.85342154576992
 31
0.0000000000000000
  0
LINE
  5
42F
100
AcDbEntity
  8
A0
  6
HIDDEN
 62
5
370
    18
100
AcDbLine
 10
799.9369765534815
 20
102.0200880534909
 30
0.0000000000000000
 11
799.9369765534815
 21
270.1654417984792
 31
0.0000000000000000
  0
SPLINE
  5
430
100
AcDbEntity
  8
A0
  6
CONTINUOUS
 62
3
370
    35
100
AcDbSpline
210
0.0000000000000000
220
0.0000000000000000
230
1.000000000000000
 70
     8
 71
     3
 72
     9
 73
     5
 74
     0
 42
1.000000000000000e-007
 43
1.000000000000000e-007
 12
0.8257971041388252
 22
-0.1121050437062703
 32
0.0000000000000000
 13
0.8285276946101448
 23
-0.08962893481454692
 33
0.0000000000000000
 40
0.0000000000000000
 40
0.0000000000000000
 40
0.0000000000000000
 40
0.0000000000000000
 40
93.30107180520467
 40
183.8982626570487
 40
183.8982626570487
 40
183.8982626570487
 40
183.8982626570487
 10
647.8536432201481
 20
288.9648927545587
 30
0.0000000000000000
 10
673.5362281900771
 20
285.4783858437039
 30
0.0000000000000000
 10
724.1571124428610
 20
278.6064115861455
 30
0.0000000000000000
 10
774.9162159952809
 20
272.8721517028922
 30
0.0000000000000000
 10
799.9369765534921
 20
270.1654417984785
 30
0.0000000000000000
  0
SPLINE
  5
431
100
AcDbEntity
  8
A0
  6
CONTINUOUS
 62
3
370
    35
100
AcDbSpline
210
0.0000000000000000
220
0.0000000000000000
230
1.000000000000000
 70
     8
 71
     3
 72
     9
 73
     5
 74
     0
 42
1.000000000000000e-007
 43
1.000000000000000e-007
 12
0.8272981365080732
 22
-0.1003734014571336
 32
0.0000000000000000
 13
0.8296873861387120
 23
-0.07833911563283902
 33
0.0000000000000000
 40
0.0000000000000000
 40
0.0000000000000000
 40
0.0000000000000000
 40
0.0000000000000000
 40
93.14000214730488
 40
208.9794110937860
 40
208.9794110937860
 40
208.9794110937860
 40
208.9794110937860
 10
647.8536432201481
 20
266.2148927545587
 30
0.0000000000000000
 10
673.5384932904226
 20
263.0986331454755
 30
0.0000000000000000
 10
731.1679190792373
 20
256.1066417034782
 30
0.0000000000000000
 10
788.9422462144761
 20
250.4509684270208
 30
0.0000000000000000
 10
820.9790783546958
 20
247.4260494762547
 30
0.0000000000000000
  0
SPLINE
  5
432
100
AcDbEntity
  8
A0
  6
CONTINUOUS
 62
3
370
    35
100
AcDbSpline
210
0.0000000000000000
220
0.0000000000000000
230
1.000000000000000
 70
     8
 71
     3
 72
     9
 73
     5
 74
     0
 42
1.000000000000000e-007
 43
1.000000000000000e-007
 12
0.8287375022425003
 22
-0.08762782328669694
 32
0.0000000000000000
 13
0.8306406756099243
 23
-0.06749261814827090
 33
0.0000000000000000
 40
0.0000000000000000
 40
0.0000000000000000
 40
0.0000000000000000
 40
0.0000000000000000
 40
92.98655816837162
 40
242.7644127366968
 40
242.7644127366968
 40
242.7644127366968
 40
242.7644127366968
 10
647.8536432201481
 20
243.3815594212254
 30
0.0000000000000000
 10
673.5407925396759
 20
240.6654895254866
 30
0.0000000000000000
 10
740.6034502212683
 20
233.5745171722901
 30
0.0000000000000000
 10
807.8152786578861
 20
228.0617424780669
 30
0.0000000000000000
 10
849.2858047612322
 20
224.6921092962512
 30
0.0000000000000000
  0
SPLINE
  5
433
100
AcDbEntity
  8
A0
  6
CONTINUOUS
 62
3
370
    35
100
AcDbSpline
210
0.0000000000000000
220
0.0000000000000000
230
1.000000000000000
 70
     8
 71
     3
 72
     9
 73
     5
 74
     0
 42
1.000000000000000e-007
 43
1.000000000000000e-007
 12
0.8298993696643997
 22
-0.07577927614377877
 32
0.0000000000000000
 13
0.8313474531531462
 23
-0.05800331221586275
 33
0.0000000000000000
 40
0.0000000000000000
 40
0.0000000000000000
 40
0.0000000000000000
 40
0.0000000000000000
 40
92.86274818246528
 40
250.7967217283751
 40
250.7967217283751
 40
250.7967217283751
 40
250.7967217283751
 10
647.8536432201481
 20
220.6315594212253
 30
0.0000000000000000
 10
673.5425552807920
 20
218.2858688085622
 30
0.0000000000000000
 10
742.9212357062177
 20
211.9508041312923
 30
0.0000000000000000
 10
812.4209743288988
 20
207.1017906135837
 30
0.0000000000000000
 10
856.1869765534816
 20
204.0482260878920
 30
0.0000000000000000
  0
SPLINE
  5
434
100
AcDbEntity
  8
A0
  6
CONTINUOUS
 62
3
370
    35
100
AcDbSpline
210
0.0000000000000000
220
0.0000000000000000
230
1.000000000000000
 70
     8
 71
     3
 72
     9
 73
     5
 74
     0
 42
1.000000000000000e-007
 43
1.000000000000000e-007
 12
0.8309672435749924
 22
-0.06292339621508880
 32
0.0000000000000000
 13
0.8319673629024287
 23
-0.04811734596238759
 33
0.0000000000000000
 40
0.0000000000000000
 40
0.0000000000000000
 40
0.0000000000000000
 40
0.0000000000000000
 40
92.74960916359679
 40
250.5480248717405
 40
250.5480248717405
 40
250.5480248717405
 40
250.5480248717405
 10
647.8536432201481
 20
197.7982260878920
 30
0.0000000000000000
 10
673.5442722432588
 20
195.8528526191601
 30
0.0000000000000000
 10
742.9433394468683
 20
190.5977417391893
 30
0.0000000000000000
 10
812.4259326245198
 20
186.5791730748738
 30
0.0000000000000000
 10
856.1869765534816
 20
184.0482260878920
 30
0.0000000000000000
  0
SPLINE
  5
435
100
AcDbEntity
  8
A0
  6
CONTINUOUS
 62
3
370
    35
100
AcDbSpline
210
0.0000000000000000
220
0.0000000000000000
230
1.000000000000000
 70
     8
 71
     3
 72
     9
 73
     5
 74
     0
 42
1.000000000000000e-007
 43
1.000000000000000e-007
 12
0.8318435910357529
 22
-0.04992549750242770
 32
0.0000000000000000
 13
0.8324381180692484
 23
-0.03890554203223839
 33
0.0000000000000000
 40
0.0000000000000000
 40
0.0000000000000000
 40
0.0000000000000000
 40
0.0000000000000000
 40
92.65748755497290
 40
250.3505121312050
 40
250.3505121312050
 40
250.3505121312050
 40
250.3505121312050
 10
647.8536432201481
 20
174.9648927545586
 30
0.0000000000000000
 10
673.5458222815079
 20
173.4229023667230
 30
0.0000000000000000
 10
742.9633119577951
 20
169.2566110773435
 30
0.0000000000000000
 10
812.4304150165195
 20
166.0099369531725
 30
0.0000000000000000
 10
856.1869765534816
 20
163.9648927545587
 30
0.0000000000000000
  0
SPLINE
  5
436
100
AcDbEntity
  8
A0
  6
CONTINUOUS
 62
3
370
    35
100
AcDbSpline
210
0.0000000000000000
220
0.0000000000000000
230
1.000000000000000
 70
     8
 71
     3
 72
     9
 73
     5
 74
     0
 42
1.000000000000000e-007
 43
1.000000000000000e-007
 12
0.8324691348276474
 22
-0.03805415458567385
 32
0.0000000000000000
 13
0.8328485244843904
 23
-0.02870366080098030
 33
0.0000000000000000
 40
0.0000000000000000
 40
0.0000000000000000
 40
0.0000000000000000
 40
0.0000000000000000
 40
92.59082027933415
 40
250.1975777486766
 40
250.1975777486766
 40
250.1975777486766
 40
250.1975777486766
 10
647.8536432201481
 20
152.2148927545587
 30
0.0000000000000000
 10
673.5466432371213
 20
151.0404042918506
 30
0.0000000000000000
 10
742.9738969319261
 20
147.8667185249811
 30
0.0000000000000000
 10
812.4327914177778
 20
145.4728563900061
 30
0.0000000000000000
 10
856.1869765534816
 20
143.9648927545587
 30
0.0000000000000000
  0
SPLINE
  5
437
100
AcDbEntity
  8
A0
  6
CONTINUOUS
 62
3
370
    35
100
AcDbSpline
210
0.0000000000000000
220
0.0000000000000000
230
1.000000000000000
 70
     8
 71
     3
 72
    10
 73
     6
 74
     0
 42
1.000000000000000e-007
 43
1.000000000000000e-007
 12
0.5478734811147490
 22
-0.6289388835075158
 32
0.0000000000000000
 13
0.7016505905100985
 23
-0.4495160640408642
 33
0.0000000000000000
 40
0.0000000000000000
 40
0.0000000000000000
 40
0.0000000000000000
 40
0.0000000000000000
 40
33.69150850605048
 40
72.26316260592026
 40
90.67957283273890
 40
90.67957283273890
 40
90.67957283273890
 40
90.67957283273890
 10
799.9369765534858
 20
270.1654417984792
 30
0.0000000000000000
 10
806.0898712365582
 20
263.1021418839861
 30
0.0000000000000000
 10
819.2868947209807
 20
247.9524376146228
 30
0.0000000000000000
 10
838.7315745818546
 20
231.7186118767912
 30
0.0000000000000000
 10
851.8796816228090
 20
222.9088142471752
 30
0.0000000000000000
 10
856.1869766597170
 20
220.1493235008681
 30
0.0000000000000000
  0
LINE
  5
438
100
AcDbEntity
  8
A0
  6
CONTINUOUS
 62
6
370
    25
100
AcDbLine
 10
856.1869765534815
 20
83.79822608789198
 30
0.0000000000000000
 11
856.1869765534815
 21
292.1315594212254
 31
0.0000000000000000
  0
LINE
  5
439
100
AcDbEntity
  8
A0
  6
CONTINUOUS
 62
6
370
    25
100
AcDbLine
 10
668.6869765534815
 20
83.79822608789198
 30
0.0000000000000000
 11
668.6869765534815
 21
273.5419655888439
 31
0.0000000000000000
  0
LINE
  5
43A
100
AcDbEntity
  8
A0
  6
CONTINUOUS
 62
6
370
    25
100
AcDbLine
 10
668.6869765534815
 20
284.6600296367139
 30
0.0000000000000000
 11
668.6869765534815
 21
292.1315594212254
 31
0.0000000000000000
  0
LEADER
  5
43B
100
AcDbEntity
  8
A0
  6
CONTINUOUS
 62
5
370
    18
100
AcDbLeader
  3
A002
 73
     0
 75
     1
 40
5.579999828338623
 41
68.64900158548358
 76
     3
 10
724.9369765534815
 20
82.75450547264749
 30
0.0000000000000000
 10
724.9369765533431
 20
53.16062561526471
 30
0.0000000000000000
 10
720.1209766928180
 20
53.16062561526471
 30
0.0000000000000000
340
43C
213
0.0000000000000000
223
-1.250000000000000
233
0.0000000000000000
1001
ACAD
1000
DSTYLE
1002
{
1070
   147
1040
0.0
1070
    77
1070
     1
1070
   341
1005
13
1070
    41
1040
2.000000
1002
}
  0
MTEXT
  5
43C
102
{ACAD_REACTORS
330
43B
102
}
100
AcDbEntity
  8
A0
  6
CONTINUOUS
 62
7
370
    25
100
AcDbMText
 10
651.4719751073344
 20
62.16062537684613
 30
0.0000000000000000
 40
5.579999828338623
 41
0.0000000000000000
 44
0.7935483930510365
 71
     1
 72
     1
  1
{\H0.93x;{標準ソフトジョー}}
 11
1.000000000000000
 21
0.0000000000000000
 31
0.0000000000000000
  7
STANDARD
  0
MTEXT
  5
43D
100
AcDbEntity
  8
A0
  6
CONTINUOUS
 62
7
370
    25
100
AcDbMText
 10
652.9546759002099
 20
330.8549270550652
 30
0.0000000000000000
 40
5.400000000000000
 41
0.0000000000000000
 44
0.8000000000000000
 71
     1
 72
     1
  1
{\H0.59x;{ＲＥＬＡＴＩＯＮＳＨＩＰ　ＯＦ　ＧＲＩＰＰＩＮＧ　ＣＥＮＴＥＲ　ＨＥＩＧＨＴ，\PＳＴＡＴＩＣ　ＧＲＩＰＰＩＮＧ　ＦＯＲＣＥ　ＡＮＤ　ＰＬＵＮＧＥＲ　ＩＮＰＵＴ　ＦＯＲＣＥ}}
 11
1.000000000000000
 21
0.0000000000000000
 31
0.0000000000000000
  7
STANDARD
  0
MTEXT
  5
43E
100
AcDbEntity
  8
A0
  6
CONTINUOUS
 62
7
370
    25
100
AcDbMText
 10
768.8223061368433
 20
301.6056246894096
 30
0.0000000000000000
 40
5.400000000000000
 41
0.0000000000000000
 44
0.8000000000000000
 71
     1
 72
     1
  1
{\H0.59x;{ＩＮＰＵＴ　ＦＯＲＣＥ}}
 11
1.000000000000000
 21
0.0000000000000000
 31
0.0000000000000000
  7
STANDARD
  0
MTEXT
  5
43F
100
AcDbEntity
  8
A0
  6
CONTINUOUS
 62
7
370
    25
100
AcDbMText
 10
867.6584157242386
 20
281.0258641505366
 30
0.0000000000000000
 40
5.400000000000000
 41
0.0000000000000000
 44
0.8000000000000000
 71
     1
 72
     1
  1
{\H0.59x;{ＧＲＩＰＰＩＮＧ　ＦＯＲＣＥ　ＬＩＭＩＴ}}
 11
1.000000000000000
 21
0.0000000000000000
 31
0.0000000000000000
  7
STANDARD
  0
MTEXT
  5
440
100
AcDbEntity
  8
A0
  6
CONTINUOUS
 62
7
370
    25
100
AcDbMText
 10
742.0317664542115
 20
53.60881015558419
 30
0.0000000000000000
 40
5.400000000000000
 41
0.0000000000000000
 44
0.8000000000000000
 71
     1
 72
     1
  1
{\H0.59x;{ＧＲＩＰＰＩＮＧ　ＣＥＮＴＥＲ　ＨＥＩＧＨＴ　Ｈ　（ｍｍ）}}
 11
1.000000000000000
 21
0.0000000000000000
 31
0.0000000000000000
  7
STANDARD
  0
MTEXT
  5
441
100
AcDbEntity
  8
A0
  6
CONTINUOUS
 62
7
370
    25
100
AcDbMText
 10
623.5000830660113
 20
49.38259283106419
 30
0.0000000000000000
 40
4.499999999999999
 41
0.0000000000000000
 44
0.8400000000000000
 71
     1
 72
     1
  1
{\H0.58x;{ＳＴＤ．　ＳＯＦＴ　ＢＬＡＮＫ　ＴＯＰ　ＪＡＷＳ}}
 11
1.000000000000000
 21
0.0000000000000000
 31
0.0000000000000000
  7
STANDARD
  0
MTEXT
  5
442
100
AcDbEntity
  8
A0
  6
CONTINUOUS
 62
7
370
    25
100
AcDbMText
 10
617.0958682356445
 20
114.8076820610272
 30
0.0000000000000000
 40
5.400000000000000
 41
0.0000000000000000
 44
0.8000000000000000
 71
     1
 72
     1
  1
{\H0.59x;{ＳＴＡＴＩＣ　ＧＲＩＰＰＩＮＧ　ＦＯＲＣＥ　Ｐ　（ｋＮ）}}
 11
6.123233995736766e-017
 21
1.000000000000000
 31
0.0000000000000000
  7
STANDARD
  0
LINE
  5
443
100
AcDbEntity
  8
WAKU0
  6
CONTINUOUS
 62
3
370
    35
100
AcDbLine
 10
1030.000000000000
 20
127.5000000000000
 30
0.0000000000000000
 11
1455.000000000000
 21
127.5000000000000
 31
0.0000000000000000
  0
LINE
  5
444
100
AcDbEntity
  8
WAKU0
  6
CONTINUOUS
 62
3
370
    35
100
AcDbLine
 10
1030.000000000000
 20
127.5000000000000
 30
0.0000000000000000
 11
1030.000000000000
 21
30.00000000000000
 31
0.0000000000000000
  0
LINE
  5
445
100
AcDbEntity
  8
WAKU0
  6
CONTINUOUS
 62
5
370
    18
100
AcDbLine
 10
1210.000000000000
 20
127.5000000000000
 30
0.0000000000000000
 11
1210.000000000000
 21
30.00000000000000
 31
0.0000000000000000
  0
LINE
  5
446
100
AcDbEntity
  8
WAKU0
  6
CONTINUOUS
 62
5
370
    18
100
AcDbLine
 10
1260.000000000000
 20
127.5000000000000
 30
0.0000000000000000
 11
1260.000000000000
 21
30.00000000000000
 31
0.0000000000000000
  0
LINE
  5
447
100
AcDbEntity
  8
WAKU0
  6
CONTINUOUS
 62
5
370
    18
100
AcDbLine
 10
1290.000000000000
 20
127.5000000000000
 30
0.0000000000000000
 11
1290.000000000000
 21
30.00000000000000
 31
0.0000000000000000
  0
LINE
  5
448
100
AcDbEntity
  8
WAKU0
  6
CONTINUOUS
 62
5
370
    18
100
AcDbLine
 10
1290.000000000000
 20
92.50000000000000
 30
0.0000000000000000
 11
1455.000000000000
 21
92.50000000000000
 31
0.0000000000000000
  0
LINE
  5
449
100
AcDbEntity
  8
WAKU0
  6
CONTINUOUS
 62
5
370
    18
100
AcDbLine
 10
1260.000000000000
 20
57.50000000000000
 30
0.0000000000000000
 11
1455.000000000000
 21
57.50000000000000
 31
0.0000000000000000
  0
LINE
  5
44A
100
AcDbEntity
  8
WAKU0
  6
CONTINUOUS
 62
5
370
    18
100
AcDbLine
 10
1367.500000000000
 20
127.5000000000000
 30
0.0000000000000000
 11
1367.500000000000
 21
110.0000000000000
 31
0.0000000000000000
  0
LINE
  5
44B
100
AcDbEntity
  8
WAKU0
  6
CONTINUOUS
 62
5
370
    18
100
AcDbLine
 10
1397.500000000000
 20
127.5000000000000
 30
0.0000000000000000
 11
1397.500000000000
 21
110.0000000000000
 31
0.0000000000000000
  0
LINE
  5
44C
100
AcDbEntity
  8
WAKU0
  6
CONTINUOUS
 62
5
370
    18
100
AcDbLine
 10
1210.000000000000
 20
78.75000000000000
 30
0.0000000000000000
 11
1260.000000000000
 21
78.75000000000000
 31
0.0000000000000000
  0
LINE
  5
44D
100
AcDbEntity
  8
WAKU0
  6
CONTINUOUS
 62
5
370
    18
100
AcDbLine
 10
1260.000000000000
 20
110.0000000000000
 30
0.0000000000000000
 11
1455.000000000000
 21
110.0000000000000
 31
0.0000000000000000
  0
LINE
  5
44E
100
AcDbEntity
  8
WAKU0
  6
CONTINUOUS
 62
5
370
    18
100
AcDbLine
 10
1030.000000000000
 20
92.50000000000000
 30
0.0000000000000000
 11
1210.000000000000
 21
92.50000000000000
 31
0.0000000000000000
  0
LINE
  5
44F
100
AcDbEntity
  8
WAKU0
  6
CONTINUOUS
 62
5
370
    18
100
AcDbLine
 10
1030.000000000000
 20
57.50000000000000
 30
0.0000000000000000
 11
1210.000000000000
 21
57.50000000000000
 31
0.0000000000000000
  0
LINE
  5
450
100
AcDbEntity
  8
WAKU0
  6
CONTINUOUS
 62
5
370
    18
100
AcDbLine
 10
1150.000000000000
 20
92.50000000000000
 30
0.0000000000000000
 11
1150.000000000000
 21
30.00000000000000
 31
0.0000000000000000
  0
LINE
  5
451
100
AcDbEntity
  8
WAKU0
  6
CONTINUOUS
 62
5
370
    18
100
AcDbLine
 10
1090.000000000000
 20
92.50000000000000
 30
0.0000000000000000
 11
1090.000000000000
 21
57.50000000000000
 31
0.0000000000000000
  0
LINE
  5
452
100
AcDbEntity
  8
WAKU0
  6
CONTINUOUS
 62
5
370
    18
100
AcDbLine
 10
1180.000000000000
 20
65.00000000000000
 30
0.0000000000000000
 11
1180.000000000000
 21
57.50000000000000
 31
0.0000000000000000
  0
LINE
  5
453
100
AcDbEntity
  8
WAKU0
  6
CONTINUOUS
 62
5
370
    18
100
AcDbLine
 10
1120.000000000000
 20
65.00000000000000
 30
0.0000000000000000
 11
1120.000000000000
 21
57.50000000000000
 31
0.0000000000000000
  0
LINE
  5
454
100
AcDbEntity
  8
WAKU0
  6
CONTINUOUS
 62
5
370
    18
100
AcDbLine
 10
1060.000000000000
 20
65.00000000000000
 30
0.0000000000000000
 11
1060.000000000000
 21
57.50000000000000
 31
0.0000000000000000
  0
LINE
  5
455
100
AcDbEntity
  8
WAKU0
  6
CONTINUOUS
 62
5
370
    18
100
AcDbLine
 10
1075.000000000000
 20
127.5000000000000
 30
0.0000000000000000
 11
1075.000000000000
 21
92.50000000000000
 31
0.0000000000000000
  0
LINE
  5
456
100
AcDbEntity
  8
WAKU0
  6
CONTINUOUS
 62
5
370
    18
100
AcDbLine
 10
1030.000000000000
 20
112.5000000000000
 30
0.0000000000000000
 11
1210.000000000000
 21
112.5000000000000
 31
0.0000000000000000
  0
LINE
  5
457
100
AcDbEntity
  8
WAKU0
  6
HIDDEN
 62
5
370
    18
100
AcDbLine
 10
1331.250000000000
 20
57.50000000000000
 30
0.0000000000000000
 11
1331.250000000000
 21
30.00000000000000
 31
0.0000000000000000
  0
LINE
  5
458
100
AcDbEntity
  8
WAKU0
  6
HIDDEN
 62
5
370
    18
100
AcDbLine
 10
1362.250000000000
 20
57.50000000000000
 30
0.0000000000000000
 11
1362.250000000000
 21
30.00000000000000
 31
0.0000000000000000
  0
MTEXT
  5
459
100
AcDbEntity
  8
WAKU0
  6
CONTINUOUS
 62
7
370
    25
100
AcDbMText
 10
1076.205000057817
 20
123.8749998807907
 30
0.0000000000000000
 40
5.579999828338623
 41
0.0000000000000000
 44
0.7838710287731241
 71
     1
 72
     1
  1
{\H0.93x;{61P2640330}}
 11
1.000000000000000
 21
0.0000000000000000
 31
0.0000000000000000
  7
STANDARD
  0
MTEXT
  5
45A
100
AcDbEntity
  8
WAKU0
  6
CONTINUOUS
 62
7
370
    25
100
AcDbMText
 10
1291.205000057817
 20
122.6249998807907
 30
0.0000000000000000
 40
5.579999828338623
 41
0.0000000000000000
 44
0.8806452252986423
 71
     1
 72
     1
  1
{\H0.91x;{B-28}}
 11
1.000000000000000
 21
0.0000000000000000
 31
0.0000000000000000
  7
STANDARD
  0
MTEXT
  5
45B
100
AcDbEntity
  8
WAKU0
  6
CONTINUOUS
 62
7
370
    25
100
AcDbMText
 10
1291.164999976754
 20
108.7500000000000
 30
0.0000000000000000
 40
5.400000000000000
 41
0.0000000000000000
 44
0.6000000000000000
 71
     1
 72
     1
  1
{\H0.94x;{パワーチャック　２８\PＰＯＷＥＲ　ＣＨＵＣＫ　２８}}
 11
1.000000000000000
 21
0.0000000000000000
 31
0.0000000000000000
  7
STANDARD
  0
MTEXT
  5
45C
100
AcDbEntity
  8
WAKU0
  6
CONTINUOUS
 62
7
370
    25
100
AcDbMText
 10
1291.205000057817
 20
85.58333317438760
 30
0.0000000000000000
 40
5.579999828338623
 41
0.0000000000000000
 44
1.038709733984847
 71
     1
 72
     1
  1
{\H0.94x;{Ｂー２８　ガイケイ\PＢー２８　ＯＵＴＳＩＤＥ　ＶＩＥＷ}}
 11
1.000000000000000
 21
0.0000000000000000
 31
0.0000000000000000
  7
STANDARD
  0
MTEXT
  5
45D
100
AcDbEntity
  8
WAKU0
  6
CONTINUOUS
 62
7
370
    25
100
AcDbMText
 10
1225.012499690056
 20
98.24999988079071
 30
0.0000000000000000
 40
5.579999828338623
 41
0.0000000000000000
 44
1.412903306188993
 71
     1
 72
     1
  1
{\H0.90x;{2:5}}
 11
1.000000000000000
 21
0.0000000000000000
 31
0.0000000000000000
  7
STANDARD
  0
MTEXT
  5
45E
100
AcDbEntity
  8
WAKU0
  6
CONTINUOUS
 62
7
370
    25
100
AcDbMText
 10
1152.574999183416
 20
41.37499988079071
 30
0.0000000000000000
 40
5.579999828338623
 41
0.0000000000000000
 44
0.7838710287731241
 71
     1
 72
     1
  1
{\H0.93x;{10.11.04}}
 11
1.000000000000000
 21
0.0000000000000000
 31
0.0000000000000000
  7
STANDARD
  0
MTEXT
  5
45F
100
AcDbEntity
  8
WAKU0
  6
CONTINUOUS
 62
1
370
    60
100
AcDbMText
 10
1366.000000387430
 20
50.37500023841858
 30
0.0000000000000000
 40
9.540000343322753
 41
0.0000000000000000
 44
0.8660377154786555
 71
     1
 72
     1
  1
{\H0.90x;{4038}}
 11
1.000000000000000
 21
0.0000000000000000
 31
0.0000000000000000
  7
STANDARD
  0
MTEXT
  5
460
100
AcDbEntity
  8
WAKU0
  6
CONTINUOUS
 62
1
370
    60
100
AcDbMText
 10
1335.750000208616
 20
50.37500023841858
 30
0.0000000000000000
 40
9.540000343322753
 41
0.0000000000000000
 44
0.8660377154786555
 71
     1
 72
     1
  1
{\H0.87x;{26}}
 11
1.000000000000000
 21
0.0000000000000000
 31
0.0000000000000000
  7
STANDARD
  0
MTEXT
  5
461
100
AcDbEntity
  8
WAKU0
  6
CONTINUOUS
 62
1
370
    60
100
AcDbMText
 10
1293.750000298023
 20
50.37500023841858
 30
0.0000000000000000
 40
9.540000343322753
 41
0.0000000000000000
 44
0.8660377154786555
 71
     1
 72
     1
  1
{\H0.89x;{61P}}
 11
1.000000000000000
 21
0.0000000000000000
 31
0.0000000000000000
  7
STANDARD
  0
MTEXT
  5
462
100
AcDbEntity
  8
WAKU0
  6
CONTINUOUS
 62
1
370
    60
100
AcDbMText
 10
1430.000000119209
 20
50.37500023841858
 30
0.0000000000000000
 40
9.540000343322753
 41
0.0000000000000000
 44
0.8660377154786555
 71
     1
 72
     1
  1
{\H0.81x;{2}}
 11
1.000000000000000
 21
0.0000000000000000
 31
0.0000000000000000
  7
STANDARD
  0
MTEXT
  5
463
100
AcDbEntity
  8
WAKU0
  6
CONTINUOUS
 62
7
370
    25
100
AcDbMText
 10
1186.774999797344
 20
72.62499988079071
 30
0.0000000000000000
 40
5.579999828338623
 41
0.0000000000000000
 44
1.074193618349679
 71
     1
 72
     1
  1
{\H0.89x;{石丸}}
 11
1.000000000000000
 21
0.0000000000000000
 31
0.0000000000000000
  7
STANDARD
  0
MTEXT
  5
464
100
AcDbEntity
  8
WAKU0
  6
CONTINUOUS
 62
7
370
    25
100
AcDbMText
 10
1430.000000204891
 20
112.1249997615814
 30
0.0000000000000000
 40
9.540000343322753
 41
0.0000000000000000
 44
0.6396226292871933
 71
     7
 72
     1
  1
{\H0.81x;{ }}
 11
1.000000000000000
 21
0.0000000000000000
 31
0.0000000000000000
  7
STANDARD
  0
MTEXT
  5
465
100
AcDbEntity
  8
WAKU0
  6
CONTINUOUS
 62
7
370
    25
100
AcDbMText
 10
1153.462500721216
 20
82.50000000000000
 30
0.0000000000000000
 40
5.400000000000000
 41
0.0000000000000000
 44
0.7000000000000000
 71
     7
 72
     1
  1
{\H0.93x;{DRAWN BY}}
 11
1.000000000000000
 21
0.0000000000000000
 31
0.0000000000000000
  7
STANDARD
  0
MTEXT
  5
466
100
AcDbEntity
  8
WAKU0
  6
CONTINUOUS
 62
7
370
    25
100
AcDbMText
 10
1103.037499487400
 20
82.37500011920929
 30
0.0000000000000000
 40
5.579999828338623
 41
0.0000000000000000
 44
0.6870967861020730
 71
     7
 72
     1
  1
{\H0.92x;{CHIEF}}
 11
1.000000000000000
 21
0.0000000000000000
 31
0.0000000000000000
  7
STANDARD
  0
MTEXT
  5
467
100
AcDbEntity
  8
WAKU0
  6
CONTINUOUS
 62
7
370
    25
100
AcDbMText
 10
1036.062499284744
 20
82.37500011920929
 30
0.0000000000000000
 40
5.579999828338623
 41
0.0000000000000000
 44
0.6870967861020730
 71
     7
 72
     1
  1
{\H0.92x;{MANAGER}}
 11
1.000000000000000
 21
0.0000000000000000
 31
0.0000000000000000
  7
STANDARD
  0
MTEXT
  5
468
100
AcDbEntity
  8
WAKU0
  6
CONTINUOUS
 62
7
370
    25
100
AcDbMText
 10
1032.712500542402
 20
116.2500000000000
 30
0.0000000000000000
 40
5.400000000000000
 41
0.0000000000000000
 44
0.8000000000000000
 71
     7
 72
     1
  1
{\H0.92x;{CAREER}}
 11
1.000000000000000
 21
0.0000000000000000
 31
0.0000000000000000
  7
STANDARD
  0
MTEXT
  5
469
100
AcDbEntity
  8
WAKU0
  6
CONTINUOUS
 62
7
370
    25
100
AcDbMText
 10
1166.524999588728
 20
47.37500011920929
 30
0.0000000000000000
 40
5.579999828338623
 41
0.0000000000000000
 44
0.6870967861020730
 71
     7
 72
     1
  1
{\H0.91x;{DATE}}
 11
1.000000000000000
 21
0.0000000000000000
 31
0.0000000000000000
  7
STANDARD
  0
MTEXT
  5
46A
100
AcDbEntity
  8
WAKU0
  6
CONTINUOUS
 62
7
370
    25
100
AcDbMText
 10
1214.750000536442
 20
66.25000000000000
 30
0.0000000000000000
 40
5.400000000000000
 41
0.0000000000000000
 44
0.9000000000000000
 71
     7
 72
     1
  1
{\H0.63x;{3RD ANGLE}}
 11
1.000000000000000
 21
0.0000000000000000
 31
0.0000000000000000
  7
STANDARD
  0
MTEXT
  5
46B
100
AcDbEntity
  8
WAKU0
  6
CONTINUOUS
 62
7
370
    25
100
AcDbMText
 10
1218.037499487400
 20
114.8750001192093
 30
0.0000000000000000
 40
5.579999828338623
 41
0.0000000000000000
 44
0.8806452252986423
 71
     7
 72
     1
  1
{\H0.92x;{SCALE}}
 11
1.000000000000000
 21
0.0000000000000000
 31
0.0000000000000000
  7
STANDARD
  0
MTEXT
  5
46C
100
AcDbEntity
  8
WAKU0
  6
CONTINUOUS
 62
7
370
    25
100
AcDbMText
 10
1444.250000119209
 20
115.0000000000000
 30
0.0000000000000000
 40
5.400000000000000
 41
0.0000000000000000
 44
0.9000000000000000
 71
     7
 72
     1
  1
{\H0.63x;{kg}}
 11
1.000000000000000
 21
0.0000000000000000
 31
0.0000000000000000
  7
STANDARD
  0
MTEXT
  5
46D
100
AcDbEntity
  8
WAKU0
  6
CONTINUOUS
 62
7
370
    25
100
AcDbMText
 10
1369.000000357628
 20
115.0000000000000
 30
0.0000000000000000
 40
5.400000000000000
 41
0.0000000000000000
 44
0.9000000000000000
 71
     7
 72
     1
  1
{\H0.63x;{WEIGHT}}
 11
1.000000000000000
 21
0.0000000000000000
 31
0.0000000000000000
  7
STANDARD
  0
MTEXT
  5
46E
100
AcDbEntity
  8
WAKU0
  6
CONTINUOUS
 62
7
370
    25
100
AcDbMText
 10
1265.012499690056
 20
45.33333341280620
 30
0.0000000000000000
 40
5.579999828338623
 41
0.0000000000000000
 44
0.8451613409338102
 71
     7
 72
     1
  1
{\H0.90x;{DRW\PNO.}}
 11
1.000000000000000
 21
0.0000000000000000
 31
0.0000000000000000
  7
STANDARD
  0
MTEXT
  5
46F
100
AcDbEntity
  8
WAKU0
  6
CONTINUOUS
 62
7
370
    25
100
AcDbMText
 10
1261.524999588728
 20
79.87500011920929
 30
0.0000000000000000
 40
5.579999828338623
 41
0.0000000000000000
 44
2.235483976655898
 71
     7
 72
     1
  1
{\H0.91x;{NAME}}
 11
1.000000000000000
 21
0.0000000000000000
 31
0.0000000000000000
  7
STANDARD
  0
MTEXT
  5
470
100
AcDbEntity
  8
WAKU0
  6
CONTINUOUS
 62
7
370
    25
100
AcDbMText
 10
1261.524999588728
 20
114.8750001192093
 30
0.0000000000000000
 40
5.579999828338623
 41
0.0000000000000000
 44
0.8806452252986423
 71
     7
 72
     1
  1
{\H0.91x;{TYPE}}
 11
1.000000000000000
 21
0.0000000000000000
 31
0.0000000000000000
  7
STANDARD
  0
LINE
  5
471
100
AcDbEntity
  8
WAKU0
  6
HIDDEN
 62
5
370
    18
100
AcDbLine
 10
1447.899891185971
 20
34.62499976158142
 30
0.0000000000000000
 11
1422.350109052447
 21
34.62499976158142
 31
0.0000000000000000
  0
LINE
  5
472
100
AcDbEntity
  8
WAKU0
  6
HIDDEN
 62
5
370
    18
100
AcDbLine
 10
1447.899891185971
 20
34.62499976158125
 30
0.0000000000000000
 11
1435.125000119213
 21
56.75176015037253
 31
0.0000000000000000
  0
LINE
  5
473
100
AcDbEntity
  8
WAKU0
  6
HIDDEN
 62
5
370
    18
100
AcDbLine
 10
1435.125000119213
 20
56.75176015037253
 30
0.0000000000000000
 11
1422.350109052447
 21
34.62499976158121
 31
0.0000000000000000
  0
MTEXT
  5
474
100
AcDbEntity
  8
WAKU0
  6
CONTINUOUS
 62
1
370
    60
100
AcDbMText
 10
1047.500002403718
 20
51.58678804245535
 30
0.0000000000000000
 40
5.652169275283813
 41
0.0000000000000000
 44
0.6677420288008611
 71
     1
 72
     1
  1
{\H0.83x;{Ｋｉｔａｇａｗａ\PＣｏｒｐｏｒａｔｉｏｎ}}
 11
1.000000000000000
 21
0.0000000000000000
 31
0.0000000000000000
  7
STANDARD
  0
MTEXT
  5
475
100
AcDbEntity
  8
WAKU0
  6
CONTINUOUS
 62
7
370
    25
100
AcDbMText
 10
1180.515437149661
 20
81.10299598502658
 30
0.0000000000000000
 40
5.579999828338623
 41
0.0000000000000000
 44
0.6677419652551825
 71
     1
 72
     1
  1
{\H0.89x;{植松}}
 11
1.000000000000000
 21
0.0000000000000000
 31
0.0000000000000000
  7
STANDARD
  0
INSERT
  5
4C3
100
AcDbEntity
  8
WAKU0
  6
CONTINUOUS
 62
5
100
AcDbBlockReference
  2
M5
 10
0.0000000000000000
 20
0.0000000000000000
 30
0.0000000000000000
 50
0.0000000000000000
  0
LINE
  5
4C4
100
AcDbEntity
  8
WAKU0
  6
CONTINUOUS
 62
3
370
    35
100
AcDbLine
 10
1270.000000000000
 20
1012.499999999991
 30
0.0000000000000000
 11
1270.000000000000
 21
1024.999999999991
 31
0.0000000000000000
  0
LINE
  5
4C5
100
AcDbEntity
  8
WAKU0
  6
CONTINUOUS
 62
3
370
    35
100
AcDbLine
 10
1270.000000000000
 20
1012.500000000000
 30
0.0000000000000000
 11
1455.000000000000
 21
1012.500000000000
 31
0.0000000000000000
  0
LINE
  5
4C6
100
AcDbEntity
  8
WAKU0
  6
CONTINUOUS
 62
3
370
    35
100
AcDbLine
 10
1311.250000000000
 20
1025.000000000000
 30
0.0000000000000000
 11
1311.250000000000
 21
1012.500000000000
 31
0.0000000000000000
  0
LINE
  5
4C7
100
AcDbEntity
  8
WAKU0
  6
CONTINUOUS
 62
3
370
    35
100
AcDbLine
 10
1270.000000000000
 20
1012.500000000000
 30
0.0000000000000000
 11
1270.000000000000
 21
1025.000000000000
 31
0.0000000000000000
  0
MTEXT
  5
4C8
100
AcDbEntity
  8
WAKU0
  6
CONTINUOUS
 62
7
370
    25
100
AcDbMText
 10
1272.425000000000
 20
1022.375000000000
 30
0.0000000000000000
 40
5.400000000000000
 41
0.0000000000000000
 44
0.9000000000000000
 71
     1
 72
     1
  1
{\H0.63x;{CUSTOMER}}
 11
1.000000000000000
 21
0.0000000000000000
 31
0.0000000000000000
  7
STANDARD
  0
LINE
  5
4C9
100
AcDbEntity
  8
WAKU0
  6
CONTINUOUS
 62
3
370
    35
100
AcDbLine
 10
1256.178469438450
 20
39.45103553157031
 30
0.0000000000000000
 11
1256.178469438450
 21
54.45103553157036
 31
0.0000000000000000
  0
LINE
  5
4CA
100
AcDbEntity
  8
WAKU0
  6
CONTINUOUS
 62
3
370
    35
100
AcDbLine
 10
1239.834235307056
 20
43.20103553157027
 30
0.0000000000000000
 11
1239.834235307056
 21
50.70103553157061
 31
0.0000000000000000
  0
LINE
  5
4CB
100
AcDbEntity
  8
WAKU0
  6
CENTER
 62
5
370
    18
100
AcDbLine
 10
1213.580451378749
 20
46.95103553157033
 30
0.0000000000000000
 11
1258.191447241174
 21
46.95103553157033
 31
0.0000000000000000
  0
LINE
  5
4CC
100
AcDbEntity
  8
WAKU0
  6
CENTER
 62
5
370
    18
100
AcDbLine
 10
1223.618641464497
 20
36.39804157296121
 30
0.0000000000000000
 11
1223.618641464497
 21
57.24662755374858
 31
0.0000000000000000
  0
LINE
  5
4CD
100
AcDbEntity
  8
WAKU0
  6
CONTINUOUS
 62
3
370
    35
100
AcDbLine
 10
1239.834235307056
 20
50.70103553156994
 30
0.0000000000000000
 11
1256.178469438450
 21
54.45103553156987
 31
0.0000000000000000
  0
LINE
  5
4CE
100
AcDbEntity
  8
WAKU0
  6
CONTINUOUS
 62
3
370
    35
100
AcDbLine
 10
1239.834235307056
 20
43.20103553157028
 30
0.0000000000000000
 11
1256.178469438450
 21
39.45103553157030
 31
0.0000000000000000
  0
CIRCLE
  5
4CF
100
AcDbEntity
  8
WAKU0
  6
CONTINUOUS
 62
3
370
    35
100
AcDbCircle
 10
1223.618641464497
 20
46.95103553157033
 30
0.0000000000000000
 40
3.749999999999929
  0
CIRCLE
  5
4D0
100
AcDbEntity
  8
WAKU0
  6
CONTINUOUS
 62
3
370
    35
100
AcDbCircle
 10
1223.618641464497
 20
46.95103553157033
 30
0.0000000000000000
 40
7.499999999999947
  0
LINE
  5
4D1
100
AcDbEntity
  8
MDF0
  6
CONTINUOUS
 62
5
370
    18
100
AcDbLine
 10
1270.000000000000
 20
1012.500000000000
 30
0.0000000000000000
 11
1455.000000000000
 21
1012.500000000000
 31
0.0000000000000000
  0
LINE
  5
4D2
100
AcDbEntity
  8
MDF0
  6
CONTINUOUS
 62
5
370
    18
100
AcDbLine
 10
1270.000000000000
 20
1000.000000000000
 30
0.0000000000000000
 11
1455.000000000000
 21
1000.000000000000
 31
0.0000000000000000
  0
LINE
  5
4D3
100
AcDbEntity
  8
MDF0
  6
CONTINUOUS
 62
5
370
    18
100
AcDbLine
 10
1270.000000000000
 20
1012.500000000000
 30
0.0000000000000000
 11
1270.000000000000
 21
1000.000000000000
 31
0.0000000000000000
  0
LINE
  5
4D4
100
AcDbEntity
  8
MDF0
  6
CONTINUOUS
 62
5
370
    18
100
AcDbLine
 10
1455.000000000000
 20
1012.500000000000
 30
0.0000000000000000
 11
1455.000000000000
 21
1000.000000000000
 31
0.0000000000000000
  0
LINE
  5
4D5
100
AcDbEntity
  8
MDF0
  6
CONTINUOUS
 62
5
370
    18
100
AcDbLine
 10
1295.000000000000
 20
1012.500000000000
 30
0.0000000000000000
 11
1295.000000000000
 21
1000.000000000000
 31
0.0000000000000000
  0
LINE
  5
4D6
100
AcDbEntity
  8
MDF0
  6
CONTINUOUS
 62
5
370
    18
100
AcDbLine
 10
1345.000000000000
 20
1012.500000000000
 30
0.0000000000000000
 11
1345.000000000000
 21
1000.000000000000
 31
0.0000000000000000
  0
MTEXT
  5
4D7
100
AcDbEntity
  8
MDF0
  6
CONTINUOUS
 62
7
370
    25
100
AcDbMText
 10
1352.874999968335
 20
1002.375000119209
 30
0.0000000000000000
 40
5.579999828338623
 41
0.0000000000000000
 44
0.6870967861020730
 71
     7
 72
     1
  1
{\H0.71x;{REASON OF REVISION}}
 11
1.000000000000000
 21
0.0000000000000000
 31
0.0000000000000000
  7
STANDARD
  0
MTEXT
  5
4D8
100
AcDbEntity
  8
MDF0
  6
CONTINUOUS
 62
7
370
    25
100
AcDbMText
 10
1304.250000417233
 20
1002.500000000000
 30
0.0000000000000000
 40
5.400000000000000
 41
0.0000000000000000
 44
0.7000000000000000
 71
     7
 72
     1
  1
{\H0.63x;{D A T E}}
 11
1.000000000000000
 21
0.0000000000000000
 31
0.0000000000000000
  7
STANDARD
  0
MTEXT
  5
4D9
100
AcDbEntity
  8
MDF0
  6
CONTINUOUS
 62
7
370
    25
100
AcDbMText
 10
1271.999999582768
 20
1003.750000000000
 30
0.0000000000000000
 40
3.600000000000000
 41
0.0000000000000000
 44
0.8999999999999999
 71
     7
 72
     1
  1
{\H0.63x;{MDF.NO.}}
 11
1.000000000000000
 21
0.0000000000000000
 31
0.0000000000000000
  7
STANDARD
  0
LINE
  5
4DA
100
AcDbEntity
  8
MDF0
  6
CONTINUOUS
 62
5
370
    18
100
AcDbLine
 10
1270.000000000000
 20
987.5000000000000
 30
0.0000000000000000
 11
1455.000000000000
 21
987.5000000000000
 31
0.0000000000000000
  0
LINE
  5
4DB
100
AcDbEntity
  8
MDF0
  6
CONTINUOUS
 62
5
370
    18
100
AcDbLine
 10
1295.000000000000
 20
987.5000000000000
 30
0.0000000000000000
 11
1295.000000000000
 21
1000.000000000000
 31
0.0000000000000000
  0
LINE
  5
4DC
100
AcDbEntity
  8
MDF0
  6
CONTINUOUS
 62
5
370
    18
100
AcDbLine
 10
1345.000000000000
 20
987.5000000000000
 30
0.0000000000000000
 11
1345.000000000000
 21
1000.000000000000
 31
0.0000000000000000
  0
LINE
  5
4DD
100
AcDbEntity
  8
MDF0
  6
CONTINUOUS
 62
5
370
    18
100
AcDbLine
 10
1455.000000000000
 20
987.5000000000000
 30
0.0000000000000000
 11
1455.000000000000
 21
1000.000000000000
 31
0.0000000000000000
  0
LINE
  5
4DE
100
AcDbEntity
  8
MDF0
  6
CONTINUOUS
 62
5
370
    18
100
AcDbLine
 10
1270.000000000000
 20
987.5000000000000
 30
0.0000000000000000
 11
1270.000000000000
 21
1000.000000000000
 31
0.0000000000000000
  0
MTEXT
  5
4DF
100
AcDbEntity
  8
MDF0
  6
CONTINUOUS
 62
7
370
    25
100
AcDbMText
 10
1279.487499892712
 20
997.6249998807907
 30
0.0000000000000000
 40
5.579999828338623
 41
0.0000000000000000
 44
0.6870967861020730
 71
     1
 72
     1
  1
{\H0.81x;{1}}
 11
1.000000000000000
 21
0.0000000000000000
 31
0.0000000000000000
  7
STANDARD
  0
MTEXT
  5
4E0
100
AcDbEntity
  8
MDF0
  6
CONTINUOUS
 62
7
370
    25
100
AcDbMText
 10
1302.000000476837
 20
997.5000000000000
 30
0.0000000000000000
 40
5.400000000000000
 41
0.0000000000000000
 44
0.7000000000000000
 71
     1
 72
     1
  1
{\H0.63x;{11.02.14}}
 11
1.000000000000000
 21
0.0000000000000000
 31
0.0000000000000000
  7
STANDARD
  0
MTEXT
  5
4E1
100
AcDbEntity
  8
MDF0
  6
CONTINUOUS
 62
7
370
    25
100
AcDbMText
 10
1350.500000081956
 20
997.6249998807907
 30
0.0000000000000000
 40
5.579999828338623
 41
0.0000000000000000
 44
0.6870967861020730
 71
     1
 72
     1
  1
{\H0.94x;{シリンダ変更　△１ヶ所}}
 11
1.000000000000000
 21
0.0000000000000000
 31
0.0000000000000000
  7
STANDARD
  0
LINE
  5
4E2
100
AcDbEntity
  8
MDF0
  6
CONTINUOUS
 62
5
370
    18
100
AcDbLine
 10
1270.000000000000
 20
975.0000000000000
 30
0.0000000000000000
 11
1455.000000000000
 21
975.0000000000000
 31
0.0000000000000000
  0
LINE
  5
4E3
100
AcDbEntity
  8
MDF0
  6
CONTINUOUS
 62
5
370
    18
100
AcDbLine
 10
1295.000000000000
 20
975.0000000000000
 30
0.0000000000000000
 11
1295.000000000000
 21
987.5000000000000
 31
0.0000000000000000
  0
LINE
  5
4E4
100
AcDbEntity
  8
MDF0
  6
CONTINUOUS
 62
5
370
    18
100
AcDbLine
 10
1345.000000000000
 20
975.0000000000000
 30
0.0000000000000000
 11
1345.000000000000
 21
987.5000000000000
 31
0.0000000000000000
  0
LINE
  5
4E5
100
AcDbEntity
  8
MDF0
  6
CONTINUOUS
 62
5
370
    18
100
AcDbLine
 10
1455.000000000000
 20
975.0000000000000
 30
0.0000000000000000
 11
1455.000000000000
 21
987.5000000000000
 31
0.0000000000000000
  0
LINE
  5
4E6
100
AcDbEntity
  8
MDF0
  6
CONTINUOUS
 62
5
370
    18
100
AcDbLine
 10
1270.000000000000
 20
975.0000000000000
 30
0.0000000000000000
 11
1270.000000000000
 21
987.5000000000000
 31
0.0000000000000000
  0
MTEXT
  5
4E7
100
AcDbEntity
  8
MDF0
  6
CONTINUOUS
 62
7
370
    25
100
AcDbMText
 10
1279.487499892712
 20
985.1249998807907
 30
0.0000000000000000
 40
5.579999828338623
 41
0.0000000000000000
 44
0.6870967861020730
 71
     1
 72
     1
  1
{\H0.81x;{2}}
 11
1.000000000000000
 21
0.0000000000000000
 31
0.0000000000000000
  7
STANDARD
  0
MTEXT
  5
4E8
100
AcDbEntity
  8
MDF0
  6
CONTINUOUS
 62
7
370
    25
100
AcDbMText
 10
1302.000000476837
 20
985.0000000000000
 30
0.0000000000000000
 40
5.400000000000000
 41
0.0000000000000000
 44
0.7000000000000000
 71
     1
 72
     1
  1
{\H0.63x;{24.06.06}}
 11
1.000000000000000
 21
0.0000000000000000
 31
0.0000000000000000
  7
STANDARD
  0
MTEXT
  5
4E9
100
AcDbEntity
  8
MDF0
  6
CONTINUOUS
 62
7
370
    25
100
AcDbMText
 10
1350.500000081956
 20
985.0000000000000
 30
0.0000000000000000
 40
5.400000000000000
 41
0.0000000000000000
 44
0.7000000000000000
 71
     1
 72
     1
  1
{\H0.59x;{和英併記へ変更、注記追加　△4ヶ所}}
 11
1.000000000000000
 21
0.0000000000000000
 31
0.0000000000000000
  7
STANDARD
  0
MTEXT
  5
4EA
100
AcDbEntity
  8
SP1
  6
CONTINUOUS
 62
7
370
    25
100
AcDbMText
 10
283.0905529965673
 20
169.6035019489297
 30
0.0000000000000000
 40
5.579999828338623
 41
0.0000000000000000
 44
0.6677419652551825
 71
     1
 72
     1
  1
{\H0.93x;{S2816-47A}}
 11
1.000000000000000
 21
0.0000000000000000
 31
0.0000000000000000
  7
STANDARD
  0
LINE
  5
4EB
100
AcDbEntity
  8
SP1
  6
CONTINUOUS
 62
7
370
    25
100
AcDbLine
 10
283.0905529965673
 20
167.2285020681390
 30
0.0000000000000000
 11
344.9155566205297
 21
167.2285020681390
 31
0.0000000000000000
  0
LINE
  5
4EC
100
AcDbEntity
  8
SP1
  6
CONTINUOUS
 62
7
370
    25
100
AcDbLine
 10
283.0905529965673
 20
164.2285020681390
 30
0.0000000000000000
 11
344.9155566205297
 21
164.2285020681390
 31
0.0000000000000000
  0
LEADER
  5
4ED
100
AcDbEntity
  8
SP1
  6
CONTINUOUS
 62
5
370
    18
100
AcDbLeader
  3
SP005
 73
     0
 74
     0
 75
     0
 40
0.0000000000000000
 41
0.0000000000000000
 76
     4
 10
284.1662343532724
 20
171.8801016025267
 30
0.0000000000000000
 10
295.4162343532724
 20
171.8801016025267
 30
0.0000000000000000
 10
289.7912343532724
 20
181.6228873951016
 30
0.0000000000000000
 10
284.1662343532724
 20
171.8801016025266
 30
0.0000000000000000
340
4EE
213
-3.675000000000011
223
-0.7500000000000853
233
0.0000000000000000
1001
ACAD
1000
DSTYLE
1002
{
1070
   147
1040
0.0
1070
    77
1070
     0
1070
   341
1005
1
1070
    41
1040
2.000000
1002
}
  0
MTEXT
  5
4EE
102
{ACAD_REACTORS
330
4ED
102
}
100
AcDbEntity
  8
SP1
  6
CONTINUOUS
 62
7
370
    25
100
AcDbMText
 10
287.8412343532724
 20
177.6301016025267
 30
0.0000000000000000
 40
3.600000000000000
 41
0.0000000000000000
 44
0.6720000028610229
 71
     1
 72
     1
  1
{\H0.82x;{1}}
 11
1.000000000000000
 21
0.0000000000000000
 31
0.0000000000000000
  7
STANDARD
  0
MTEXT
  5
4EF
100
AcDbEntity
  8
SP0
  6
CONTINUOUS
 62
7
370
    25
100
AcDbMText
 10
96.07486602656856
 20
130.9565788188963
 30
0.0000000000000000
 40
5.580000686645508
 41
0.0000000000000000
 44
0.6719999870792528
 71
     1
 72
     1
  1
{\H0.95x;{上記仕様は標準ソフトジョー付で許容最大入力時の場合\Pまた最大静的把握力、および許容最高回転速度については\Pソフトジョーの面上高さの１／２での理論値を示す}}
 11
1.000000000000000
 21
0.0000000000000000
 31
0.0000000000000000
  7
STANDARD
  0
CIRCLE
  5
4F0
100
AcDbEntity
  8
SP0
  6
CONTINUOUS
 62
7
370
    25
100
AcDbCircle
 10
90.81654099013782
 20
126.9049971442595
 30
0.0000000000000000
 40
2.500000000000000
  0
MTEXT
  5
4F1
100
AcDbEntity
  8
SP0
  6
CONTINUOUS
 62
7
370
    25
100
AcDbMText
 10
80.53664865006589
 20
103.6399186710901
 30
0.0000000000000000
 40
5.579999828338623
 41
0.0000000000000000
 44
0.6677419652551825
 71
     1
 72
     1
  3
{\H0.94x;{ABOVE\P SPECS  WITH STD SOFT BLANK TOP JAWS\P        AT MAX PERMISSIBLE INPUT FORCE.\P        MAX. STATIC GRIPPING FORCE AND\P        MAX. PERMISSIBLE SPEED ARE\P        THEORETICAL VALUE AT 1/2 HEIGHT\P        OF STD SOFT BLANK TOP JAWS\P 
  1
       FROM CHUCK SURFACE.}}
 11
1.000000000000000
 21
0.0000000000000000
 31
0.0000000000000000
  7
STANDARD
  0
LINE
  5
4F2
100
AcDbEntity
  8
SP0
  6
CONTINUOUS
 62
3
370
    35
100
AcDbLine
 10
86.54930588140680
 20
370.3599900668671
 30
0.0000000000000000
 11
279.0493058814068
 21
370.3599900668671
 31
0.0000000000000000
  0
LINE
  5
4F3
100
AcDbEntity
  8
SP0
  6
CONTINUOUS
 62
3
370
    35
100
AcDbLine
 10
86.54930588140680
 20
345.3599900668671
 30
0.0000000000000000
 11
279.0493058814068
 21
345.3599900668671
 31
0.0000000000000000
  0
LINE
  5
4F4
100
AcDbEntity
  8
SP0
  6
CONTINUOUS
 62
3
370
    35
100
AcDbLine
 10
86.54930588140665
 20
132.8599900668672
 30
0.0000000000000000
 11
86.54930588140665
 21
370.3599900668671
 31
0.0000000000000000
  0
LINE
  5
4F5
100
AcDbEntity
  8
SP0
  6
CONTINUOUS
 62
7
370
    25
100
AcDbLine
 10
86.54930588140680
 20
327.8599900668677
 30
0.0000000000000000
 11
279.0493058814067
 21
327.8599900668677
 31
0.0000000000000000
  0
LINE
  5
4F6
100
AcDbEntity
  8
SP0
  6
CONTINUOUS
 62
7
370
    25
100
AcDbLine
 10
86.54930588140680
 20
310.3599900668677
 30
0.0000000000000000
 11
279.0493058814067
 21
310.3599900668677
 31
0.0000000000000000
  0
LINE
  5
4F7
100
AcDbEntity
  8
SP0
  6
CONTINUOUS
 62
7
370
    25
100
AcDbLine
 10
86.54930588140680
 20
285.3599900668675
 30
0.0000000000000000
 11
279.0493058814067
 21
285.3599900668675
 31
0.0000000000000000
  0
LINE
  5
4F8
100
AcDbEntity
  8
SP0
  6
CONTINUOUS
 62
7
370
    25
100
AcDbLine
 10
86.54930588140680
 20
260.3599900668675
 30
0.0000000000000000
 11
279.0493058814067
 21
260.3599900668675
 31
0.0000000000000000
  0
LINE
  5
4F9
100
AcDbEntity
  8
SP0
  6
CONTINUOUS
 62
7
370
    25
100
AcDbLine
 10
86.54930588140680
 20
242.8599900668675
 30
0.0000000000000000
 11
279.0493058814067
 21
242.8599900668675
 31
0.0000000000000000
  0
LINE
  5
4FA
100
AcDbEntity
  8
SP0
  6
CONTINUOUS
 62
7
370
    25
100
AcDbLine
 10
86.54930588140680
 20
225.3599900668675
 30
0.0000000000000000
 11
279.0493058814067
 21
225.3599900668675
 31
0.0000000000000000
  0
LINE
  5
4FB
100
AcDbEntity
  8
SP0
  6
CONTINUOUS
 62
7
370
    25
100
AcDbLine
 10
86.54930588140680
 20
200.3599900668672
 30
0.0000000000000000
 11
279.0493058814067
 21
200.3599900668672
 31
0.0000000000000000
  0
LINE
  5
4FC
100
AcDbEntity
  8
SP0
  6
CONTINUOUS
 62
7
370
    25
100
AcDbLine
 10
86.54930588140680
 20
175.3599900668672
 30
0.0000000000000000
 11
279.0493058814067
 21
175.3599900668672
 31
0.0000000000000000
  0
LINE
  5
4FD
100
AcDbEntity
  8
SP0
  6
CONTINUOUS
 62
7
370
    25
100
AcDbLine
 10
86.54930588140680
 20
157.8599900668672
 30
0.0000000000000000
 11
279.0493058814067
 21
157.8599900668672
 31
0.0000000000000000
  0
LINE
  5
4FE
100
AcDbEntity
  8
SP0
  6
CONTINUOUS
 62
3
370
    35
100
AcDbLine
 10
86.54930588140682
 20
132.8599900668671
 30
0.0000000000000000
 11
279.0493058814067
 21
132.8599900668664
 31
0.0000000000000000
  0
LINE
  5
4FF
100
AcDbEntity
  8
SP0
  6
CONTINUOUS
 62
7
370
    25
100
AcDbLine
 10
204.0493058814065
 20
132.8599900668667
 30
0.0000000000000000
 11
204.0493058814065
 21
345.3599900668673
 31
0.0000000000000000
  0
LINE
  5
500
100
AcDbEntity
  8
SP0
  6
CONTINUOUS
 62
3
370
    35
100
AcDbLine
 10
279.0493058814067
 20
132.8599900668665
 30
0.0000000000000000
 11
279.0493058814067
 21
370.3599900668672
 31
0.0000000000000000
  0
MTEXT
  5
501
100
AcDbEntity
  8
SP0
  6
CONTINUOUS
 62
7
370
    25
100
AcDbMText
 10
94.23307701669451
 20
336.0182262168878
 30
0.0000000000000000
 40
4.319999313354492
 41
0.0000000000000000
 44
0.6719999785423244
 71
     1
 72
     1
  1
{\H0.93x;{プランジャストロ－ク}}
 11
1.000000000000000
 21
0.0000000000000000
 31
0.0000000000000000
  7
STANDARD
  0
MTEXT
  5
502
100
AcDbEntity
  8
SP0
  6
CONTINUOUS
 62
7
370
    25
100
AcDbMText
 10
94.23307701669458
 20
318.5182262168884
 30
0.0000000000000000
 40
4.319999313354492
 41
0.0000000000000000
 44
0.6719999785423244
 71
     1
 72
     1
  1
{\H0.94x;{ジョーストローク(直径で)}}
 11
1.000000000000000
 21
0.0000000000000000
 31
0.0000000000000000
  7
STANDARD
  0
MTEXT
  5
503
100
AcDbEntity
  8
SP0
  6
CONTINUOUS
 62
7
370
    25
100
AcDbMText
 10
94.23307701669451
 20
296.0182262168884
 30
0.0000000000000000
 40
4.319999313354492
 41
0.0000000000000000
 44
0.6719999785423244
 71
     1
 72
     1
  1
{\H0.93x;{許容最大入力　}}
 11
1.000000000000000
 21
0.0000000000000000
 31
0.0000000000000000
  7
STANDARD
  0
MTEXT
  5
504
100
AcDbEntity
  8
SP0
  6
CONTINUOUS
 62
7
370
    25
100
AcDbMText
 10
94.23307701669451
 20
276.0182262168881
 30
0.0000000000000000
 40
4.319999313354492
 41
0.0000000000000000
 44
0.6719999785423244
 71
     1
 72
     1
  1
{\H0.93x;{最大静的把握力　　}}
 11
1.000000000000000
 21
0.0000000000000000
 31
0.0000000000000000
  7
STANDARD
  0
MTEXT
  5
505
100
AcDbEntity
  8
SP0
  6
CONTINUOUS
 62
7
370
    25
100
AcDbMText
 10
94.23307701669451
 20
251.0182262168881
 30
0.0000000000000000
 40
4.319999313354492
 41
0.0000000000000000
 44
0.6719999785423244
 71
     1
 72
     1
  1
{\H0.93x;{許容最高回転速度　}}
 11
1.000000000000000
 21
0.0000000000000000
 31
0.0000000000000000
  7
STANDARD
  0
MTEXT
  5
506
100
AcDbEntity
  8
SP0
  6
CONTINUOUS
 62
7
370
    25
100
AcDbMText
 10
94.23307701669451
 20
233.5182262168881
 30
0.0000000000000000
 40
4.319999313354492
 41
0.0000000000000000
 44
0.6719999785423244
 71
     1
 72
     1
  1
{\H0.89x;{質量\P}
 11
1.000000000000000
 21
0.0000000000000000
 31
0.0000000000000000
  7
STANDARD
  0
MTEXT
  5
507
100
AcDbEntity
  8
SP0
  6
CONTINUOUS
 62
7
370
    25
100
AcDbMText
 10
94.23307701669451
 20
183.5182262168879
 30
0.0000000000000000
 40
4.319999313354492
 41
0.0000000000000000
 44
0.6719999785423244
 71
     1
 72
     1
  1
{\H0.94x;{最高回転時の動的把握力}}
 11
1.000000000000000
 21
0.0000000000000000
 31
0.0000000000000000
  7
STANDARD
  0
MTEXT
  5
508
100
AcDbEntity
  8
SP0
  6
CONTINUOUS
 62
7
370
    25
100
AcDbMText
 10
94.23307701669444
 20
166.0182262168879
 30
0.0000000000000000
 40
4.319999313354492
 41
0.0000000000000000
 44
0.6719999785423244
 71
     1
 72
     1
  1
{\H0.93x;{使用シリンダ}}
 11
1.000000000000000
 21
0.0000000000000000
 31
0.0000000000000000
  7
STANDARD
  0
MTEXT
  5
509
100
AcDbEntity
  8
SP0
  6
CONTINUOUS
 62
7
370
    25
100
AcDbMText
 10
93.75824290556729
 20
143.8112150625813
 30
0.0000000000000000
 40
4.319999313354492
 41
0.0000000000000000
 44
0.6719999785423244
 71
     1
 72
     1
  1
{\H0.93x;{許容最大油圧力}}
 11
1.000000000000000
 21
0.0000000000000000
 31
0.0000000000000000
  7
STANDARD
  0
MTEXT
  5
50A
100
AcDbEntity
  8
SP0
  6
CONTINUOUS
 62
7
370
    25
100
AcDbMText
 10
241.5493058814065
 20
337.3599881595185
 30
0.0000000000000000
 40
5.039998626708984
 41
0.0000000000000000
 44
0.6720000122615303
 71
     1
 72
     1
  1
{\H0.58x;{　　　　ｍｍ}}
 11
1.000000000000000
 21
0.0000000000000000
 31
0.0000000000000000
  7
STANDARD
  0
MTEXT
  5
50B
100
AcDbEntity
  8
SP0
  6
CONTINUOUS
 62
7
370
    25
100
AcDbMText
 10
241.5493058814065
 20
319.8599881595185
 30
0.0000000000000000
 40
5.039998626708984
 41
0.0000000000000000
 44
0.6720000122615303
 71
     1
 72
     1
  1
{\H0.58x;{　　　　ｍｍ}}
 11
1.000000000000000
 21
0.0000000000000000
 31
0.0000000000000000
  7
STANDARD
  0
MTEXT
  5
50C
100
AcDbEntity
  8
SP0
  6
CONTINUOUS
 62
7
370
    25
100
AcDbMText
 10
241.5493058814065
 20
234.8599881595182
 30
0.0000000000000000
 40
5.039998626708984
 41
0.0000000000000000
 44
0.6720000122615303
 71
     1
 72
     1
  1
{\H0.58x;{　　　　ｋｇ}}
 11
1.000000000000000
 21
0.0000000000000000
 31
0.0000000000000000
  7
STANDARD
  0
MTEXT
  5
50D
100
AcDbEntity
  8
SP0
  6
CONTINUOUS
 62
7
370
    25
100
AcDbMText
 10
241.5493058814065
 20
252.3599881595182
 30
0.0000000000000000
 40
5.039998626708984
 41
0.0000000000000000
 44
0.6720000122615303
 71
     1
 72
     1
  1
{\H0.58x;{　　ｍｉｎ}}
 11
1.000000000000000
 21
0.0000000000000000
 31
0.0000000000000000
  7
STANDARD
  0
MTEXT
  5
50E
100
AcDbEntity
  8
SP0
  6
CONTINUOUS
 62
3
370
    35
100
AcDbMText
 10
153.7279076213296
 20
356.1489626796517
 30
0.0000000000000000
 40
5.580000686645508
 41
0.0000000000000000
 44
0.6719999870792528
 71
     1
 72
     1
  1
{\H0.93x;{仕　　　様}}
 11
1.000000000000000
 21
0.0000000000000000
 31
0.0000000000000000
  7
STANDARD
  0
MTEXT
  5
50F
100
AcDbEntity
  8
SP0
  6
CONTINUOUS
 62
7
370
    25
100
AcDbMText
 10
239.0493058814065
 20
293.6099881595182
 30
0.0000000000000000
 40
5.039998626708984
 41
0.0000000000000000
 44
0.6720000122615303
 71
     1
 72
     1
  1
{\H0.60x;{　　　ｋｇｆ)}}
 11
1.000000000000000
 21
0.0000000000000000
 31
0.0000000000000000
  7
STANDARD
  0
MTEXT
  5
510
100
AcDbEntity
  8
SP0
  6
CONTINUOUS
 62
7
370
    25
100
AcDbMText
 10
209.0493058814065
 20
293.6099881595182
 30
0.0000000000000000
 40
5.039998626708984
 41
0.0000000000000000
 44
0.6720000122615303
 71
     1
 72
     1
  1
{\H0.60x;{(}}
 11
1.000000000000000
 21
0.0000000000000000
 31
0.0000000000000000
  7
STANDARD
  0
MTEXT
  5
511
100
AcDbEntity
  8
SP0
  6
CONTINUOUS
 62
7
370
    25
100
AcDbMText
 10
241.5493058814065
 20
303.6099881595185
 30
0.0000000000000000
 40
5.039998626708984
 41
0.0000000000000000
 44
0.6720000122615303
 71
     1
 72
     1
  1
{\H0.58x;{　　　　ｋＮ}}
 11
1.000000000000000
 21
0.0000000000000000
 31
0.0000000000000000
  7
STANDARD
  0
MTEXT
  5
512
100
AcDbEntity
  8
SP0
  6
CONTINUOUS
 62
7
370
    25
100
AcDbMText
 10
239.0493058814065
 20
268.6099881595182
 30
0.0000000000000000
 40
5.039998626708984
 41
0.0000000000000000
 44
0.6720000122615303
 71
     1
 72
     1
  1
{\H0.60x;{　　　ｋｇｆ)}}
 11
1.000000000000000
 21
0.0000000000000000
 31
0.0000000000000000
  7
STANDARD
  0
MTEXT
  5
513
100
AcDbEntity
  8
SP0
  6
CONTINUOUS
 62
7
370
    25
100
AcDbMText
 10
209.0493058814065
 20
268.6099881595182
 30
0.0000000000000000
 40
5.039998626708984
 41
0.0000000000000000
 44
0.6720000122615303
 71
     1
 72
     1
  1
{\H0.60x;{(}}
 11
1.000000000000000
 21
0.0000000000000000
 31
0.0000000000000000
  7
STANDARD
  0
MTEXT
  5
514
100
AcDbEntity
  8
SP0
  6
CONTINUOUS
 62
7
370
    25
100
AcDbMText
 10
235.9242884606245
 20
216.4224885000821
 30
0.0000000000000000
 40
5.039998626708984
 41
0.0000000000000000
 44
0.6720000122615303
 71
     1
 72
     1
  1
{\H0.62x;{　　　Kg・ｍ}}
 11
1.000000000000000
 21
0.0000000000000000
 31
0.0000000000000000
  7
STANDARD
  0
MTEXT
  5
515
100
AcDbEntity
  8
SP0
  6
CONTINUOUS
 62
7
370
    25
100
AcDbMText
 10
271.3256708179652
 20
217.0614149779116
 30
0.0000000000000000
 40
3.600000000000000
 41
0.0000000000000000
 44
0.6720000028610229
 71
     1
 72
     1
  1
{\H0.81x;{2}}
 11
1.000000000000000
 21
0.0000000000000000
 31
0.0000000000000000
  7
STANDARD
  0
MTEXT
  5
516
100
AcDbEntity
  8
SP0
  6
CONTINUOUS
 62
7
370
    25
100
AcDbMText
 10
239.0493058814065
 20
183.6099881595182
 30
0.0000000000000000
 40
5.039998626708984
 41
0.0000000000000000
 44
0.6720000122615303
 71
     1
 72
     1
  1
{\H0.60x;{　　　ｋｇｆ)}}
 11
1.000000000000000
 21
0.0000000000000000
 31
0.0000000000000000
  7
STANDARD
  0
MTEXT
  5
517
100
AcDbEntity
  8
SP0
  6
CONTINUOUS
 62
7
370
    25
100
AcDbMText
 10
209.0493058814065
 20
183.6099881595182
 30
0.0000000000000000
 40
5.039998626708984
 41
0.0000000000000000
 44
0.6720000122615303
 71
     1
 72
     1
  1
{\H0.60x;{(}}
 11
1.000000000000000
 21
0.0000000000000000
 31
0.0000000000000000
  7
STANDARD
  0
MTEXT
  5
518
100
AcDbEntity
  8
SP0
  6
CONTINUOUS
 62
7
370
    25
100
AcDbMText
 10
239.0493058814065
 20
141.1099881595178
 30
0.0000000000000000
 40
5.039998626708984
 41
0.0000000000000000
 44
0.6720000122615303
 71
     1
 72
     1
  1
{\H0.62x;{ｋｇｆ／ｃｍ )}}
 11
1.000000000000000
 21
0.0000000000000000
 31
0.0000000000000000
  7
STANDARD
  0
MTEXT
  5
519
100
AcDbEntity
  8
SP0
  6
CONTINUOUS
 62
7
370
    25
100
AcDbMText
 10
269.1825454648208
 20
142.1360001374227
 30
0.0000000000000000
 40
3.600000000000000
 41
0.0000000000000000
 44
0.6720000028610229
 71
     1
 72
     1
  1
{\H0.81x;{2}}
 11
1.000000000000000
 21
0.0000000000000000
 31
0.0000000000000000
  7
STANDARD
  0
MTEXT
  5
51A
100
AcDbEntity
  8
SP0
  6
CONTINUOUS
 62
7
370
    25
100
AcDbMText
 10
209.0493058814065
 20
141.1099881595178
 30
0.0000000000000000
 40
5.039998626708984
 41
0.0000000000000000
 44
0.6720000122615303
 71
     1
 72
     1
  1
{\H0.60x;{(}}
 11
1.000000000000000
 21
0.0000000000000000
 31
0.0000000000000000
  7
STANDARD
  0
MTEXT
  5
51B
100
AcDbEntity
  8
SP0
  6
CONTINUOUS
 62
7
370
    25
100
AcDbMText
 10
241.5493058814065
 20
151.1099881595178
 30
0.0000000000000000
 40
5.039998626708984
 41
0.0000000000000000
 44
0.6720000122615303
 71
     1
 72
     1
  1
{\H0.58x;{　　　ＭＰａ}}
 11
1.000000000000000
 21
0.0000000000000000
 31
0.0000000000000000
  7
STANDARD
  0
MTEXT
  5
51C
100
AcDbEntity
  8
SP0
  6
CONTINUOUS
 62
7
370
    25
100
AcDbMText
 10
241.5493058814065
 20
278.6099881595182
 30
0.0000000000000000
 40
5.039998626708984
 41
0.0000000000000000
 44
0.6720000122615303
 71
     1
 72
     1
  1
{\H0.58x;{　　　　ｋＮ}}
 11
1.000000000000000
 21
0.0000000000000000
 31
0.0000000000000000
  7
STANDARD
  0
MTEXT
  5
51D
100
AcDbEntity
  8
SP0
  6
CONTINUOUS
 62
7
370
    25
100
AcDbMText
 10
241.5493058814065
 20
193.6099881595182
 30
0.0000000000000000
 40
5.039998626708984
 41
0.0000000000000000
 44
0.6720000122615303
 71
     1
 72
     1
  1
{\H0.58x;{　　　　ｋＮ}}
 11
1.000000000000000
 21
0.0000000000000000
 31
0.0000000000000000
  7
STANDARD
  0
MTEXT
  5
51E
100
AcDbEntity
  8
SP0
  6
CONTINUOUS
 62
7
370
    25
100
AcDbMText
 10
266.9359765022064
 20
254.0338495417551
 30
0.0000000000000000
 40
3.600000000000000
 41
0.0000000000000000
 44
0.6720000028610229
 71
     1
 72
     1
  1
{\H0.88x;{-1}}
 11
1.000000000000000
 21
0.0000000000000000
 31
0.0000000000000000
  7
STANDARD
  0
MTEXT
  5
51F
100
AcDbEntity
  8
SP0
  6
CONTINUOUS
 62
7
370
    25
100
AcDbMText
 10
94.23307701669451
 20
343.7682247863763
 30
0.0000000000000000
 40
4.499998283386230
 41
0.0000000000000000
 44
0.6720000160217347
 71
     1
 72
     1
  1
{\H0.75x;{PLUNGER STROKE}}
 11
1.000000000000000
 21
0.0000000000000000
 31
0.0000000000000000
  7
STANDARD
  0
MTEXT
  5
520
100
AcDbEntity
  8
SP0
  6
CONTINUOUS
 62
7
370
    25
100
AcDbMText
 10
94.23307701669458
 20
326.2682247863769
 30
0.0000000000000000
 40
4.499998283386230
 41
0.0000000000000000
 44
0.6720000160217347
 71
     1
 72
     1
  1
{\H0.75x;{JAW STROKE (IN DIA)}}
 11
1.000000000000000
 21
0.0000000000000000
 31
0.0000000000000000
  7
STANDARD
  0
MTEXT
  5
521
100
AcDbEntity
  8
SP0
  6
CONTINUOUS
 62
7
370
    25
100
AcDbMText
 10
94.23307701669451
 20
303.7682271705627
 30
0.0000000000000000
 40
4.499999999999999
 41
0.0000000000000000
 44
0.8400000000000000
 71
     1
 72
     1
  1
{\H0.63x;{MAX PERMISSIBLE INPUT FORCE}}
 11
1.000000000000000
 21
0.0000000000000000
 31
0.0000000000000000
  7
STANDARD
  0
MTEXT
  5
522
100
AcDbEntity
  8
SP0
  6
CONTINUOUS
 62
7
370
    25
100
AcDbMText
 10
94.23307701669451
 20
283.7682271705624
 30
0.0000000000000000
 40
4.499999999999999
 41
0.0000000000000000
 44
0.8400000000000000
 71
     1
 72
     1
  1
{\H0.63x;{MAX STATIC GRIPPING FORCE}}
 11
1.000000000000000
 21
0.0000000000000000
 31
0.0000000000000000
  7
STANDARD
  0
MTEXT
  5
523
100
AcDbEntity
  8
SP0
  6
CONTINUOUS
 62
7
370
    25
100
AcDbMText
 10
94.23307701669451
 20
258.7682247863766
 30
0.0000000000000000
 40
4.499998283386230
 41
0.0000000000000000
 44
0.6720000160217347
 71
     1
 72
     1
  1
{\H0.75x;{MAX PERMISSIBLE SPEED}}
 11
1.000000000000000
 21
0.0000000000000000
 31
0.0000000000000000
  7
STANDARD
  0
MTEXT
  5
524
100
AcDbEntity
  8
SP0
  6
CONTINUOUS
 62
7
370
    25
100
AcDbMText
 10
94.23307701669451
 20
241.2682247863766
 30
0.0000000000000000
 40
4.499998283386230
 41
0.0000000000000000
 44
0.6720000160217347
 71
     1
 72
     1
  1
{\H0.73x;{MASS}}
 11
1.000000000000000
 21
0.0000000000000000
 31
0.0000000000000000
  7
STANDARD
  0
MTEXT
  5
525
100
AcDbEntity
  8
SP0
  6
CONTINUOUS
 62
7
370
    25
100
AcDbMText
 10
94.41816624595347
 20
175.0774910538089
 30
0.0000000000000000
 40
4.499998283386230
 41
0.0000000000000000
 44
0.6720000160217347
 71
     1
 72
     1
  1
{\H0.75x;{OPERATING CYLINDER}}
 11
1.000000000000000
 21
0.0000000000000000
 31
0.0000000000000000
  7
STANDARD
  0
MTEXT
  5
526
100
AcDbEntity
  8
SP0
  6
CONTINUOUS
 62
7
370
    25
100
AcDbMText
 10
93.42828123537416
 20
152.9701433504970
 30
0.0000000000000000
 40
4.499999999999999
 41
0.0000000000000000
 44
0.8400000000000000
 71
     1
 72
     1
  1
{\H0.63x;{MAX PERMISSIBLE OIL PRESS}}
 11
1.000000000000000
 21
0.0000000000000000
 31
0.0000000000000000
  7
STANDARD
  0
MTEXT
  5
527
100
AcDbEntity
  8
SP0
  6
CONTINUOUS
 62
7
370
    25
100
AcDbMText
 10
94.08820457576042
 20
197.5147989021902
 30
0.0000000000000000
 40
4.499999999999999
 41
0.0000000000000000
 44
0.8400000000000000
 71
     1
 72
     1
  1
{\H0.63x;{DYNAMIC GRIPPING FORCE}}
 11
1.000000000000000
 21
0.0000000000000000
 31
0.0000000000000000
  7
STANDARD
  0
MTEXT
  5
528
100
AcDbEntity
  8
SP0
  6
CONTINUOUS
 62
7
370
    25
100
AcDbMText
 10
71.12111974685000
 20
190.8053654214109
 30
0.0000000000000000
 40
4.499998283386230
 41
0.0000000000000000
 44
0.6720000160217347
 71
     1
 72
     1
  1
{\H0.75x;{            AT MAX SPEED}}
 11
1.000000000000000
 21
0.0000000000000000
 31
0.0000000000000000
  7
STANDARD
  0
MTEXT
  5
529
100
AcDbEntity
  8
SP0
  6
CONTINUOUS
 62
3
370
    35
100
AcDbMText
 10
129.2199248987709
 20
366.2603014483225
 30
0.0000000000000000
 40
5.580000686645508
 41
0.0000000000000000
 44
0.6719999870792528
 71
     1
 72
     1
  1
{\H0.94x;{SPECIFICATIONS}}
 11
1.000000000000000
 21
0.0000000000000000
 31
0.0000000000000000
  7
STANDARD
  0
MTEXT
  5
52A
100
AcDbEntity
  8
SP0
  6
CONTINUOUS
 62
7
370
    25
100
AcDbMText
 10
94.59296060096627
 20
220.0982347411887
 30
0.0000000000000000
 40
4.499998283386230
 41
0.0000000000000000
 44
0.6720000160217347
 71
     1
 72
     1
  1
{\H0.75x;{MOMENT OF INERTIA}}
 11
1.000000000000000
 21
0.0000000000000000
 31
0.0000000000000000
  7
STANDARD
  0
MTEXT
  5
52B
100
AcDbEntity
  8
SP0
  6
CONTINUOUS
 62
7
370
    25
100
AcDbMText
 10
93.96796222298015
 20
211.4107313864646
 30
0.0000000000000000
 40
4.319999313354492
 41
0.0000000000000000
 44
0.6719999785423244
 71
     1
 72
     1
  1
{\H0.93x;{慣性モーメント}}
 11
1.000000000000000
 21
0.0000000000000000
 31
0.0000000000000000
  7
STANDARD
  0
MTEXT
  5
52C
100
AcDbEntity
  8
SP0
  6
CONTINUOUS
 62
7
370
    25
100
AcDbMText
 10
209.0493058814065
 20
340.6099898284491
 30
0.0000000000000000
 40
5.579999828338623
 41
0.0000000000000000
 44
0.6677419652551825
 71
     1
 72
     1
  1
{\H0.88x;{23}}
 11
1.000000000000000
 21
0.0000000000000000
 31
0.0000000000000000
  7
STANDARD
  0
MTEXT
  5
52D
100
AcDbEntity
  8
SP0
  6
CONTINUOUS
 62
7
370
    25
100
AcDbMText
 10
209.0493058814065
 20
323.1099898284491
 30
0.0000000000000000
 40
5.579999828338623
 41
0.0000000000000000
 44
0.6677419652551825
 71
     1
 72
     1
  1
{\H0.81x;{10.6}}
 11
1.000000000000000
 21
0.0000000000000000
 31
0.0000000000000000
  7
STANDARD
  0
MTEXT
  5
52E
100
AcDbEntity
  8
SP0
  6
CONTINUOUS
 62
7
370
    25
100
AcDbMText
 10
209.0493058814065
 20
306.8599898284489
 30
0.0000000000000000
 40
5.579999828338623
 41
0.0000000000000000
 44
0.6677419652551825
 71
     1
 72
     1
  1
{\H0.88x;{90}}
 11
1.000000000000000
 21
0.0000000000000000
 31
0.0000000000000000
  7
STANDARD
  0
MTEXT
  5
52F
100
AcDbEntity
  8
SP0
  6
CONTINUOUS
 62
7
370
    25
100
AcDbMText
 10
216.5493058814065
 20
295.6099898284489
 30
0.0000000000000000
 40
5.579999828338623
 41
0.0000000000000000
 44
0.6677419652551825
 71
     1
 72
     1
  1
{\H0.91x;{9177}}
 11
1.000000000000000
 21
0.0000000000000000
 31
0.0000000000000000
  7
STANDARD
  0
MTEXT
  5
530
100
AcDbEntity
  8
SP0
  6
CONTINUOUS
 62
7
370
    25
100
AcDbMText
 10
209.0493058814065
 20
281.8599898284489
 30
0.0000000000000000
 40
5.579999828338623
 41
0.0000000000000000
 44
0.6677419652551825
 71
     1
 72
     1
  1
{\H0.90x;{234}}
 11
1.000000000000000
 21
0.0000000000000000
 31
0.0000000000000000
  7
STANDARD
  0
MTEXT
  5
531
100
AcDbEntity
  8
SP0
  6
CONTINUOUS
 62
7
370
    25
100
AcDbMText
 10
216.5493058814065
 20
270.6099898284489
 30
0.0000000000000000
 40
5.579999828338623
 41
0.0000000000000000
 44
0.6677419652551825
 71
     1
 72
     1
  1
{\H0.92x;{23861}}
 11
1.000000000000000
 21
0.0000000000000000
 31
0.0000000000000000
  7
STANDARD
  0
MTEXT
  5
532
100
AcDbEntity
  8
SP0
  6
CONTINUOUS
 62
7
370
    25
100
AcDbMText
 10
209.0493058814065
 20
255.6099898284489
 30
0.0000000000000000
 40
5.579999828338623
 41
0.0000000000000000
 44
0.6677419652551825
 71
     1
 72
     1
  1
{\H0.91x;{1100}}
 11
1.000000000000000
 21
0.0000000000000000
 31
0.0000000000000000
  7
STANDARD
  0
MTEXT
  5
533
100
AcDbEntity
  8
SP0
  6
CONTINUOUS
 62
7
370
    25
100
AcDbMText
 10
209.0493058814065
 20
238.1099898284489
 30
0.0000000000000000
 40
5.579999828338623
 41
0.0000000000000000
 44
0.6677419652551825
 71
     1
 72
     1
  1
{\H0.90x;{348}}
 11
1.000000000000000
 21
0.0000000000000000
 31
0.0000000000000000
  7
STANDARD
  0
MTEXT
  5
534
100
AcDbEntity
  8
SP0
  6
CONTINUOUS
 62
7
370
    25
100
AcDbMText
 10
209.0493058814065
 20
217.1724901690127
 30
0.0000000000000000
 40
5.579999828338623
 41
0.0000000000000000
 44
0.6677419652551825
 71
     1
 72
     1
  1
{\H0.84x;{29.14}}
 11
1.000000000000000
 21
0.0000000000000000
 31
0.0000000000000000
  7
STANDARD
  0
MTEXT
  5
535
100
AcDbEntity
  8
SP0
  6
CONTINUOUS
 62
7
370
    25
100
AcDbMText
 10
209.0493058814065
 20
196.8599898284486
 30
0.0000000000000000
 40
5.579999828338623
 41
0.0000000000000000
 44
0.6677419652551825
 71
     1
 72
     1
  1
{\H0.88x;{78}}
 11
1.000000000000000
 21
0.0000000000000000
 31
0.0000000000000000
  7
STANDARD
  0
MTEXT
  5
536
100
AcDbEntity
  8
SP0
  6
CONTINUOUS
 62
7
370
    25
100
AcDbMText
 10
216.5493058814065
 20
185.6099898284486
 30
0.0000000000000000
 40
5.579999828338623
 41
0.0000000000000000
 44
0.6677419652551825
 71
     1
 72
     1
  1
{\H0.91x;{7954}}
 11
1.000000000000000
 21
0.0000000000000000
 31
0.0000000000000000
  7
STANDARD
  0
MTEXT
  5
537
100
AcDbEntity
  8
SP0
  6
CONTINUOUS
 62
7
370
    25
100
AcDbMText
 10
209.0493058814065
 20
170.6099898284486
 30
0.0000000000000000
 40
5.579999828338623
 41
0.0000000000000000
 44
0.6677419652551825
 71
     1
 72
     1
  1
{\H0.92x;{S2816}}
 11
1.000000000000000
 21
0.0000000000000000
 31
0.0000000000000000
  7
STANDARD
  0
MTEXT
  5
538
100
AcDbEntity
  8
SP0
  6
CONTINUOUS
 62
7
370
    25
100
AcDbMText
 10
209.0493058814065
 20
154.3599898284481
 30
0.0000000000000000
 40
5.579999828338623
 41
0.0000000000000000
 44
0.6677419652551825
 71
     1
 72
     1
  1
{\H0.76x;{3.0}}
 11
1.000000000000000
 21
0.0000000000000000
 31
0.0000000000000000
  7
STANDARD
  0
MTEXT
  5
539
100
AcDbEntity
  8
SP0
  6
CONTINUOUS
 62
7
370
    25
100
AcDbMText
 10
216.5493058814065
 20
143.1099898284481
 30
0.0000000000000000
 40
5.579999828338623
 41
0.0000000000000000
 44
0.7741935722041460
 71
     1
 72
     1
  1
{\H0.62x;{30.6}}
 11
1.000000000000000
 21
0.0000000000000000
 31
0.0000000000000000
  7
STANDARD
  0
ENDSEC
  0
SECTION
  2
OBJECTS
  0
DICTIONARY
  5
574
100
AcDbDictionary
  3
ACAD_GROUP
350
575
  3
ACAD_LAYOUT
350
576
  3
ACAD_MLINESTYLE
350
577
  0
DICTIONARY
  5
575
102
{ACAD_REACTORS
330
574
102
}
330
574
100
AcDbDictionary
  0
DICTIONARY
  5
576
102
{ACAD_REACTORS
330
574
102
}
330
574
100
AcDbDictionary
  3
Model
350
578
  3
ﾚｲｱｳﾄ1
350
579
  3
ﾚｲｱｳﾄ2
350
57A
  0
DICTIONARY
  5
577
102
{ACAD_REACTORS
330
574
102
}
330
574
100
AcDbDictionary
  3
STANDARD
350
57B
  0
LAYOUT
  5
578
102
{ACAD_REACTORS
330
576
102
}
330
576
100
AcDbPlotSettings
 70
11952
  4
A2
 44
420.000000
 45
594.000000
 73
  1
 72
  1
100
AcDbLayout
  1
Model
 71
0
330
565
  0
LAYOUT
  5
579
102
{ACAD_REACTORS
330
576
102
}
330
576
100
AcDbPlotSettings
100
AcDbLayout
  1
ﾚｲｱｳﾄ1
 71
1
330
566
  0
LAYOUT
  5
57A
102
{ACAD_REACTORS
330
576
102
}
330
576
100
AcDbPlotSettings
100
AcDbLayout
  1
ﾚｲｱｳﾄ2
 71
2
330
567
  0
MLINESTYLE
  5
57B
102
{ACAD_REACTORS
330
577
102
}
330
577
100
AcDbMlineStyle
  2
STANDARD
 70
     0
  3

 62
   256
 51
90.00
 52
90.00
 71
     2
 49
0.50
 62
   256
  6
BYLAYER
 49
-0.50
 62
   256
  6
BYLAYER
  0
ENDSEC
  0
EOF
