  0
SECTION
  2
HEADER
  9
$ACADVER
  1
AC1014
  9
$DWGCODEPAGE
  3
ANSI_932
  9
$LTSCALE
 40
20.0
  9
$FILLMODE
 70
     1
  9
$CLAYER
  8
0
  9
$PDMODE
 70
     0
  9
$SPLFRAME
 70
     0
  9
$SPLINETYPE
 70
     6
  9
$SPLINESEGS
 70
     8
  9
$DIMASZ
 40
2.000000
  9
$DIMEXE
 40
2.000000
  9
$DIMEXO
 40
0.800000
  9
$DIMTAD
 70
     1
  9
$DIMTIH
 70
     0
  9
$DIMTOH
 70
     0
  9
$DIMTVP
 40
0.500000
  9
$DIMTXT
 40
3.100000
  9
$EXTMIN
 10
0.000000
 20
0.000000
 30
0.000000
  9
$EXTMAX
 10
420.000000
 20
594.000000
 30
0.000000
  9
$MEASUREMENT
 70
  1
  9
$LIMMIN
 10
0.000000
 20
0.000000
  9
$LIMMAX
 10
420.000000
 20
594.000000
  9
$HANDLING
 70
     1
  9
$HANDSEED
  5
537
  9
$DIMBLK
  1
_OPEN
  9
$DIMDEC
 70
     3
  9
$DIMAUNIT
 70
     1
  9
$DIMZIN
 70
     8
  9
$DIMTOFL
 70
     1
  0
ENDSEC
  0
SECTION
  2
CLASSES
  0
ENDSEC
  0
SECTION
  2
TABLES
  0
TABLE
  2
VPORT
  5
500
100
AcDbSymbolTable
 70
     1
  0
VPORT
  5
501
100
AcDbSymbolTableRecord
100
AcDbViewportTableRecord
  2
*ACTIVE
 70
     0
 12
594.000000
 22
420.000000
 40
840.000000
 41
1.414286
  0
ENDTAB
  0
TABLE
  2
LTYPE
  5
502
100
AcDbSymbolTable
 70
     3
  0
LTYPE
  5
503
100
AcDbSymbolTableRecord
100
AcDbLinetypeTableRecord
  2
BYBLOCK
 70
     0
  3

 72
    65
 73
     0
 40
0.0
  0
LTYPE
  5
504
100
AcDbSymbolTableRecord
100
AcDbLinetypeTableRecord
  2
BYLAYER
 70
     0
  3

 72
    65
 73
     0
 40
0.0
  0
LTYPE
  5
505
100
AcDbSymbolTableRecord
100
AcDbLinetypeTableRecord
  2
CONTINUOUS
 70
     0
  3
Solid line (NEC CAE2D for Win R14.2 : 2025.07.09)
 72
    65
 73
     0
 40
0.0
  0
LTYPE
  5
506
100
AcDbSymbolTableRecord
100
AcDbLinetypeTableRecord
  2
HIDDEN
 70
     0
  3
__ __ __ __ __ __ __ __ __ __ __ __ __ __
 72
    65
 73
     2
 40
0.375
 49
0.25
 74
     0
 49
-0.125
 74
     0
  0
LTYPE
  5
507
100
AcDbSymbolTableRecord
100
AcDbLinetypeTableRecord
  2
CENTER
 70
     0
  3
____ _ ____ _ ____ _ ____ _ ____ _ ____
 72
    65
 73
     4
 40
2.0
 49
1.25
 74
     0
 49
-0.25
 74
     0
 49
0.25
 74
     0
 49
-0.25
 74
     0
  0
ENDTAB
  0
TABLE
  2
LAYER
  5
508
100
AcDbSymbolTable
 70
     8
  0
LAYER
  5
509
100
AcDbSymbolTableRecord
100
AcDbLayerTableRecord
  2
0
 70
     0
 62
     7
  6
CONTINUOUS
  0
LAYER
  5
50A
100
AcDbSymbolTableRecord
100
AcDbLayerTableRecord
  2
MAIN0
 70
     0
 62
     7
  6
CONTINUOUS
  0
LAYER
  5
50B
100
AcDbSymbolTableRecord
100
AcDbLayerTableRecord
  2
MAIN1
 70
     0
 62
     7
  6
CONTINUOUS
  0
LAYER
  5
50C
100
AcDbSymbolTableRecord
100
AcDbLayerTableRecord
  2
MAIN1023
 70
     0
 62
    16
  6
CONTINUOUS
  0
LAYER
  5
50D
100
AcDbSymbolTableRecord
100
AcDbLayerTableRecord
  2
WAKU0
 70
     0
 62
     7
  6
CONTINUOUS
  0
LAYER
  5
50E
100
AcDbSymbolTableRecord
100
AcDbLayerTableRecord
  2
WAKU1023
 70
     0
 62
    16
  6
CONTINUOUS
  0
LAYER
  5
50F
100
AcDbSymbolTableRecord
100
AcDbLayerTableRecord
  2
BM0
 70
     0
 62
     7
  6
CONTINUOUS
  0
LAYER
  5
510
100
AcDbSymbolTableRecord
100
AcDbLayerTableRecord
  2
BM1023
 70
     0
 62
    16
  6
CONTINUOUS
  0
ENDTAB
  0
TABLE
  2
STYLE
  5
511
100
AcDbSymbolTable
 70
     4
  0
STYLE
  5
512
100
AcDbSymbolTableRecord
100
AcDbTextStyleTableRecord
  2
STANDARD
 70
    64
 40
0.0
 41
1.0
 50
0.0
 71
     0
 42
4.000000000000000
  3
TXT
  4

  0
STYLE
  5
513
100
AcDbSymbolTableRecord
100
AcDbTextStyleTableRecord
  2
ANKTATE
 70
    68
 40
0.0
 41
1.0
 50
0.0
 71
     0
 42
4.000000000000000
  3
TXT
  4

  0
STYLE
  5
514
100
AcDbSymbolTableRecord
100
AcDbTextStyleTableRecord
  2
KNJYOKO
 70
    64
 40
0.0
 41
1.0
 50
0.0
 71
     0
 42
4.000000000000000
  3
TXT
  4
BIGFONT
  0
STYLE
  5
515
100
AcDbSymbolTableRecord
100
AcDbTextStyleTableRecord
  2
KNJTATE
 70
    68
 40
0.0
 41
1.0
 50
0.0
 71
     0
 42
4.000000000000000
  3
TXT
  4
BIGFONT
  0
ENDTAB
  0
TABLE
  2
VIEW
  5
516
100
AcDbSymbolTable
 70
     0
  0
ENDTAB
  0
TABLE
  2
UCS
  5
517
100
AcDbSymbolTable
 70
     0
  0
ENDTAB
  0
TABLE
  2
APPID
  5
518
100
AcDbSymbolTable
 70
     1
  0
APPID
  5
519
100
AcDbSymbolTableRecord
100
AcDbRegAppTableRecord
  2
ACAD
 70
     0
  0
ENDTAB
  0
TABLE
  2
DIMSTYLE
  5
51A
100
AcDbSymbolTable
 70
     1
  0
DIMSTYLE
105
51B
100
AcDbSymbolTableRecord
100
AcDbDimStyleTableRecord
  2
STANDARD
 70
     0
 41
2.000000
 44
2.000000
 42
0.800000
145
0.661290
140
3.100000
144
1.000000
146
0.903226
340
512
  0
DIMSTYLE
105
51C
100
AcDbSymbolTableRecord
100
AcDbDimStyleTableRecord
  2
MAIN001
 70
     0
 41
4.000000
 44
4.000000
 42
1.600000
145
0.580645
140
6.200000
144
0.500000
146
0.903226
 77
     1
 73
     0
 74
     0
271
     3
275
     1
 78
     8
172
     1
340
512
  0
DIMSTYLE
105
51D
100
AcDbSymbolTableRecord
100
AcDbDimStyleTableRecord
  2
WAKU002
 70
     0
 41
4.000000
 44
4.000000
 42
1.600000
145
0.580645
140
6.200000
144
0.500000
146
0.903226
 77
     1
 73
     0
 74
     0
271
     3
275
     1
 78
     8
172
     1
340
512
  0
DIMSTYLE
105
51E
100
AcDbSymbolTableRecord
100
AcDbDimStyleTableRecord
  2
BM003
 70
     0
 41
4.000000
 44
4.000000
 42
1.600000
145
0.580645
140
6.200000
144
0.500000
146
0.903226
 77
     1
 73
     0
 74
     0
271
     3
275
     1
 78
     8
172
     1
340
512
  0
ENDTAB
  0
TABLE
  2
BLOCK_RECORD
  5
51F
100
AcDbSymbolTable
 70
    24
  0
BLOCK_RECORD
  5
520
100
AcDbSymbolTableRecord
100
AcDbBlockTableRecord
  2
*MODEL_SPACE
  0
BLOCK_RECORD
  5
521
100
AcDbSymbolTableRecord
100
AcDbBlockTableRecord
  2
*PAPER_SPACE
  0
BLOCK_RECORD
  5
1
100
AcDbSymbolTableRecord
100
AcDbBlockTableRecord
  2
_NONE
  0
BLOCK_RECORD
  5
4
100
AcDbSymbolTableRecord
100
AcDbBlockTableRecord
  2
_CLOSED
  0
BLOCK_RECORD
  5
B
100
AcDbSymbolTableRecord
100
AcDbBlockTableRecord
  2
_DOT
  0
BLOCK_RECORD
  5
13
100
AcDbSymbolTableRecord
100
AcDbBlockTableRecord
  2
_OPEN
  0
BLOCK_RECORD
  5
19
100
AcDbSymbolTableRecord
100
AcDbBlockTableRecord
  2
_ORIGIN
  0
BLOCK_RECORD
  5
1E
100
AcDbSymbolTableRecord
100
AcDbBlockTableRecord
  2
_OPEN30
  0
BLOCK_RECORD
  5
24
100
AcDbSymbolTableRecord
100
AcDbBlockTableRecord
  2
_BOXFILLED
  0
BLOCK_RECORD
  5
29
100
AcDbSymbolTableRecord
100
AcDbBlockTableRecord
  2
_BOXBLANK
  0
BLOCK_RECORD
  5
31
100
AcDbSymbolTableRecord
100
AcDbBlockTableRecord
  2
_OBLIQUE
  0
BLOCK_RECORD
  5
35
100
AcDbSymbolTableRecord
100
AcDbBlockTableRecord
  2
_OPEN90
  0
BLOCK_RECORD
  5
3B
100
AcDbSymbolTableRecord
100
AcDbBlockTableRecord
  2
_CLOSEDBLANK
  0
BLOCK_RECORD
  5
41
100
AcDbSymbolTableRecord
100
AcDbBlockTableRecord
  2
_DOTBLANK
  0
BLOCK_RECORD
  5
522
100
AcDbSymbolTableRecord
100
AcDbBlockTableRecord
  2
M0
  0
BLOCK_RECORD
  5
523
100
AcDbSymbolTableRecord
100
AcDbBlockTableRecord
  2
$$BALLOON$$1
  0
BLOCK_RECORD
  5
524
100
AcDbSymbolTableRecord
100
AcDbBlockTableRecord
  2
M2
  0
BLOCK_RECORD
  5
525
100
AcDbSymbolTableRecord
100
AcDbBlockTableRecord
  2
M3
  0
BLOCK_RECORD
  5
526
100
AcDbSymbolTableRecord
100
AcDbBlockTableRecord
  2
M4
  0
BLOCK_RECORD
  5
527
100
AcDbSymbolTableRecord
100
AcDbBlockTableRecord
  2
$$BALLOON$$5
  0
BLOCK_RECORD
  5
528
100
AcDbSymbolTableRecord
100
AcDbBlockTableRecord
  2
$$BALLOON$$6
  0
BLOCK_RECORD
  5
529
100
AcDbSymbolTableRecord
100
AcDbBlockTableRecord
  2
$$BALLOON$$7
  0
BLOCK_RECORD
  5
52A
100
AcDbSymbolTableRecord
100
AcDbBlockTableRecord
  2
$$BALLOON$$8
  0
BLOCK_RECORD
  5
52B
100
AcDbSymbolTableRecord
100
AcDbBlockTableRecord
  2
$$BALLOON$$9
  0
BLOCK_RECORD
  5
52C
100
AcDbSymbolTableRecord
100
AcDbBlockTableRecord
  2
M10
  0
BLOCK_RECORD
  5
52D
100
AcDbSymbolTableRecord
100
AcDbBlockTableRecord
  2
M11
  0
ENDTAB
  0
ENDSEC
  0
SECTION
  2
BLOCKS
  0
BLOCK
  5
52E
100
AcDbEntity
  8
0
100
AcDbBlockBegin
  2
*MODEL_SPACE
 70
     0
 10
0.0
 20
0.0
 30
0.0
  3
*MODEL_SPACE
  1

  0
ENDBLK
  5
52F
100
AcDbEntity
  8
0
100
AcDbBlockEnd
  0
BLOCK
  5
530
100
AcDbEntity
  8
0
100
AcDbBlockBegin
  2
*PAPER_SPACE
 70
     0
 10
0.0
 20
0.0
 30
0.0
  3
*PAPER_SPACE
  1

  0
ENDBLK
  5
531
100
AcDbEntity
  8
0
100
AcDbBlockEnd
  0
BLOCK
  5
2
100
AcDbEntity
  8
0
100
AcDbBlockBegin
  2
_NONE
 70
     0
 10
0.0
 20
0.0
 30
0.0
  3
_NONE
  1

  0
ENDBLK
  5
3
100
AcDbEntity
  8
0
100
AcDbBlockEnd
  0
BLOCK
  5
5
100
AcDbEntity
  8
0
100
AcDbBlockBegin
  2
_CLOSED
 70
     0
 10
0.0
 20
0.0
 30
0.0
  3
_CLOSED
  1

  0
LINE
  5
6
100
AcDbEntity
  8
0
  6
BYBLOCK
 62
     0
100
AcDbLine
 10
-1.0
 20
0.166667
 30
0.0
 11
0.0
 21
0.0
 31
0.0
  0
LINE
  5
7
100
AcDbEntity
  8
0
  6
BYBLOCK
 62
     0
100
AcDbLine
 10
0.0
 20
0.0
 30
0.0
 11
-1.0
 21
-0.166667
 31
0.0
  0
LINE
  5
8
100
AcDbEntity
  8
0
  6
BYBLOCK
 62
     0
100
AcDbLine
 10
-1.0
 20
0.166667
 30
0.0
 11
-1.0
 21
-0.166667
 31
0.0
  0
LINE
  5
9
100
AcDbEntity
  8
0
  6
BYBLOCK
 62
     0
100
AcDbLine
 10
0.0
 20
0.0
 30
0.0
 11
-1.0
 21
0.0
 31
0.0
  0
ENDBLK
  5
A
100
AcDbEntity
  8
0
100
AcDbBlockEnd
  0
BLOCK
  5
C
100
AcDbEntity
  8
0
100
AcDbBlockBegin
  2
_DOT
 70
     0
 10
0.0
 20
0.0
 30
0.0
  3
_DOT
  1

  0
POLYLINE
  5
D
100
AcDbEntity
  8
0
  6
BYBLOCK
 62
     0
100
AcDb2dPolyline
 66
     1
 10
0.0
 20
0.0
 30
0.0
 70
     1
 40
0.5
 41
0.5
  0
VERTEX
  5
E
100
AcDbEntity
  8
0
  6
BYBLOCK
 62
     0
100
AcDbVertex
100
AcDb2dVertex
 10
-0.25
 20
0.0
 30
0.0
 42
1.0
  0
VERTEX
  5
F
100
AcDbEntity
  8
0
  6
BYBLOCK
 62
     0
100
AcDbVertex
100
AcDb2dVertex
 10
0.25
 20
0.0
 30
0.0
 42
1.0
  0
SEQEND
  5
10
100
AcDbEntity
  8
0
  6
BYBLOCK
 62
     0
  0
LINE
  5
11
100
AcDbEntity
  8
0
  6
BYBLOCK
 62
     0
100
AcDbLine
 10
-0.5
 20
0.0
 30
0.0
 11
-1.0
 21
0.0
 31
0.0
  0
ENDBLK
  5
12
100
AcDbEntity
  8
0
100
AcDbBlockEnd
  0
BLOCK
  5
14
100
AcDbEntity
  8
0
100
AcDbBlockBegin
  2
_OPEN
 70
     0
 10
0.0
 20
0.0
 30
0.0
  3
_OPEN
  1

  0
LINE
  5
15
100
AcDbEntity
  8
0
  6
BYBLOCK
 62
     0
100
AcDbLine
 10
-1.0
 20
0.166667
 30
0.0
 11
0.0
 21
0.0
 31
0.0
  0
LINE
  5
16
100
AcDbEntity
  8
0
  6
BYBLOCK
 62
     0
100
AcDbLine
 10
0.0
 20
0.0
 30
0.0
 11
-1.0
 21
-0.166667
 31
0.0
  0
LINE
  5
17
100
AcDbEntity
  8
0
  6
BYBLOCK
 62
     0
100
AcDbLine
 10
0.0
 20
0.0
 30
0.0
 11
-1.0
 21
0.0
 31
0.0
  0
ENDBLK
  5
18
100
AcDbEntity
  8
0
100
AcDbBlockEnd
  0
BLOCK
  5
1A
100
AcDbEntity
  8
0
100
AcDbBlockBegin
  2
_ORIGIN
 70
     0
 10
0.0
 20
0.0
 30
0.0
  3
_ORIGIN
  1

  0
CIRCLE
  5
1B
100
AcDbEntity
  8
0
  6
BYBLOCK
 62
     0
100
AcDbCircle
 10
0.0
 20
0.0
 30
0.0
 40
0.5
  0
LINE
  5
1C
100
AcDbEntity
  8
0
  6
BYBLOCK
 62
     0
100
AcDbLine
 10
0.0
 20
0.0
 30
0.0
 11
-1.0
 21
0.0
 31
0.0
  0
ENDBLK
  5
1D
100
AcDbEntity
  8
0
100
AcDbBlockEnd
  0
BLOCK
  5
1F
100
AcDbEntity
  8
0
100
AcDbBlockBegin
  2
_OPEN30
 70
     0
 10
0.0
 20
0.0
 30
0.0
  3
_OPEN30
  1

  0
LINE
  5
20
100
AcDbEntity
  8
0
  6
BYBLOCK
 62
     0
100
AcDbLine
 10
-1.0
 20
0.267949
 30
0.0
 11
0.0
 21
0.0
 31
0.0
  0
LINE
  5
21
100
AcDbEntity
  8
0
  6
BYBLOCK
 62
     0
100
AcDbLine
 10
0.0
 20
0.0
 30
0.0
 11
-1.0
 21
-0.267949
 31
0.0
  0
LINE
  5
22
100
AcDbEntity
  8
0
  6
BYBLOCK
 62
     0
100
AcDbLine
 10
0.0
 20
0.0
 30
0.0
 11
-1.0
 21
0.0
 31
0.0
  0
ENDBLK
  5
23
100
AcDbEntity
  8
0
100
AcDbBlockEnd
  0
BLOCK
  5
25
100
AcDbEntity
  8
0
100
AcDbBlockBegin
  2
_BOXFILLED
 70
     0
 10
0.0
 20
0.0
 30
0.0
  3
_BOXFILLED
  1

  0
SOLID
  5
26
100
AcDbEntity
  8
0
  6
BYBLOCK
 62
     0
100
AcDbTrace
 10
-0.5
 20
0.5
 30
0.0
 11
0.5
 21
0.5
 31
0.0
 12
-0.5
 22
-0.5
 32
0.0
 13
0.5
 23
-0.5
 33
0.0
  0
LINE
  5
27
100
AcDbEntity
  8
0
  6
BYBLOCK
 62
     0
100
AcDbLine
 10
-0.5
 20
0.0
 30
0.0
 11
-1.0
 21
0.0
 31
0.0
  0
ENDBLK
  5
28
100
AcDbEntity
  8
0
100
AcDbBlockEnd
  0
BLOCK
  5
2A
100
AcDbEntity
  8
0
100
AcDbBlockBegin
  2
_BOXBLANK
 70
     0
 10
0.0
 20
0.0
 30
0.0
  3
_BOXBLANK
  1

  0
LINE
  5
2B
100
AcDbEntity
  8
0
  6
BYBLOCK
 62
     0
100
AcDbLine
 10
-0.5
 20
-0.5
 30
0.0
 11
0.5
 21
-0.5
 31
0.0
  0
LINE
  5
2C
100
AcDbEntity
  8
0
  6
BYBLOCK
 62
     0
100
AcDbLine
 10
0.5
 20
-0.5
 30
0.0
 11
0.5
 21
0.5
 31
0.0
  0
LINE
  5
2D
100
AcDbEntity
  8
0
  6
BYBLOCK
 62
     0
100
AcDbLine
 10
0.5
 20
0.5
 30
0.0
 11
-0.5
 21
0.5
 31
0.0
  0
LINE
  5
2E
100
AcDbEntity
  8
0
  6
BYBLOCK
 62
     0
100
AcDbLine
 10
-0.5
 20
0.5
 30
0.0
 11
-0.5
 21
-0.5
 31
0.0
  0
LINE
  5
2F
100
AcDbEntity
  8
0
  6
BYBLOCK
 62
     0
100
AcDbLine
 10
-0.5
 20
0.0
 30
0.0
 11
-1.0
 21
0.0
 31
0.0
  0
ENDBLK
  5
30
100
AcDbEntity
  8
0
100
AcDbBlockEnd
  0
BLOCK
  5
32
100
AcDbEntity
  8
0
100
AcDbBlockBegin
  2
_OBLIQUE
 70
     0
 10
0.0
 20
0.0
 30
0.0
  3
_OBLIQUE
  1

  0
LINE
  5
33
100
AcDbEntity
  8
0
  6
BYBLOCK
 62
     0
100
AcDbLine
 10
-0.5
 20
-0.5
 30
0.0
 11
0.5
 21
0.5
 31
0.0
  0
ENDBLK
  5
34
100
AcDbEntity
  8
0
100
AcDbBlockEnd
  0
BLOCK
  5
36
100
AcDbEntity
  8
0
100
AcDbBlockBegin
  2
_OPEN90
 70
     0
 10
0.0
 20
0.0
 30
0.0
  3
_OPEN90
  1

  0
LINE
  5
37
100
AcDbEntity
  8
0
  6
BYBLOCK
 62
     0
100
AcDbLine
 10
-0.5
 20
0.5
 30
0.0
 11
0.0
 21
0.0
 31
0.0
  0
LINE
  5
38
100
AcDbEntity
  8
0
  6
BYBLOCK
 62
     0
100
AcDbLine
 10
0.0
 20
0.0
 30
0.0
 11
-0.5
 21
-0.5
 31
0.0
  0
LINE
  5
39
100
AcDbEntity
  8
0
  6
BYBLOCK
 62
     0
100
AcDbLine
 10
0.0
 20
0.0
 30
0.0
 11
-1.0
 21
0.0
 31
0.0
  0
ENDBLK
  5
3A
100
AcDbEntity
  8
0
100
AcDbBlockEnd
  0
BLOCK
  5
3C
100
AcDbEntity
  8
0
100
AcDbBlockBegin
  2
_CLOSEDBLANK
 70
     0
 10
0.0
 20
0.0
 30
0.0
  3
_CLOSEDBLANK
  1

  0
LINE
  5
3D
100
AcDbEntity
  8
0
  6
BYBLOCK
 62
     0
100
AcDbLine
 10
-1.0
 20
0.1666666666666666
 30
0.0
 11
0.0
 21
0.0
 31
0.0
  0
LINE
  5
3E
100
AcDbEntity
  8
0
  6
BYBLOCK
 62
     0
100
AcDbLine
 10
0.0
 20
0.0
 30
0.0
 11
-1.0
 21
-0.1666666666666666
 31
0.0
  0
LINE
  5
3F
100
AcDbEntity
  8
0
  6
BYBLOCK
 62
     0
100
AcDbLine
 10
-1.0
 20
0.1666666666666666
 30
0.0
 11
-1.0
 21
-0.1666666666666666
 31
0.0
  0
ENDBLK
  5
40
100
AcDbEntity
  8
0
100
AcDbBlockEnd
  0
BLOCK
  5
42
100
AcDbEntity
  8
0
100
AcDbBlockBegin
  2
_DOTBLANK
 70
     0
 10
0.0
 20
0.0
 30
0.0
  3
_DOTBLANK
  1

  0
CIRCLE
  5
43
100
AcDbEntity
  8
0
  6
BYBLOCK
 62
     0
100
AcDbCircle
 10
0.0
 20
0.0
 30
0.0
 40
0.5
  0
LINE
  5
44
100
AcDbEntity
  8
0
  6
BYBLOCK
 62
     0
100
AcDbLine
 10
-0.5
 20
0.0
 30
0.0
 11
-1.0
 21
0.0
 31
0.0
  0
ENDBLK
  5
45
100
AcDbEntity
  8
0
100
AcDbBlockEnd
  0
BLOCK
  5
C8
100
AcDbEntity
  8
MAIN0
  6
BYBLOCK
 62
2
100
AcDbBlockBegin
  2
M0
 70
    64
 10
0.0
 20
0.0
 30
0.0
  0
LINE
  5
C9
100
AcDbEntity
  8
MAIN0
  6
BYBLOCK
 62
0
100
AcDbLine
 10
839.3800110321997
 20
250.0256457426281
 30
0.0000000000000000
 11
846.0903258738487
 21
240.0771948719676
 31
0.0000000000000000
  0
LINE
  5
CA
100
AcDbEntity
  8
MAIN0
  6
BYBLOCK
 62
0
100
AcDbLine
 10
842.7351684530241
 20
245.0514203072979
 30
0.0000000000000000
 11
862.6320701943452
 21
258.4720499905958
 31
0.0000000000000000
  0
LINE
  5
CB
100
AcDbEntity
  8
MAIN0
  6
BYBLOCK
 62
0
100
AcDbLine
 10
842.7351684530241
 20
245.0514203072980
 30
0.0000000000000000
 11
849.2957587429293
 21
252.5985161095258
 31
0.0000000000000000
  0
LINE
  5
CC
100
AcDbEntity
  8
MAIN0
  6
BYBLOCK
 62
0
100
AcDbLine
 10
842.7351684530242
 20
245.0514203072979
 30
0.0000000000000000
 11
852.1903542090174
 21
248.3071018518695
 31
0.0000000000000000
  0
ENDBLK
  5
CD
100
AcDbEntity
  8
MAIN0
  6
BYBLOCK
 62
2
100
AcDbBlockEnd
  0
BLOCK
  5
16E
100
AcDbEntity
  8
MAIN0
  6
BYBLOCK
 62
3
100
AcDbBlockBegin
  2
$$BALLOON$$1
 70
    64
 10
0.0
 20
0.0
 30
0.0
  0
LEADER
  5
16F
100
AcDbEntity
  8
MAIN0
  6
BYBLOCK
 62
0
100
AcDbLeader
  3
MAIN001
 73
     0
 75
     0
 40
0.0000000000000000
 41
0.0000000000000000
 76
     2
 10
0.0000000000000000
 20
0.0000000000000000
 30
0.0000000000000000
 10
-45.22821099217249
 20
-72.72775407851165
 30
0.0000000000000000
340
170
213
5.280946882262803
223
8.491854922613712
233
0.0000000000000000
1001
ACAD
1000
DSTYLE
1002
{
1070
   147
1040
0.0
1070
    77
1070
     0
1070
   173
1070
     1
1070
     6
1000
_DOT
1070
     7
1000
_DOT
1002
}
  0
MTEXT
  5
170
102
{ACAD_REACTORS
330
16F
102
}
100
AcDbEntity
  8
MAIN0
  6
BYBLOCK
 62
0
100
AcDbMText
 10
-50.50915787443529
 20
-81.21960900112536
 30
0.0000000000000000
 40
6.199999809265137
 41
0.0000000000000000
 71
     5
 72
     1
  1
{\H0.88x;02}
 11
1.000000000000000
 21
0.0000000000000000
 31
0.0000000000000000
  7
STANDARD
  0
CIRCLE
  5
171
100
AcDbEntity
  8
MAIN0
  6
BYBLOCK
 62
0
100
AcDbCircle
 10
-50.50915787443529
 20
-81.21960900112536
 30
0.0000000000000000
 40
10.00000000000000
  0
ENDBLK
  5
172
100
AcDbEntity
  8
MAIN0
  6
BYBLOCK
 62
3
100
AcDbBlockEnd
  0
BLOCK
  5
174
100
AcDbEntity
  8
MAIN0
  6
BYBLOCK
 62
3
100
AcDbBlockBegin
  2
M2
 70
    64
 10
0.0
 20
0.0
 30
0.0
  0
CIRCLE
  5
175
100
AcDbEntity
  8
MAIN0
  6
BYBLOCK
 62
0
100
AcDbCircle
 10
0.0000000000000000
 20
0.0000000000000000
 30
0.0000000000000000
 40
10.00000000000001
  0
MTEXT
  5
176
100
AcDbEntity
  8
MAIN0
  6
BYBLOCK
 62
0
100
AcDbMText
 10
0.0000000000000000
 20
0.0000000000000000
 30
0.0000000000000000
 40
6.199999809265137
 41
0.0000000000000000
 71
     5
 72
     1
  1
{\H0.88x;04}
 11
1.000000000000000
 21
0.0000000000000000
 31
0.0000000000000000
  7
STANDARD
  0
ENDBLK
  5
177
100
AcDbEntity
  8
MAIN0
  6
BYBLOCK
 62
3
100
AcDbBlockEnd
  0
BLOCK
  5
17B
100
AcDbEntity
  8
MAIN0
  6
BYBLOCK
 62
4
100
AcDbBlockBegin
  2
M3
 70
    64
 10
0.0
 20
0.0
 30
0.0
  0
LINE
  5
17C
100
AcDbEntity
  8
MAIN0
  6
BYBLOCK
 62
0
100
AcDbLine
 10
449.4194398584605
 20
433.7383802094715
 30
0.0000000000000000
 11
473.4194398584604
 21
433.7383802094715
 31
0.0000000000000000
  0
LINE
  5
17D
100
AcDbEntity
  8
MAIN0
  6
BYBLOCK
 62
0
100
AcDbLine
 10
449.4194398584605
 20
433.7383802094717
 30
0.0000000000000000
 11
459.0786981213511
 21
436.3265706604968
 31
0.0000000000000000
  0
LINE
  5
17E
100
AcDbEntity
  8
MAIN0
  6
BYBLOCK
 62
0
100
AcDbLine
 10
449.4194398584605
 20
433.7383802094714
 30
0.0000000000000000
 11
459.0786981213511
 21
431.1501897584462
 31
0.0000000000000000
  0
ENDBLK
  5
17F
100
AcDbEntity
  8
MAIN0
  6
BYBLOCK
 62
4
100
AcDbBlockEnd
  0
BLOCK
  5
181
100
AcDbEntity
  8
MAIN0
  6
BYBLOCK
 62
4
100
AcDbBlockBegin
  2
M4
 70
    64
 10
0.0
 20
0.0
 30
0.0
  0
LINE
  5
182
100
AcDbEntity
  8
MAIN0
  6
BYBLOCK
 62
0
100
AcDbLine
 10
78.20329157056847
 20
433.7383802098403
 30
0.0000000000000000
 11
54.20329157056858
 21
433.7383802098403
 31
0.0000000000000000
  0
LINE
  5
183
100
AcDbEntity
  8
MAIN0
  6
BYBLOCK
 62
0
100
AcDbLine
 10
78.20329157056858
 20
433.7383802098402
 30
0.0000000000000000
 11
68.54403330767786
 21
431.1501897588150
 31
0.0000000000000000
  0
LINE
  5
184
100
AcDbEntity
  8
MAIN0
  6
BYBLOCK
 62
0
100
AcDbLine
 10
78.20329157056824
 20
433.7383802098405
 30
0.0000000000000000
 11
68.54403330767764
 21
436.3265706608657
 31
0.0000000000000000
  0
ENDBLK
  5
185
100
AcDbEntity
  8
MAIN0
  6
BYBLOCK
 62
4
100
AcDbBlockEnd
  0
BLOCK
  5
271
100
AcDbEntity
  8
MAIN0
  6
BYBLOCK
 62
3
100
AcDbBlockBegin
  2
$$BALLOON$$5
 70
    64
 10
0.0
 20
0.0
 30
0.0
  0
LEADER
  5
272
100
AcDbEntity
  8
MAIN0
  6
BYBLOCK
 62
0
100
AcDbLeader
  3
MAIN001
 73
     0
 74
     0
 75
     0
 40
0.0000000000000000
 41
0.0000000000000000
 76
     2
 10
0.0000000000000000
 20
-2.524354896707238e-029
 30
0.0000000000000000
 10
84.96809166166547
 20
83.15645050407107
 30
0.0000000000000000
340
273
213
-7.146847830253435
223
-6.994466819651166
233
0.0000000000000000
1001
ACAD
1000
DSTYLE
1002
{
1070
   147
1040
0.0
1070
    77
1070
     0
1070
   173
1070
     1
1070
     6
1000
_DOT
1070
     7
1000
_DOT
1002
}
  0
MTEXT
  5
273
102
{ACAD_REACTORS
330
272
102
}
100
AcDbEntity
  8
MAIN0
  6
BYBLOCK
 62
0
100
AcDbMText
 10
92.11493949191890
 20
90.15091732372224
 30
0.0000000000000000
 40
6.199999809265137
 41
0.0000000000000000
 71
     5
 72
     1
  1
{\H0.88x; A}
 11
1.000000000000000
 21
0.0000000000000000
 31
0.0000000000000000
  7
STANDARD
  0
CIRCLE
  5
274
100
AcDbEntity
  8
MAIN0
  6
BYBLOCK
 62
0
100
AcDbCircle
 10
92.11493949191890
 20
90.15091732372224
 30
0.0000000000000000
 40
10.00000000000000
  0
ENDBLK
  5
275
100
AcDbEntity
  8
MAIN0
  6
BYBLOCK
 62
3
100
AcDbBlockEnd
  0
BLOCK
  5
277
100
AcDbEntity
  8
MAIN0
  6
BYBLOCK
 62
3
100
AcDbBlockBegin
  2
$$BALLOON$$6
 70
    64
 10
0.0
 20
0.0
 30
0.0
  0
LEADER
  5
278
100
AcDbEntity
  8
MAIN0
  6
BYBLOCK
 62
0
100
AcDbLeader
  3
MAIN001
 73
     0
 74
     0
 75
     0
 40
0.0000000000000000
 41
0.0000000000000000
 76
     2
 10
0.0000000000000000
 20
0.0000000000000000
 30
0.0000000000000000
 10
85.90786497230121
 20
82.67523491243333
 30
0.0000000000000000
340
279
213
-7.205333048244683
223
-6.934203318613697
233
0.0000000000000000
1001
ACAD
1000
DSTYLE
1002
{
1070
   147
1040
0.0
1070
    77
1070
     0
1070
   173
1070
     1
1070
     6
1000
_DOT
1070
     7
1000
_DOT
1002
}
  0
MTEXT
  5
279
102
{ACAD_REACTORS
330
278
102
}
100
AcDbEntity
  8
MAIN0
  6
BYBLOCK
 62
0
100
AcDbMText
 10
93.11319802054589
 20
89.60943823104702
 30
0.0000000000000000
 40
6.199999809265137
 41
0.0000000000000000
 71
     5
 72
     1
  1
{\H0.88x; C}
 11
1.000000000000000
 21
0.0000000000000000
 31
0.0000000000000000
  7
STANDARD
  0
CIRCLE
  5
27A
100
AcDbEntity
  8
MAIN0
  6
BYBLOCK
 62
0
100
AcDbCircle
 10
93.11319802054589
 20
89.60943823104702
 30
0.0000000000000000
 40
10.00000000000000
  0
ENDBLK
  5
27B
100
AcDbEntity
  8
MAIN0
  6
BYBLOCK
 62
3
100
AcDbBlockEnd
  0
BLOCK
  5
27D
100
AcDbEntity
  8
MAIN0
  6
BYBLOCK
 62
3
100
AcDbBlockBegin
  2
$$BALLOON$$7
 70
    64
 10
0.0
 20
0.0
 30
0.0
  0
LEADER
  5
27E
100
AcDbEntity
  8
MAIN0
  6
BYBLOCK
 62
0
100
AcDbLeader
  3
MAIN001
 73
     0
 74
     0
 75
     0
 40
0.0000000000000000
 41
0.0000000000000000
 76
     2
 10
0.0000000000000000
 20
0.0000000000000000
 30
0.0000000000000000
 10
107.5687243427036
 20
138.2337395329152
 30
0.0000000000000000
340
27F
213
-6.141312424999711
223
-7.892039134377342
233
0.0000000000000000
1001
ACAD
1000
DSTYLE
1002
{
1070
   147
1040
0.0
1070
    77
1070
     0
1070
   173
1070
     1
1070
     6
1000
_DOT
1070
     7
1000
_DOT
1002
}
  0
MTEXT
  5
27F
102
{ACAD_REACTORS
330
27E
102
}
100
AcDbEntity
  8
MAIN0
  6
BYBLOCK
 62
0
100
AcDbMText
 10
113.7100367677033
 20
146.1257786672925
 30
0.0000000000000000
 40
6.199999809265137
 41
0.0000000000000000
 71
     5
 72
     1
  1
{\H0.88x; D}
 11
1.000000000000000
 21
0.0000000000000000
 31
0.0000000000000000
  7
STANDARD
  0
CIRCLE
  5
280
100
AcDbEntity
  8
MAIN0
  6
BYBLOCK
 62
0
100
AcDbCircle
 10
113.7100367677033
 20
146.1257786672925
 30
0.0000000000000000
 40
10.00000000000000
  0
ENDBLK
  5
281
100
AcDbEntity
  8
MAIN0
  6
BYBLOCK
 62
3
100
AcDbBlockEnd
  0
BLOCK
  5
283
100
AcDbEntity
  8
MAIN0
  6
BYBLOCK
 62
3
100
AcDbBlockBegin
  2
$$BALLOON$$8
 70
    64
 10
0.0
 20
0.0
 30
0.0
  0
LEADER
  5
284
100
AcDbEntity
  8
MAIN0
  6
BYBLOCK
 62
0
100
AcDbLeader
  3
MAIN001
 73
     0
 75
     0
 40
0.0000000000000000
 41
0.0000000000000000
 76
     2
 10
0.0000000000000000
 20
0.0000000000000000
 30
0.0000000000000000
 10
-62.83041776129132
 20
29.07078923964769
 30
0.0000000000000000
340
285
213
9.075625242594981
223
-4.199169734122787
233
0.0000000000000000
1001
ACAD
1000
DSTYLE
1002
{
1070
   147
1040
0.0
1070
    77
1070
     0
1070
   173
1070
     1
1070
     6
1000
_DOT
1070
     7
1000
_DOT
1002
}
  0
MTEXT
  5
285
102
{ACAD_REACTORS
330
284
102
}
100
AcDbEntity
  8
MAIN0
  6
BYBLOCK
 62
0
100
AcDbMText
 10
-71.90604300388630
 20
33.26995897377048
 30
0.0000000000000000
 40
6.199999809265137
 41
0.0000000000000000
 71
     5
 72
     1
  1
{\H0.88x; E}
 11
1.000000000000000
 21
0.0000000000000000
 31
0.0000000000000000
  7
STANDARD
  0
CIRCLE
  5
286
100
AcDbEntity
  8
MAIN0
  6
BYBLOCK
 62
0
100
AcDbCircle
 10
-71.90604300388630
 20
33.26995897377048
 30
0.0000000000000000
 40
10.00000000000000
  0
ENDBLK
  5
287
100
AcDbEntity
  8
MAIN0
  6
BYBLOCK
 62
3
100
AcDbBlockEnd
  0
BLOCK
  5
2F5
100
AcDbEntity
  8
MAIN0
  6
BYBLOCK
 62
3
100
AcDbBlockBegin
  2
$$BALLOON$$9
 70
    64
 10
0.0
 20
0.0
 30
0.0
  0
LEADER
  5
2F6
100
AcDbEntity
  8
MAIN0
  6
BYBLOCK
 62
0
100
AcDbLeader
  3
MAIN001
 73
     0
 75
     0
 40
0.0000000000000000
 41
0.0000000000000000
 76
     2
 10
5.048709793414476e-029
 20
-1.262177448353619e-029
 30
0.0000000000000000
 10
-40.30486129998813
 20
64.61573394058179
 30
0.0000000000000000
340
2F7
213
5.292435883565773
223
-8.484699312193825
233
0.0000000000000000
1001
ACAD
1000
DSTYLE
1002
{
1070
   147
1040
0.0
1070
    77
1070
     0
1070
   173
1070
     1
1070
     6
1000
_DOT
1070
     7
1000
_DOT
1002
}
  0
MTEXT
  5
2F7
102
{ACAD_REACTORS
330
2F6
102
}
100
AcDbEntity
  8
MAIN0
  6
BYBLOCK
 62
0
100
AcDbMText
 10
-45.59729718355391
 20
73.10043325277562
 30
0.0000000000000000
 40
6.199999809265137
 41
0.0000000000000000
 71
     5
 72
     1
  1
{\H0.81x;B}
 11
1.000000000000000
 21
0.0000000000000000
 31
0.0000000000000000
  7
STANDARD
  0
CIRCLE
  5
2F8
100
AcDbEntity
  8
MAIN0
  6
BYBLOCK
 62
0
100
AcDbCircle
 10
-45.59729718355391
 20
73.10043325277562
 30
0.0000000000000000
 40
10.00000000000000
  0
ENDBLK
  5
2F9
100
AcDbEntity
  8
MAIN0
  6
BYBLOCK
 62
3
100
AcDbBlockEnd
  0
BLOCK
  5
32F
100
AcDbEntity
  8
MAIN0
  6
BYBLOCK
 62
2
100
AcDbBlockBegin
  2
M10
 70
    64
 10
0.0
 20
0.0
 30
0.0
  0
LINE
  5
330
100
AcDbEntity
  8
MAIN0
  6
BYBLOCK
 62
0
100
AcDbLine
 10
715.4642069823392
 20
656.9703644139645
 30
0.0000000000000000
 11
715.4642069823526
 21
668.9703644139645
 31
0.0000000000000000
  0
LINE
  5
331
100
AcDbEntity
  8
MAIN0
  6
BYBLOCK
 62
0
100
AcDbLine
 10
715.4642069823459
 20
662.9703644139645
 30
0.0000000000000000
 11
739.4642069823459
 21
662.9703644139379
 31
0.0000000000000000
  0
LINE
  5
332
100
AcDbEntity
  8
MAIN0
  6
BYBLOCK
 62
0
100
AcDbLine
 10
715.4642069823460
 20
662.9703644139643
 30
0.0000000000000000
 11
725.1234652452339
 21
660.3821739629284
 31
0.0000000000000000
  0
LINE
  5
333
100
AcDbEntity
  8
MAIN0
  6
BYBLOCK
 62
0
100
AcDbLine
 10
715.4642069823458
 20
662.9703644139647
 30
0.0000000000000000
 11
725.1234652452393
 21
665.5585548649792
 31
0.0000000000000000
  0
ENDBLK
  5
334
100
AcDbEntity
  8
MAIN0
  6
BYBLOCK
 62
2
100
AcDbBlockEnd
  0
BLOCK
  5
3FB
100
AcDbEntity
  8
WAKU0
  6
BYBLOCK
 62
3
100
AcDbBlockBegin
  2
M11
 70
    64
 10
0.0
 20
0.0
 30
0.0
  0
POINT
  5
3FC
100
AcDbEntity
  8
WAKU0
  6
BYBLOCK
 62
0
100
AcDbPoint
 10
544.0000000000000
 20
24.00000000000000
 30
0.0000000000000000
  0
POINT
  5
3FD
100
AcDbEntity
  8
WAKU0
  6
BYBLOCK
 62
0
100
AcDbPoint
 10
262.0000000000073
 20
24.00000000000001
 30
0.0000000000000000
  0
LINE
  5
3FE
100
AcDbEntity
  8
WAKU0
  6
BYBLOCK
 62
0
100
AcDbLine
 10
50.00000000000364
 20
24.00000000000001
 30
0.0000000000000000
 11
1164.000000000000
 21
24.00000000000000
 31
0.0000000000000000
  0
LINE
  5
3FF
100
AcDbEntity
  8
WAKU0
  6
BYBLOCK
 62
0
100
AcDbLine
 10
50.00000000000387
 20
819.9999999999931
 30
0.0000000000000000
 11
1164.000000000000
 21
819.9999999999927
 31
0.0000000000000000
  0
LINE
  5
400
100
AcDbEntity
  8
WAKU0
  6
BYBLOCK
 62
0
100
AcDbLine
 10
50.00000000000364
 20
24.00000000000001
 30
0.0000000000000000
 11
50.00000000000387
 21
819.9999999999931
 31
0.0000000000000000
  0
LINE
  5
401
100
AcDbEntity
  8
WAKU0
  6
BYBLOCK
 62
0
100
AcDbLine
 10
1164.000000000000
 20
24.00000000000000
 30
0.0000000000000000
 11
1164.000000000000
 21
819.9999999999927
 31
0.0000000000000000
  0
LINE
  5
402
100
AcDbEntity
  8
WAKU0
  6
BYBLOCK
 62
0
100
AcDbLine
 10
4.000000000002046
 20
835.9999999999936
 30
0.0000000000000000
 11
20.00000000000205
 21
835.9999999999936
 31
0.0000000000000000
  0
LINE
  5
403
100
AcDbEntity
  8
WAKU0
  6
BYBLOCK
 62
0
100
AcDbLine
 10
1168.000000000000
 20
835.9999999999927
 30
0.0000000000000000
 11
1184.000000000000
 21
835.9999999999928
 31
0.0000000000000000
  0
LINE
  5
404
100
AcDbEntity
  8
WAKU0
  6
BYBLOCK
 62
0
100
AcDbLine
 10
1184.000000000000
 20
819.9999999999926
 30
0.0000000000000000
 11
1184.000000000000
 21
835.9999999999926
 31
0.0000000000000000
  0
LINE
  5
405
100
AcDbEntity
  8
WAKU0
  6
BYBLOCK
 62
0
100
AcDbLine
 10
4.000000000003638
 20
819.9999999999927
 30
0.0000000000000000
 11
4.000000000003638
 21
835.9999999999927
 31
0.0000000000000000
  0
LINE
  5
406
100
AcDbEntity
  8
WAKU0
  6
BYBLOCK
 62
0
100
AcDbLine
 10
4.000000000003638
 20
4.000000000000085
 30
0.0000000000000000
 11
20.00000000000364
 21
4.000000000000085
 31
0.0000000000000000
  0
LINE
  5
407
100
AcDbEntity
  8
WAKU0
  6
BYBLOCK
 62
0
100
AcDbLine
 10
1168.000000000000
 20
4.000000000000007
 30
0.0000000000000000
 11
1184.000000000000
 21
4.000000000000007
 31
0.0000000000000000
  0
LINE
  5
408
100
AcDbEntity
  8
WAKU0
  6
BYBLOCK
 62
0
100
AcDbLine
 10
1184.000000000000
 20
20.00000000000014
 30
0.0000000000000000
 11
1184.000000000000
 21
4.000000000000156
 31
0.0000000000000000
  0
LINE
  5
409
100
AcDbEntity
  8
WAKU0
  6
BYBLOCK
 62
0
100
AcDbLine
 10
4.000000000003638
 20
4.000000000000203
 30
0.0000000000000000
 11
4.000000000003638
 21
20.00000000000014
 31
0.0000000000000000
  0
LINE
  5
40A
100
AcDbEntity
  8
WAKU0
  6
BYBLOCK
 62
0
100
AcDbLine
 10
594.0000000000001
 20
-3.552713678800501e-015
 30
0.0000000000000000
 11
594.0000000000000
 21
24.00000000000003
 31
0.0000000000000000
  0
LINE
  5
40B
100
AcDbEntity
  8
WAKU0
  6
BYBLOCK
 62
0
100
AcDbLine
 10
594.0000000000046
 20
819.9999999999959
 30
0.0000000000000000
 11
594.0000000000047
 21
839.9999999999959
 31
0.0000000000000000
  0
LINE
  5
40C
100
AcDbEntity
  8
WAKU0
  6
BYBLOCK
 62
0
100
AcDbLine
 10
3.637978807091713e-012
 20
419.9999999999999
 30
0.0000000000000000
 11
50.00000000000364
 21
419.9999999999999
 31
0.0000000000000000
  0
LINE
  5
40D
100
AcDbEntity
  8
WAKU0
  6
BYBLOCK
 62
0
100
AcDbLine
 10
1164.000000000000
 20
419.9999999999999
 30
0.0000000000000000
 11
1188.000000000000
 21
419.9999999999999
 31
0.0000000000000000
  0
LINE
  5
40E
100
AcDbEntity
  8
WAKU0
  6
BYBLOCK
 62
0
100
AcDbLine
 10
454.0000000000073
 20
14.00000000000002
 30
0.0000000000000000
 11
733.9999999999999
 21
14.00000000000009
 31
0.0000000000000000
  0
LINE
  5
40F
100
AcDbEntity
  8
WAKU0
  6
BYBLOCK
 62
0
100
AcDbLine
 10
42.00000000000205
 20
679.9999999999941
 30
0.0000000000000000
 11
50.00000000000205
 21
679.9999999999940
 31
0.0000000000000000
  0
LINE
  5
410
100
AcDbEntity
  8
WAKU0
  6
BYBLOCK
 62
0
100
AcDbLine
 10
1164.000000000000
 20
679.9999999999927
 30
0.0000000000000000
 11
1172.000000000000
 21
679.9999999999928
 31
0.0000000000000000
  0
LINE
  5
411
100
AcDbEntity
  8
WAKU0
  6
BYBLOCK
 62
0
100
AcDbLine
 10
42.00000000000387
 20
549.9999999999941
 30
0.0000000000000000
 11
50.00000000000387
 21
549.9999999999940
 31
0.0000000000000000
  0
LINE
  5
412
100
AcDbEntity
  8
WAKU0
  6
BYBLOCK
 62
0
100
AcDbLine
 10
1164.000000000000
 20
549.9999999999927
 30
0.0000000000000000
 11
1172.000000000000
 21
549.9999999999928
 31
0.0000000000000000
  0
LINE
  5
413
100
AcDbEntity
  8
WAKU0
  6
BYBLOCK
 62
0
100
AcDbLine
 10
42.00000000000023
 20
289.9999999999999
 30
0.0000000000000000
 11
50.00000000000023
 21
289.9999999999999
 31
0.0000000000000000
  0
LINE
  5
414
100
AcDbEntity
  8
WAKU0
  6
BYBLOCK
 62
0
100
AcDbLine
 10
1164.000000000000
 20
289.9999999999999
 30
0.0000000000000000
 11
1172.000000000000
 21
289.9999999999999
 31
0.0000000000000000
  0
LINE
  5
415
100
AcDbEntity
  8
WAKU0
  6
BYBLOCK
 62
0
100
AcDbLine
 10
42.00000000000387
 20
160.0000000000000
 30
0.0000000000000000
 11
50.00000000000387
 21
160.0000000000000
 31
0.0000000000000000
  0
LINE
  5
416
100
AcDbEntity
  8
WAKU0
  6
BYBLOCK
 62
0
100
AcDbLine
 10
1164.000000000000
 20
159.9999999999999
 30
0.0000000000000000
 11
1172.000000000000
 21
159.9999999999999
 31
0.0000000000000000
  0
LINE
  5
417
100
AcDbEntity
  8
WAKU0
  6
BYBLOCK
 62
0
100
AcDbLine
 10
734.0000000000000
 20
14.00000000000007
 30
0.0000000000000000
 11
733.9999999999998
 21
24.00000000000003
 31
0.0000000000000000
  0
LINE
  5
418
100
AcDbEntity
  8
WAKU0
  6
BYBLOCK
 62
0
100
AcDbLine
 10
733.9999999999998
 20
819.9999999999989
 30
0.0000000000000000
 11
733.9999999999998
 21
827.9999999999989
 31
0.0000000000000000
  0
LINE
  5
419
100
AcDbEntity
  8
WAKU0
  6
BYBLOCK
 62
0
100
AcDbLine
 10
454.0000000000073
 20
14.00000000000001
 30
0.0000000000000000
 11
454.0000000000073
 21
23.99999999999990
 31
0.0000000000000000
  0
LINE
  5
41A
100
AcDbEntity
  8
WAKU0
  6
BYBLOCK
 62
0
100
AcDbLine
 10
454.0000000000073
 20
819.9999999999927
 30
0.0000000000000000
 11
454.0000000000073
 21
827.9999999999927
 31
0.0000000000000000
  0
LINE
  5
41B
100
AcDbEntity
  8
WAKU0
  6
BYBLOCK
 62
0
100
AcDbLine
 10
474.0000000000073
 20
20.00000000000020
 30
0.0000000000000000
 11
474.0000000000073
 21
14.00000000000006
 31
0.0000000000000000
  0
LINE
  5
41C
100
AcDbEntity
  8
WAKU0
  6
BYBLOCK
 62
0
100
AcDbLine
 10
494.0000000000073
 20
20.00000000000011
 30
0.0000000000000000
 11
494.0000000000073
 21
14.00000000000004
 31
0.0000000000000000
  0
LINE
  5
41D
100
AcDbEntity
  8
WAKU0
  6
BYBLOCK
 62
0
100
AcDbLine
 10
514.0000000000000
 20
14.00000000000002
 30
0.0000000000000000
 11
514.0000000000000
 21
20.00000000000020
 31
0.0000000000000000
  0
LINE
  5
41E
100
AcDbEntity
  8
WAKU0
  6
BYBLOCK
 62
0
100
AcDbLine
 10
534.0000000000000
 20
14.00000000000006
 30
0.0000000000000000
 11
534.0000000000000
 21
20.00000000000014
 31
0.0000000000000000
  0
LINE
  5
41F
100
AcDbEntity
  8
WAKU0
  6
BYBLOCK
 62
0
100
AcDbLine
 10
554.0000000000000
 20
20.00000000000020
 30
0.0000000000000000
 11
554.0000000000000
 21
14.00000000000002
 31
0.0000000000000000
  0
LINE
  5
420
100
AcDbEntity
  8
WAKU0
  6
BYBLOCK
 62
0
100
AcDbLine
 10
574.0000000000000
 20
20.00000000000017
 30
0.0000000000000000
 11
574.0000000000000
 21
14.00000000000004
 31
0.0000000000000000
  0
LINE
  5
421
100
AcDbEntity
  8
WAKU0
  6
BYBLOCK
 62
0
100
AcDbLine
 10
614.0000000000000
 20
20.00000000000014
 30
0.0000000000000000
 11
614.0000000000000
 21
14.00000000000001
 31
0.0000000000000000
  0
LINE
  5
422
100
AcDbEntity
  8
WAKU0
  6
BYBLOCK
 62
0
100
AcDbLine
 10
634.0000000000000
 20
14.00000000000003
 30
0.0000000000000000
 11
634.0000000000000
 21
20.00000000000017
 31
0.0000000000000000
  0
LINE
  5
423
100
AcDbEntity
  8
WAKU0
  6
BYBLOCK
 62
0
100
AcDbLine
 10
653.9999999999999
 20
20.00000000000014
 30
0.0000000000000000
 11
653.9999999999999
 21
14.00000000000001
 31
0.0000000000000000
  0
LINE
  5
424
100
AcDbEntity
  8
WAKU0
  6
BYBLOCK
 62
0
100
AcDbLine
 10
674.0000000000000
 20
20.00000000000015
 30
0.0000000000000000
 11
673.9999999999998
 21
14.00000000000001
 31
0.0000000000000000
  0
LINE
  5
425
100
AcDbEntity
  8
WAKU0
  6
BYBLOCK
 62
0
100
AcDbLine
 10
693.9999999999999
 20
20.00000000000023
 30
0.0000000000000000
 11
693.9999999999999
 21
14.00000000000007
 31
0.0000000000000000
  0
LINE
  5
426
100
AcDbEntity
  8
WAKU0
  6
BYBLOCK
 62
0
100
AcDbLine
 10
713.9999999999999
 20
20.00000000000014
 30
0.0000000000000000
 11
713.9999999999999
 21
14.00000000000001
 31
0.0000000000000000
  0
LINE
  5
427
100
AcDbEntity
  8
WAKU0
  6
BYBLOCK
 62
0
100
AcDbLine
 10
1014.000000000000
 20
16.00000000000017
 30
0.0000000000000000
 11
1014.000000000000
 21
23.99999999999997
 31
0.0000000000000000
  0
LINE
  5
428
100
AcDbEntity
  8
WAKU0
  6
BYBLOCK
 62
0
100
AcDbLine
 10
1014.000000000000
 20
819.9999999999949
 30
0.0000000000000000
 11
1014.000000000000
 21
827.9999999999949
 31
0.0000000000000000
  0
LINE
  5
429
100
AcDbEntity
  8
WAKU0
  6
BYBLOCK
 62
0
100
AcDbLine
 10
874.0000000000000
 20
16.00000000000020
 30
0.0000000000000000
 11
873.9999999999998
 21
24.00000000000002
 31
0.0000000000000000
  0
LINE
  5
42A
100
AcDbEntity
  8
WAKU0
  6
BYBLOCK
 62
0
100
AcDbLine
 10
873.9999999999998
 20
819.9999999999968
 30
0.0000000000000000
 11
873.9999999999998
 21
827.9999999999968
 31
0.0000000000000000
  0
LINE
  5
42B
100
AcDbEntity
  8
WAKU0
  6
BYBLOCK
 62
0
100
AcDbLine
 10
314.0000000000073
 20
16.00000000000021
 30
0.0000000000000000
 11
314.0000000000073
 21
24.00000000000002
 31
0.0000000000000000
  0
LINE
  5
42C
100
AcDbEntity
  8
WAKU0
  6
BYBLOCK
 62
0
100
AcDbLine
 10
314.0000000000073
 20
819.9999999999927
 30
0.0000000000000000
 11
314.0000000000073
 21
827.9999999999927
 31
0.0000000000000000
  0
LINE
  5
42D
100
AcDbEntity
  8
WAKU0
  6
BYBLOCK
 62
0
100
AcDbLine
 10
174.0000000000073
 20
16.00000000000019
 30
0.0000000000000000
 11
174.0000000000073
 21
24.00000000000003
 31
0.0000000000000000
  0
LINE
  5
42E
100
AcDbEntity
  8
WAKU0
  6
BYBLOCK
 62
0
100
AcDbLine
 10
174.0000000000073
 20
819.9999999999927
 30
0.0000000000000000
 11
174.0000000000073
 21
827.9999999999927
 31
0.0000000000000000
  0
MTEXT
  5
42F
100
AcDbEntity
  8
WAKU0
  6
BYBLOCK
 62
0
100
AcDbMText
 10
112.0000000000036
 20
20.20000076293957
 30
0.0000000000000000
 40
6.200000762939453
 41
0.0000000000000000
 71
     1
 72
     1
  1
{\H0.81x;1}
 11
1.000000000000000
 21
0.0000000000000000
 31
0.0000000000000000
  7
STANDARD
  0
MTEXT
  5
430
100
AcDbEntity
  8
WAKU0
  6
BYBLOCK
 62
0
100
AcDbMText
 10
244.0000000000073
 20
20.20000076293945
 30
0.0000000000000000
 40
6.200000762939453
 41
0.0000000000000000
 71
     1
 72
     1
  1
{\H0.81x;2}
 11
1.000000000000000
 21
0.0000000000000000
 31
0.0000000000000000
  7
STANDARD
  0
MTEXT
  5
431
100
AcDbEntity
  8
WAKU0
  6
BYBLOCK
 62
0
100
AcDbMText
 10
384.0000000000073
 20
20.20000076293945
 30
0.0000000000000000
 40
6.200000762939453
 41
0.0000000000000000
 71
     1
 72
     1
  1
{\H0.81x;3}
 11
1.000000000000000
 21
0.0000000000000000
 31
0.0000000000000000
  7
STANDARD
  0
MTEXT
  5
432
100
AcDbEntity
  8
WAKU0
  6
BYBLOCK
 62
0
100
AcDbMText
 10
803.9999999999996
 20
20.20000076293934
 30
0.0000000000000000
 40
6.200000762939453
 41
0.0000000000000000
 71
     1
 72
     1
  1
{\H0.81x;6}
 11
1.000000000000000
 21
0.0000000000000000
 31
0.0000000000000000
  7
STANDARD
  0
MTEXT
  5
433
100
AcDbEntity
  8
WAKU0
  6
BYBLOCK
 62
0
100
AcDbMText
 10
943.9999999999996
 20
20.20000076293945
 30
0.0000000000000000
 40
6.200000762939453
 41
0.0000000000000000
 71
     1
 72
     1
  1
{\H0.81x;7}
 11
1.000000000000000
 21
0.0000000000000000
 31
0.0000000000000000
  7
STANDARD
  0
MTEXT
  5
434
100
AcDbEntity
  8
WAKU0
  6
BYBLOCK
 62
0
100
AcDbMText
 10
1089.000000000000
 20
20.20000076293945
 30
0.0000000000000000
 40
6.200000762939453
 41
0.0000000000000000
 71
     1
 72
     1
  1
{\H0.81x;8}
 11
1.000000000000000
 21
0.0000000000000000
 31
0.0000000000000000
  7
STANDARD
  0
MTEXT
  5
435
100
AcDbEntity
  8
WAKU0
  6
BYBLOCK
 62
0
100
AcDbMText
 10
112.0000000000036
 20
830.2000007629322
 30
0.0000000000000000
 40
6.200000762939453
 41
0.0000000000000000
 71
     1
 72
     1
  1
{\H0.81x;1}
 11
1.000000000000000
 21
0.0000000000000000
 31
0.0000000000000000
  7
STANDARD
  0
MTEXT
  5
436
100
AcDbEntity
  8
WAKU0
  6
BYBLOCK
 62
0
100
AcDbMText
 10
244.0000000000073
 20
830.2000007629322
 30
0.0000000000000000
 40
6.200000762939453
 41
0.0000000000000000
 71
     1
 72
     1
  1
{\H0.81x;2}
 11
1.000000000000000
 21
0.0000000000000000
 31
0.0000000000000000
  7
STANDARD
  0
MTEXT
  5
437
100
AcDbEntity
  8
WAKU0
  6
BYBLOCK
 62
0
100
AcDbMText
 10
384.0000000000073
 20
830.2000007629322
 30
0.0000000000000000
 40
6.200000762939453
 41
0.0000000000000000
 71
     1
 72
     1
  1
{\H0.81x;3}
 11
1.000000000000000
 21
0.0000000000000000
 31
0.0000000000000000
  7
STANDARD
  0
MTEXT
  5
438
100
AcDbEntity
  8
WAKU0
  6
BYBLOCK
 62
0
100
AcDbMText
 10
524.0000000000000
 20
830.2000007629322
 30
0.0000000000000000
 40
6.200000762939453
 41
0.0000000000000000
 71
     1
 72
     1
  1
{\H0.81x;4}
 11
1.000000000000000
 21
0.0000000000000000
 31
0.0000000000000000
  7
STANDARD
  0
MTEXT
  5
439
100
AcDbEntity
  8
WAKU0
  6
BYBLOCK
 62
0
100
AcDbMText
 10
663.9999999999996
 20
830.2000007629322
 30
0.0000000000000000
 40
6.200000762939453
 41
0.0000000000000000
 71
     1
 72
     1
  1
{\H0.81x;5}
 11
1.000000000000000
 21
0.0000000000000000
 31
0.0000000000000000
  7
STANDARD
  0
MTEXT
  5
43A
100
AcDbEntity
  8
WAKU0
  6
BYBLOCK
 62
0
100
AcDbMText
 10
803.9999999999996
 20
830.2000007629322
 30
0.0000000000000000
 40
6.200000762939453
 41
0.0000000000000000
 71
     1
 72
     1
  1
{\H0.81x;6}
 11
1.000000000000000
 21
0.0000000000000000
 31
0.0000000000000000
  7
STANDARD
  0
MTEXT
  5
43B
100
AcDbEntity
  8
WAKU0
  6
BYBLOCK
 62
0
100
AcDbMText
 10
943.9999999999996
 20
830.2000007629322
 30
0.0000000000000000
 40
6.200000762939453
 41
0.0000000000000000
 71
     1
 72
     1
  1
{\H0.81x;7}
 11
1.000000000000000
 21
0.0000000000000000
 31
0.0000000000000000
  7
STANDARD
  0
MTEXT
  5
43C
100
AcDbEntity
  8
WAKU0
  6
BYBLOCK
 62
0
100
AcDbMText
 10
1089.000000000000
 20
830.2000007629322
 30
0.0000000000000000
 40
6.200000762939453
 41
0.0000000000000000
 71
     1
 72
     1
  1
{\H0.81x;8}
 11
1.000000000000000
 21
0.0000000000000000
 31
0.0000000000000000
  7
STANDARD
  0
MTEXT
  5
43D
100
AcDbEntity
  8
WAKU0
  6
BYBLOCK
 62
0
100
AcDbMText
 10
42.00000000000364
 20
756.2000007629322
 30
0.0000000000000000
 40
6.200000762939453
 41
0.0000000000000000
 71
     1
 72
     1
  1
{\H0.81x;A}
 11
1.000000000000000
 21
0.0000000000000000
 31
0.0000000000000000
  7
STANDARD
  0
MTEXT
  5
43E
100
AcDbEntity
  8
WAKU0
  6
BYBLOCK
 62
0
100
AcDbMText
 10
42.00000000000364
 20
626.2000007629322
 30
0.0000000000000000
 40
6.200000762939453
 41
0.0000000000000000
 71
     1
 72
     1
  1
{\H0.81x;B}
 11
1.000000000000000
 21
0.0000000000000000
 31
0.0000000000000000
  7
STANDARD
  0
MTEXT
  5
43F
100
AcDbEntity
  8
WAKU0
  6
BYBLOCK
 62
0
100
AcDbMText
 10
42.00000000000364
 20
496.2000007629391
 30
0.0000000000000000
 40
6.200000762939453
 41
0.0000000000000000
 71
     1
 72
     1
  1
{\H0.81x;C}
 11
1.000000000000000
 21
0.0000000000000000
 31
0.0000000000000000
  7
STANDARD
  0
MTEXT
  5
440
100
AcDbEntity
  8
WAKU0
  6
BYBLOCK
 62
0
100
AcDbMText
 10
42.00000000000364
 20
366.2000007629391
 30
0.0000000000000000
 40
6.200000762939453
 41
0.0000000000000000
 71
     1
 72
     1
  1
{\H0.81x;D}
 11
1.000000000000000
 21
0.0000000000000000
 31
0.0000000000000000
  7
STANDARD
  0
MTEXT
  5
441
100
AcDbEntity
  8
WAKU0
  6
BYBLOCK
 62
0
100
AcDbMText
 10
42.00000000000364
 20
236.2000007629390
 30
0.0000000000000000
 40
6.200000762939453
 41
0.0000000000000000
 71
     1
 72
     1
  1
{\H0.81x;E}
 11
1.000000000000000
 21
0.0000000000000000
 31
0.0000000000000000
  7
STANDARD
  0
MTEXT
  5
442
100
AcDbEntity
  8
WAKU0
  6
BYBLOCK
 62
0
100
AcDbMText
 10
42.00000000000364
 20
106.2000007629390
 30
0.0000000000000000
 40
6.200000762939453
 41
0.0000000000000000
 71
     1
 72
     1
  1
{\H0.81x;F}
 11
1.000000000000000
 21
0.0000000000000000
 31
0.0000000000000000
  7
STANDARD
  0
MTEXT
  5
443
100
AcDbEntity
  8
WAKU0
  6
BYBLOCK
 62
0
100
AcDbMText
 10
1170.000000000000
 20
756.2000007629322
 30
0.0000000000000000
 40
6.200000762939453
 41
0.0000000000000000
 71
     1
 72
     1
  1
{\H0.81x;A}
 11
1.000000000000000
 21
0.0000000000000000
 31
0.0000000000000000
  7
STANDARD
  0
MTEXT
  5
444
100
AcDbEntity
  8
WAKU0
  6
BYBLOCK
 62
0
100
AcDbMText
 10
1170.000000000000
 20
626.2000007629322
 30
0.0000000000000000
 40
6.200000762939453
 41
0.0000000000000000
 71
     1
 72
     1
  1
{\H0.81x;B}
 11
1.000000000000000
 21
0.0000000000000000
 31
0.0000000000000000
  7
STANDARD
  0
MTEXT
  5
445
100
AcDbEntity
  8
WAKU0
  6
BYBLOCK
 62
0
100
AcDbMText
 10
1170.000000000000
 20
496.2000007629392
 30
0.0000000000000000
 40
6.200000762939453
 41
0.0000000000000000
 71
     1
 72
     1
  1
{\H0.81x;C}
 11
1.000000000000000
 21
0.0000000000000000
 31
0.0000000000000000
  7
STANDARD
  0
MTEXT
  5
446
100
AcDbEntity
  8
WAKU0
  6
BYBLOCK
 62
0
100
AcDbMText
 10
1170.000000000000
 20
366.2000007629392
 30
0.0000000000000000
 40
6.200000762939453
 41
0.0000000000000000
 71
     1
 72
     1
  1
{\H0.81x;D}
 11
1.000000000000000
 21
0.0000000000000000
 31
0.0000000000000000
  7
STANDARD
  0
MTEXT
  5
447
100
AcDbEntity
  8
WAKU0
  6
BYBLOCK
 62
0
100
AcDbMText
 10
1170.000000000000
 20
236.2000007629391
 30
0.0000000000000000
 40
6.200000762939453
 41
0.0000000000000000
 71
     1
 72
     1
  1
{\H0.81x;E}
 11
1.000000000000000
 21
0.0000000000000000
 31
0.0000000000000000
  7
STANDARD
  0
MTEXT
  5
448
100
AcDbEntity
  8
WAKU0
  6
BYBLOCK
 62
0
100
AcDbMText
 10
1170.000000000000
 20
106.2000007629390
 30
0.0000000000000000
 40
6.200000762939453
 41
0.0000000000000000
 71
     1
 72
     1
  1
{\H0.81x;F}
 11
1.000000000000000
 21
0.0000000000000000
 31
0.0000000000000000
  7
STANDARD
  0
ENDBLK
  5
449
100
AcDbEntity
  8
WAKU0
  6
BYBLOCK
 62
3
100
AcDbBlockEnd
  0
ENDSEC
  0
SECTION
  2
ENTITIES
  0
LINE
  5
46
100
AcDbEntity
  8
MAIN0
  6
CONTINUOUS
 62
3
100
AcDbLine
 10
240.8837345837625
 20
292.1998974327943
 30
0.0000000000000000
 11
337.0931634615772
 21
293.8792392605044
 31
0.0000000000000000
  0
LINE
  5
47
100
AcDbEntity
  8
MAIN0
  6
CONTINUOUS
 62
3
100
AcDbLine
 10
240.8825162377681
 20
251.1721538630875
 30
0.0000000000000000
 11
320.0757110549326
 21
249.7898315056515
 31
0.0000000000000000
  0
LINE
  5
48
100
AcDbEntity
  8
MAIN0
  6
CONTINUOUS
 62
3
100
AcDbLine
 10
201.0233538357764
 20
254.2383802101200
 30
0.0000000000000000
 11
201.8893792399852
 21
253.7383802098753
 31
0.0000000000000000
  0
LINE
  5
49
100
AcDbEntity
  8
MAIN0
  6
CONTINUOUS
 62
3
100
AcDbLine
 10
201.0233538357768
 20
253.2383802096334
 30
0.0000000000000000
 11
201.8893792399852
 21
253.7383802098752
 31
0.0000000000000000
  0
LINE
  5
4A
100
AcDbEntity
  8
MAIN0
  6
CONTINUOUS
 62
3
100
AcDbLine
 10
323.0233538358025
 20
630.7383802095355
 30
0.0000000000000000
 11
323.0233538358067
 21
579.7383802095303
 31
0.0000000000000000
  0
LINE
  5
4B
100
AcDbEntity
  8
MAIN0
  6
CONTINUOUS
 62
3
100
AcDbLine
 10
311.0233538358123
 20
513.4383802095397
 30
0.0000000000000000
 11
318.2233009761676
 21
513.4383802095360
 31
0.0000000000000000
  0
LINE
  5
4C
100
AcDbEntity
  8
MAIN0
  6
CONTINUOUS
 62
3
100
AcDbLine
 10
319.0233538358038
 20
573.7383802095357
 30
0.0000000000000000
 11
337.0233538358095
 21
573.7383802095269
 31
0.0000000000000000
  0
LINE
  5
4D
100
AcDbEntity
  8
MAIN0
  6
CONTINUOUS
 62
3
100
AcDbLine
 10
341.0233538358076
 20
569.7383802095272
 30
0.0000000000000000
 11
341.0233538358305
 21
297.8786300411304
 31
0.0000000000000000
  0
ARC
  5
4E
100
AcDbEntity
  8
MAIN0
  6
CONTINUOUS
 62
3
100
AcDbCircle
 10
320.0233538358024
 20
630.7383802095352
 30
0.0000000000000000
 40
3.000000000000000
100
AcDbArc
 50
0.0000000000000000
 51
90.00000000000000
  0
LINE
  5
4F
100
AcDbEntity
  8
MAIN0
  6
CONTINUOUS
 62
3
100
AcDbLine
 10
341.0233538358122
 20
516.2883802095249
 30
0.0000000000000000
 11
318.2233009761670
 21
513.4383802095360
 31
0.0000000000000000
  0
LINE
  5
50
100
AcDbEntity
  8
MAIN0
  6
CONTINUOUS
 62
3
100
AcDbLine
 10
311.0233538358123
 20
513.4383802095397
 30
0.0000000000000000
 11
311.0233538358257
 21
354.0383802095396
 31
0.0000000000000000
  0
LINE
  5
51
100
AcDbEntity
  8
MAIN0
  6
CONTINUOUS
 62
3
100
AcDbLine
 10
313.0233538358039
 20
614.6157377709139
 30
0.0000000000000000
 11
313.0233538358067
 21
579.7383802095352
 31
0.0000000000000000
  0
ARC
  5
52
100
AcDbEntity
  8
MAIN0
  6
CONTINUOUS
 62
3
100
AcDbCircle
 10
319.0233538358067
 20
579.7383802095357
 30
0.0000000000000000
 40
6.000000000000000
100
AcDbArc
 50
180.0000000000000
 51
270.0000000000000
  0
ARC
  5
53
100
AcDbEntity
  8
MAIN0
  6
CONTINUOUS
 62
3
100
AcDbCircle
 10
329.0233538358068
 20
579.7383802095308
 30
0.0000000000000000
 40
6.000000000000000
100
AcDbArc
 50
180.0000000000000
 51
270.0000000000000
  0
LINE
  5
54
100
AcDbEntity
  8
MAIN0
  6
CONTINUOUS
 62
3
100
AcDbLine
 10
311.0233538357339
 20
354.0383802095396
 30
0.0000000000000000
 11
318.2233009760892
 21
354.0383802095361
 31
0.0000000000000000
  0
LINE
  5
55
100
AcDbEntity
  8
MAIN0
  6
CONTINUOUS
 62
3
100
AcDbLine
 10
341.0233538357309
 20
351.1883802095248
 30
0.0000000000000000
 11
318.2233009760885
 21
354.0383802095362
 31
0.0000000000000000
  0
LINE
  5
56
100
AcDbEntity
  8
MAIN0
  6
CONTINUOUS
 62
3
100
AcDbLine
 10
323.0233538356087
 20
236.7383802095320
 30
0.0000000000000000
 11
323.0233538356631
 21
287.7383802095372
 31
0.0000000000000000
  0
ARC
  5
57
100
AcDbEntity
  8
MAIN0
  6
CONTINUOUS
 62
3
100
AcDbCircle
 10
320.0233538356086
 20
236.7383802095352
 30
0.0000000000000000
 40
3.000000000000000
100
AcDbArc
 50
269.9999999999436
 51
359.9999999999436
  0
ARC
  5
58
100
AcDbEntity
  8
MAIN0
  6
CONTINUOUS
 62
3
100
AcDbCircle
 10
329.0233538356632
 20
287.7383802095308
 30
0.0000000000000000
 40
6.000000000000000
100
AcDbArc
 50
89.99999999994363
 51
179.9999999999436
  0
LINE
  5
59
100
AcDbEntity
  8
MAIN0
  6
CONTINUOUS
 62
3
100
AcDbLine
 10
233.0233538352561
 20
259.1709141580303
 30
0.0000000000000000
 11
233.0233538352561
 21
284.2011158715431
 31
0.0000000000000000
  0
ARC
  5
5A
100
AcDbEntity
  8
MAIN0
  6
CONTINUOUS
 62
3
100
AcDbCircle
 10
320.0233538356194
 20
246.7902884201823
 30
0.0000000000000000
 40
3.000000000000000
100
AcDbArc
 50
0.0000000000000000
 51
88.99999999997870
  0
ARC
  5
5B
100
AcDbEntity
  8
MAIN0
  6
CONTINUOUS
 62
3
100
AcDbCircle
 10
320.0233538358033
 20
620.6864719988881
 30
0.0000000000000000
 40
3.000000000000000
100
AcDbArc
 50
270.9999999999649
 51
359.9999999999436
  0
LINE
  5
5C
100
AcDbEntity
  8
MAIN0
  6
CONTINUOUS
 62
3
100
AcDbLine
 10
315.9709966164938
 20
617.6152808563834
 30
0.0000000000000000
 11
320.0757110551135
 21
617.6869289134188
 31
0.0000000000000000
  0
ARC
  5
5D
100
AcDbEntity
  8
MAIN0
  6
CONTINUOUS
 62
3
100
AcDbCircle
 10
316.0233538358039
 20
614.6157377709143
 30
0.0000000000000000
 40
3.000000000000000
100
AcDbArc
 50
90.99999999996486
 51
180.0000000000000
  0
LINE
  5
5E
100
AcDbEntity
  8
MAIN0
  6
CONTINUOUS
 62
3
100
AcDbLine
 10
311.0233538358146
 20
485.7383802095396
 30
0.0000000000000000
 11
309.0233538358148
 21
483.7383802095407
 31
0.0000000000000000
  0
LINE
  5
5F
100
AcDbEntity
  8
MAIN0
  6
CONTINUOUS
 62
3
100
AcDbLine
 10
311.0233538358234
 20
381.7383802095396
 30
0.0000000000000000
 11
309.0233538358232
 21
383.7383802095407
 31
0.0000000000000000
  0
LINE
  5
60
100
AcDbEntity
  8
MAIN0
  6
CONTINUOUS
 62
3
100
AcDbLine
 10
309.0233538352563
 20
383.7383802095406
 30
0.0000000000000000
 11
309.0233538352563
 21
483.7383802095406
 31
0.0000000000000000
  0
LINE
  5
61
100
AcDbEntity
  8
MAIN0
  6
CONTINUOUS
 62
3
100
AcDbLine
 10
300.0161203272703
 20
483.7383802095308
 30
0.0000000000000000
 11
300.0161203272703
 21
383.7383802095407
 31
0.0000000000000000
  0
LINE
  5
62
100
AcDbEntity
  8
MAIN0
  6
CONTINUOUS
 62
3
100
AcDbLine
 10
301.2161203749540
 20
479.7383802095308
 30
0.0000000000000000
 11
300.0161203272703
 21
483.7383802095308
 31
0.0000000000000000
  0
LINE
  5
63
100
AcDbEntity
  8
MAIN0
  6
CONTINUOUS
 62
3
100
AcDbLine
 10
300.0161203272703
 20
483.7383802095308
 30
0.0000000000000000
 11
298.8161202795866
 21
479.7383802095308
 31
0.0000000000000000
  0
LINE
  5
64
100
AcDbEntity
  8
MAIN0
  6
CONTINUOUS
 62
3
100
AcDbLine
 10
301.2161203749540
 20
387.7383802095407
 30
0.0000000000000000
 11
300.0161203272703
 21
383.7383802095407
 31
0.0000000000000000
  0
LINE
  5
65
100
AcDbEntity
  8
MAIN0
  6
CONTINUOUS
 62
3
100
AcDbLine
 10
300.0161203272703
 20
383.7383802095407
 30
0.0000000000000000
 11
298.8161202795866
 21
387.7383802095407
 31
0.0000000000000000
  0
MTEXT
  5
66
100
AcDbEntity
  8
MAIN0
  6
CONTINUOUS
 62
3
100
AcDbMText
 10
299.0161203272703
 20
443.4705656803176
 30
0.0000000000000000
 40
6.199999809265137
 41
0.0000000000000000
 71
     8
 72
     1
  1
{\U+220550}
 11
6.123233995736766e-017
 21
1.000000000000000
 31
0.0000000000000000
  7
STANDARD
  0
LINE
  5
67
100
AcDbEntity
  8
MAIN0
  6
CONTINUOUS
 62
3
100
AcDbLine
 10
318.2233009763672
 20
354.0383802095012
 30
0.0000000000000000
 11
318.2233009763672
 21
513.4383802095611
 31
0.0000000000000000
  0
LINE
  5
68
100
AcDbEntity
  8
MAIN0
  6
CONTINUOUS
 62
3
100
AcDbLine
 10
286.0233538358066
 20
565.7383802095519
 30
0.0000000000000000
 11
341.0233538358079
 21
565.7383802095249
 31
0.0000000000000000
  0
LINE
  5
69
100
AcDbEntity
  8
MAIN0
  6
CONTINUOUS
 62
3
100
AcDbLine
 10
286.0233538358066
 20
521.7383802095519
 30
0.0000000000000000
 11
341.0233538358116
 21
521.7383802095249
 31
0.0000000000000000
  0
LINE
  5
6A
100
AcDbEntity
  8
MAIN0
  6
CENTER
 62
3
100
AcDbLine
 10
605.7218251399706
 20
507.7605514202754
 30
0.0000000000000000
 11
646.9435676767500
 21
479.9561350001320
 31
0.0000000000000000
  0
LINE
  5
6B
100
AcDbEntity
  8
MAIN0
  6
CENTER
 62
3
100
AcDbLine
 10
643.4129849905921
 20
326.9180507509457
 30
0.0000000000000000
 11
669.5067548915112
 21
365.6036555274007
 31
0.0000000000000000
  0
ARC
  5
6C
100
AcDbEntity
  8
MAIN0
  6
CENTER
 62
3
100
AcDbCircle
 10
715.4642069820925
 20
433.7383802091906
 30
0.0000000000000000
 40
104.7800000000000
100
AcDbArc
 50
132.3655600433320
 51
158.4268714146942
  0
ARC
  5
6D
100
AcDbEntity
  8
MAIN0
  6
CENTER
 62
3
100
AcDbCircle
 10
715.4642069820925
 20
433.7383802091906
 30
0.0000000000000000
 40
104.7800000000000
100
AcDbArc
 50
224.6910559359108
 51
247.5036859103822
  0
LINE
  5
6E
100
AcDbEntity
  8
MAIN0
  6
CONTINUOUS
 62
3
100
AcDbLine
 10
804.0839319878118
 20
550.6423764621446
 30
0.0000000000000000
 11
822.7551805175370
 21
569.3136249918287
 31
0.0000000000000000
  0
LINE
  5
6F
100
AcDbEntity
  8
MAIN0
  6
CONTINUOUS
 62
3
100
AcDbLine
 10
832.3682032352424
 20
522.3581052146515
 30
0.0000000000000000
 11
851.0394517649677
 21
541.0293537443354
 31
0.0000000000000000
  0
ARC
  5
70
100
AcDbEntity
  8
MAIN0
  6
CONTINUOUS
 62
3
100
AcDbCircle
 10
856.6963060144537
 20
535.3724994948368
 30
0.0000000000000000
 40
8.000000000000000
100
AcDbArc
 50
35.73972635800659
 51
134.9999999999369
  0
ARC
  5
71
100
AcDbEntity
  8
MAIN0
  6
CONTINUOUS
 62
3
100
AcDbCircle
 10
838.0250574847286
 20
516.7012509651529
 30
0.0000000000000000
 40
8.000000000000000
100
AcDbArc
 50
134.9999999999372
 51
214.0945300032063
  0
ARC
  5
72
100
AcDbEntity
  8
MAIN0
  6
CONTINUOUS
 62
3
100
AcDbCircle
 10
798.4270777383257
 20
556.2992307116433
 30
0.0000000000000000
 40
8.000000000000000
100
AcDbArc
 50
235.9054699966671
 51
314.9999999999366
  0
ARC
  5
73
100
AcDbEntity
  8
MAIN0
  6
CONTINUOUS
 62
3
100
AcDbCircle
 10
817.0983262680509
 20
574.9704792413272
 30
0.0000000000000000
 40
8.000000000000000
100
AcDbArc
 50
314.9999999999367
 51
414.2602736418668
  0
ARC
  5
74
100
AcDbEntity
  8
MAIN0
  6
CONTINUOUS
 62
3
100
AcDbCircle
 10
715.4642069820925
 20
433.7383802091906
 30
0.0000000000000000
 40
140.0000000000000
100
AcDbArc
 50
270.0000000000000
 51
450.0000000000000
  0
ARC
  5
75
100
AcDbEntity
  8
MAIN0
  6
CONTINUOUS
 62
3
100
AcDbCircle
 10
715.4642069820925
 20
433.7383802091906
 30
0.0000000000000000
 40
182.0000000001599
100
AcDbArc
 50
54.26027364186675
 51
90.00000000000000
  0
ARC
  5
76
100
AcDbEntity
  8
MAIN0
  6
CONTINUOUS
 62
3
100
AcDbCircle
 10
715.4642069820925
 20
433.7383802091906
 30
0.0000000000000000
 40
182.0000000001599
100
AcDbArc
 50
305.7397263580062
 51
395.7397263580066
  0
ARC
  5
77
100
AcDbEntity
  8
MAIN0
  6
CONTINUOUS
 62
3
100
AcDbCircle
 10
798.4270777380539
 20
311.1775297065540
 30
0.0000000000000000
 40
8.000000000000000
100
AcDbArc
 50
44.99999999993644
 51
124.0945300032059
  0
LINE
  5
78
100
AcDbEntity
  8
MAIN0
  6
CONTINUOUS
 62
3
100
AcDbLine
 10
804.0839319875526
 20
316.8343839560401
 30
0.0000000000000000
 11
822.7551805172363
 21
298.1631354263147
 31
0.0000000000000000
  0
ARC
  5
79
100
AcDbEntity
  8
MAIN0
  6
CONTINUOUS
 62
3
100
AcDbCircle
 10
817.0983262677377
 20
292.5062811768287
 30
0.0000000000000000
 40
8.000000000000000
100
AcDbArc
 50
305.7397263580062
 51
404.9999999999362
  0
ARC
  5
7A
100
AcDbEntity
  8
MAIN0
  6
CONTINUOUS
 62
3
100
AcDbCircle
 10
715.4642069820925
 20
433.7383802091906
 30
0.0000000000000000
 40
182.0000000001599
100
AcDbArc
 50
269.9999999998730
 51
305.7397263580062
  0
LINE
  5
7B
100
AcDbEntity
  8
MAIN0
  6
CONTINUOUS
 62
3
100
AcDbLine
 10
832.3682032350458
 20
345.1186552034706
 30
0.0000000000000000
 11
851.0394517647297
 21
326.4474066737452
 31
0.0000000000000000
  0
ARC
  5
7C
100
AcDbEntity
  8
MAIN0
  6
CONTINUOUS
 62
3
100
AcDbCircle
 10
838.0250574845445
 20
350.7755094529566
 30
0.0000000000000000
 40
8.000000000000000
100
AcDbArc
 50
145.9054699966667
 51
224.9999999999358
  0
ARC
  5
7D
100
AcDbEntity
  8
MAIN0
  6
CONTINUOUS
 62
3
100
AcDbCircle
 10
856.6963060142284
 20
332.1042609232313
 30
0.0000000000000000
 40
8.000000000000000
100
AcDbArc
 50
224.9999999999361
 51
324.2602736418664
  0
LINE
  5
7E
100
AcDbEntity
  8
MAIN0
  6
CONTINUOUS
 62
3
100
AcDbLine
 10
201.0233538357745
 20
274.2383802101200
 30
0.0000000000000000
 11
201.8893792399833
 21
273.7383802098752
 31
0.0000000000000000
  0
LINE
  5
7F
100
AcDbEntity
  8
MAIN0
  6
CONTINUOUS
 62
3
100
AcDbLine
 10
201.0233538357750
 20
273.2383802096334
 30
0.0000000000000000
 11
201.8893792399833
 21
273.7383802098752
 31
0.0000000000000000
  0
LINE
  5
80
100
AcDbEntity
  8
MAIN0
  6
CONTINUOUS
 62
3
100
AcDbLine
 10
201.0233538357727
 20
294.2383802101200
 30
0.0000000000000000
 11
201.8893792399815
 21
293.7383802098752
 31
0.0000000000000000
  0
LINE
  5
81
100
AcDbEntity
  8
MAIN0
  6
CONTINUOUS
 62
3
100
AcDbLine
 10
201.0233538357732
 20
293.2383802096334
 30
0.0000000000000000
 11
201.8893792399816
 21
293.7383802098752
 31
0.0000000000000000
  0
LINE
  5
82
100
AcDbEntity
  8
MAIN0
  6
CONTINUOUS
 62
3
100
AcDbLine
 10
201.0233538357697
 20
334.2383802101200
 30
0.0000000000000000
 11
201.8893792399785
 21
333.7383802098753
 31
0.0000000000000000
  0
LINE
  5
83
100
AcDbEntity
  8
MAIN0
  6
CONTINUOUS
 62
3
100
AcDbLine
 10
201.0233538357700
 20
333.2383802096334
 30
0.0000000000000000
 11
201.8893792399784
 21
333.7383802098752
 31
0.0000000000000000
  0
LINE
  5
84
100
AcDbEntity
  8
MAIN0
  6
CONTINUOUS
 62
3
100
AcDbLine
 10
201.0233538357680
 20
354.2383802101200
 30
0.0000000000000000
 11
201.8893792399769
 21
353.7383802098752
 31
0.0000000000000000
  0
LINE
  5
85
100
AcDbEntity
  8
MAIN0
  6
CONTINUOUS
 62
3
100
AcDbLine
 10
201.0233538357684
 20
353.2383802096334
 30
0.0000000000000000
 11
201.8893792399768
 21
353.7383802098752
 31
0.0000000000000000
  0
LINE
  5
86
100
AcDbEntity
  8
MAIN0
  6
HIDDEN
 62
3
100
AcDbLine
 10
201.0233538357713
 20
314.2383802101200
 30
0.0000000000000000
 11
201.8893792399801
 21
313.7383802098753
 31
0.0000000000000000
  0
LINE
  5
87
100
AcDbEntity
  8
MAIN0
  6
HIDDEN
 62
3
100
AcDbLine
 10
201.0233538357716
 20
313.2383802096334
 30
0.0000000000000000
 11
201.8893792399800
 21
313.7383802098752
 31
0.0000000000000000
  0
LINE
  5
88
100
AcDbEntity
  8
MAIN0
  6
HIDDEN
 62
3
100
AcDbLine
 10
233.0233538352563
 20
284.3407563909622
 30
0.0000000000000000
 11
233.0233538352563
 21
376.7621098326517
 31
0.0000000000000000
  0
CIRCLE
  5
89
100
AcDbEntity
  8
MAIN0
  6
CONTINUOUS
 62
3
100
AcDbCircle
 10
264.0233538358190
 20
433.7383802095628
 30
0.0000000000000000
 40
22.00000000000000
  0
ARC
  5
8A
100
AcDbEntity
  8
MAIN0
  6
HIDDEN
 62
3
100
AcDbCircle
 10
277.0233538352563
 20
433.7383802095563
 30
0.0000000000000000
 40
36.00000000000000
100
AcDbArc
 50
294.1687419031017
 51
425.8312580968419
  0
POINT
  5
8B
100
AcDbEntity
  8
MAIN0
  6
CONTINUOUS
 62
3
100
AcDbPoint
 10
233.0233538352563
 20
385.7383802095780
 30
0.0000000000000000
  0
ARC
  5
8C
100
AcDbEntity
  8
MAIN0
  6
HIDDEN
 62
3
100
AcDbCircle
 10
218.0661020507633
 20
565.1158610120891
 30
0.0000000000000000
 40
180.0000000000000
100
AcDbArc
 50
277.5478392987830
 51
294.1687419031017
  0
ARC
  5
8D
100
AcDbEntity
  8
MAIN0
  6
HIDDEN
 62
3
100
AcDbCircle
 10
243.0233538352563
 20
376.7621098326517
 30
0.0000000000000000
 40
10.00000000000000
100
AcDbArc
 50
97.54783929878300
 51
180.0000000000000
  0
ARC
  5
8E
100
AcDbEntity
  8
MAIN0
  6
HIDDEN
 62
3
100
AcDbCircle
 10
218.0661020506341
 20
302.3608994070816
 30
0.0000000000000000
 40
180.0000000000000
100
AcDbArc
 50
65.83125809684189
 51
82.45216070116062
  0
ARC
  5
8F
100
AcDbEntity
  8
MAIN0
  6
HIDDEN
 62
3
100
AcDbCircle
 10
243.0233538353124
 20
490.7146505864944
 30
0.0000000000000000
 40
10.00000000000000
100
AcDbArc
 50
179.9999999999436
 51
262.4521607011606
  0
LINE
  5
90
100
AcDbEntity
  8
MAIN0
  6
HIDDEN
 62
3
100
AcDbLine
 10
233.0233538353208
 20
499.2727445671058
 30
0.0000000000000000
 11
233.0233538353124
 21
490.7146505865043
 31
0.0000000000000000
  0
LINE
  5
91
100
AcDbEntity
  8
MAIN0
  6
HIDDEN
 62
3
100
AcDbLine
 10
328.4233538358265
 20
345.2383802091907
 30
0.0000000000000000
 11
328.4233538358292
 21
312.6783802091907
 31
0.0000000000000000
  0
LINE
  5
92
100
AcDbEntity
  8
MAIN0
  6
HIDDEN
 62
3
100
AcDbLine
 10
341.0233538358265
 20
345.2383802091907
 30
0.0000000000000000
 11
328.4233538358265
 21
345.2383802091907
 31
0.0000000000000000
  0
LINE
  5
93
100
AcDbEntity
  8
MAIN0
  6
HIDDEN
 62
3
100
AcDbLine
 10
341.0233538358292
 20
312.6783802091907
 30
0.0000000000000000
 11
328.4233538358292
 21
312.6783802091907
 31
0.0000000000000000
  0
LINE
  5
94
100
AcDbEntity
  8
MAIN0
  6
HIDDEN
 62
3
100
AcDbLine
 10
322.0089923456426
 20
328.9583802085809
 30
0.0000000000000000
 11
328.4233538358269
 21
340.0683802076757
 31
0.0000000000000000
  0
LINE
  5
95
100
AcDbEntity
  8
MAIN0
  6
HIDDEN
 62
3
100
AcDbLine
 10
322.0089923456424
 20
328.9583802085808
 30
0.0000000000000000
 11
328.4233538358286
 21
317.8483802094379
 31
0.0000000000000000
  0
ARC
  5
96
100
AcDbEntity
  8
MAIN0
  6
CONTINUOUS
 62
3
100
AcDbCircle
 10
990.3104596313705
 20
343.4545754415494
 30
0.0000000000000000
 40
12.00000000000000
100
AcDbArc
 50
348.5573097612099
 51
371.4426902389743
  0
ARC
  5
97
100
AcDbEntity
  8
MAIN0
  6
CONTINUOUS
 62
3
100
AcDbCircle
 10
990.3104596313705
 20
343.4545754415494
 30
0.0000000000000000
 40
12.00000000000000
100
AcDbArc
 50
168.5573097628165
 51
191.4426902373707
  0
ARC
  5
98
100
AcDbEntity
  8
MAIN0
  6
CONTINUOUS
 62
3
100
AcDbCircle
 10
990.3104596313705
 20
343.4545754415494
 30
0.0000000000000000
 40
12.00000000000000
100
AcDbArc
 50
45.63904692188353
 51
78.55730976121107
  0
ARC
  5
99
100
AcDbEntity
  8
MAIN0
  6
CONTINUOUS
 62
3
100
AcDbCircle
 10
990.3104596313705
 20
343.4545754415494
 30
0.0000000000000000
 40
12.00000000000000
100
AcDbArc
 50
78.55730976121107
 51
101.4426902373689
  0
ARC
  5
9A
100
AcDbEntity
  8
MAIN0
  6
CONTINUOUS
 62
3
100
AcDbCircle
 10
990.3104596313705
 20
343.4545754415494
 30
0.0000000000000000
 40
12.00000000000000
100
AcDbArc
 50
226.4189081567380
 51
258.5573097628147
  0
ARC
  5
9B
100
AcDbEntity
  8
MAIN0
  6
CONTINUOUS
 62
3
100
AcDbCircle
 10
990.3104596313705
 20
343.4545754415494
 30
0.0000000000000000
 40
12.00000000000000
100
AcDbArc
 50
258.5573097628147
 51
281.4426902389750
  0
LINE
  5
9C
100
AcDbEntity
  8
MAIN0
  6
CONTINUOUS
 62
3
100
AcDbLine
 10
1002.631926281786
 20
360.0228656188590
 30
0.0000000000000000
 11
983.1494815397467
 21
333.8254325528347
 31
0.0000000000000000
  0
LINE
  5
9D
100
AcDbEntity
  8
MAIN0
  6
CONTINUOUS
 62
3
100
AcDbLine
 10
996.0473593529206
 20
349.1579061964083
 30
0.0000000000000000
 11
997.4714377229942
 21
353.0837183302641
 31
0.0000000000000000
  0
LINE
  5
9E
100
AcDbEntity
  8
MAIN0
  6
CONTINUOUS
 62
3
100
AcDbLine
 10
997.4714377229942
 20
353.0837183302641
 30
0.0000000000000000
 11
994.1215306986520
 21
350.5901018716434
 31
0.0000000000000000
  0
LINE
  5
9F
100
AcDbEntity
  8
MAIN0
  6
CONTINUOUS
 62
3
100
AcDbLine
 10
986.4993885640889
 20
336.3190490114554
 30
0.0000000000000000
 11
983.1494815397467
 21
333.8254325528347
 31
0.0000000000000000
  0
LINE
  5
A0
100
AcDbEntity
  8
MAIN0
  6
CONTINUOUS
 62
3
100
AcDbLine
 10
983.1494815397467
 20
333.8254325528347
 30
0.0000000000000000
 11
984.5735599098204
 21
337.7512446866905
 31
0.0000000000000000
  0
MTEXT
  5
A1
100
AcDbEntity
  8
MAIN0
  6
CONTINUOUS
 62
3
100
AcDbMText
 10
1002.932098204713
 20
362.1022461373481
 30
0.0000000000000000
 40
6.199999809265137
 41
0.0000000000000000
 71
     8
 72
     1
  1
{\U+220512}
 11
0.5967481743019786
 21
0.8024285740595578
 31
0.0000000000000000
  7
STANDARD
  0
LINE
  5
A2
100
AcDbEntity
  8
MAIN0
  6
CONTINUOUS
 62
3
100
AcDbLine
 10
1002.637628636402
 20
345.2695420603974
 30
0.0000000000000000
 11
1020.798458995267
 21
327.1087117015903
 31
0.0000000000000000
  0
LINE
  5
A3
100
AcDbEntity
  8
MAIN0
  6
CONTINUOUS
 62
3
100
AcDbLine
 10
1027.990612342665
 20
337.1292921737618
 30
0.0000000000000000
 11
1005.242109809184
 21
314.3807896402074
 31
0.0000000000000000
  0
LINE
  5
A4
100
AcDbEntity
  8
MAIN0
  6
CONTINUOUS
 62
3
100
AcDbLine
 10
1017.404346479293
 20
324.8459699680705
 30
0.0000000000000000
 11
1019.384245432892
 21
328.5229252639612
 31
0.0000000000000000
  0
LINE
  5
A5
100
AcDbEntity
  8
MAIN0
  6
CONTINUOUS
 62
3
100
AcDbLine
 10
1019.384245432892
 20
328.5229252639612
 30
0.0000000000000000
 11
1015.707290137008
 21
326.5430263103504
 31
0.0000000000000000
  0
LINE
  5
A6
100
AcDbEntity
  8
MAIN0
  6
CONTINUOUS
 62
3
100
AcDbLine
 10
1008.919065105068
 20
316.3606885938181
 30
0.0000000000000000
 11
1005.242109809184
 21
314.3807896402074
 31
0.0000000000000000
  0
LINE
  5
A7
100
AcDbEntity
  8
MAIN0
  6
CONTINUOUS
 62
3
100
AcDbLine
 10
1005.242109809184
 20
314.3807896402074
 30
0.0000000000000000
 11
1007.222008762783
 21
318.0577449360981
 31
0.0000000000000000
  0
MTEXT
  5
A8
100
AcDbEntity
  8
MAIN0
  6
CONTINUOUS
 62
3
100
AcDbMText
 10
1023.939768124825
 20
334.4926615182849
 30
0.0000000000000000
 40
6.199999809265137
 41
0.0000000000000000
 71
     8
 72
     1
  1
{\H0.69x;{10}}
 11
0.7071067811854098
 21
0.7071067811876852
 31
0.0000000000000000
  7
STANDARD
  0
MTEXT
  5
A9
100
AcDbEntity
  8
MAIN0
  6
CONTINUOUS
 62
3
100
AcDbMText
 10
1025.495403182505
 20
343.9678923904019
 30
0.0000000000000000
 40
5.599999904632568
 41
0.0000000000000000
 71
     8
 72
     1
  1
{ 0}
 11
0.7071067811854098
 21
0.7071067811876852
 31
0.0000000000000000
  7
STANDARD
  0
MTEXT
  5
AA
100
AcDbEntity
  8
MAIN0
  6
CONTINUOUS
 62
3
100
AcDbMText
 10
1031.399744790665
 20
341.9526381841482
 30
0.0000000000000000
 40
5.599999904632568
 41
0.0000000000000000
 71
     8
 72
     1
  1
{-0.1}
 11
0.7071067811854098
 21
0.7071067811876852
 31
0.0000000000000000
  7
STANDARD
  0
LINE
  5
AB
100
AcDbEntity
  8
MAIN0
  6
CONTINUOUS
 62
3
100
AcDbLine
 10
988.4954930128915
 20
331.1274064364457
 30
0.0000000000000000
 11
1006.656323371559
 21
312.9665760778365
 31
0.0000000000000000
  0
ARC
  5
AC
100
AcDbEntity
  8
MAIN0
  6
CONTINUOUS
 62
3
100
AcDbCircle
 10
264.0233538357948
 20
724.0184489603661
 30
0.0000000000000000
 40
12.00000000000000
100
AcDbArc
 50
78.55730976121107
 51
101.4426902373689
  0
ARC
  5
AD
100
AcDbEntity
  8
MAIN0
  6
CONTINUOUS
 62
3
100
AcDbCircle
 10
264.0233538357948
 20
724.0184489603661
 30
0.0000000000000000
 40
12.00000000000000
100
AcDbArc
 50
258.5573097628147
 51
281.4426902389750
  0
LINE
  5
AE
100
AcDbEntity
  8
MAIN0
  6
CONTINUOUS
 62
3
100
AcDbLine
 10
276.3505228413392
 20
725.8334155766694
 30
0.0000000000000000
 11
291.2887507836792
 21
710.8951876342928
 31
0.0000000000000000
  0
LINE
  5
AF
100
AcDbEntity
  8
MAIN0
  6
CONTINUOUS
 62
3
100
AcDbLine
 10
299.6976566736331
 20
722.1325206489689
 30
0.0000000000000000
 11
275.7324015975595
 21
698.1672655729540
 31
0.0000000000000000
  0
LINE
  5
B0
100
AcDbEntity
  8
MAIN0
  6
CONTINUOUS
 62
3
100
AcDbLine
 10
287.8946382676984
 20
708.6324459007825
 30
0.0000000000000000
 11
289.8745372213078
 21
712.3094011966676
 31
0.0000000000000000
  0
LINE
  5
B1
100
AcDbEntity
  8
MAIN0
  6
CONTINUOUS
 62
3
100
AcDbLine
 10
289.8745372213078
 20
712.3094011966676
 30
0.0000000000000000
 11
286.1975819254178
 21
710.3295022430673
 31
0.0000000000000000
  0
LINE
  5
B2
100
AcDbEntity
  8
MAIN0
  6
CONTINUOUS
 62
3
100
AcDbLine
 10
279.4093568934495
 20
700.1471645265543
 30
0.0000000000000000
 11
275.7324015975595
 21
698.1672655729540
 31
0.0000000000000000
  0
LINE
  5
B3
100
AcDbEntity
  8
MAIN0
  6
CONTINUOUS
 62
3
100
AcDbLine
 10
275.7324015975595
 20
698.1672655729540
 30
0.0000000000000000
 11
277.7123005511688
 21
701.8442208688391
 31
0.0000000000000000
  0
MTEXT
  5
B4
100
AcDbEntity
  8
MAIN0
  6
CONTINUOUS
 62
3
100
AcDbMText
 10
294.3179803806802
 20
718.1670579184005
 30
0.0000000000000000
 40
6.199999809265137
 41
0.0000000000000000
 71
     8
 72
     1
  1
{\H0.69x;{10}}
 11
0.7071067811874142
 21
0.7071067811856808
 31
0.0000000000000000
  7
STANDARD
  0
MTEXT
  5
B5
100
AcDbEntity
  8
MAIN0
  6
CONTINUOUS
 62
3
100
AcDbMText
 10
299.0909513802443
 20
730.8596247323626
 30
0.0000000000000000
 40
5.599999904632568
 41
0.0000000000000000
 71
     8
 72
     1
  1
{+0.15}
 11
0.7071067811874142
 21
0.7071067811856808
 31
0.0000000000000000
  7
STANDARD
  0
MTEXT
  5
B6
100
AcDbEntity
  8
MAIN0
  6
CONTINUOUS
 62
3
100
AcDbMText
 10
303.0507492874492
 20
726.8998268251480
 30
0.0000000000000000
 40
5.599999904632568
 41
0.0000000000000000
 71
     8
 72
     1
  1
{+0.05}
 11
0.7071067811874142
 21
0.7071067811856808
 31
0.0000000000000000
  7
STANDARD
  0
LINE
  5
B7
100
AcDbEntity
  8
MAIN0
  6
CONTINUOUS
 62
3
100
AcDbLine
 10
262.2083872147713
 20
711.6912799557754
 30
0.0000000000000000
 11
277.1466151599309
 21
696.7530520105793
 31
0.0000000000000000
  0
LINE
  5
B8
100
AcDbEntity
  8
MAIN0
  6
CONTINUOUS
 62
3
100
AcDbLine
 10
880.2064298638969
 20
385.7383802090080
 30
0.0000000000000000
 11
852.4605572983801
 21
385.7383802090387
 31
0.0000000000000000
  0
LINE
  5
B9
100
AcDbEntity
  8
MAIN0
  6
CONTINUOUS
 62
3
100
AcDbLine
 10
880.2064298640122
 20
481.7383802090080
 30
0.0000000000000000
 11
852.4605572985042
 21
481.7383802090387
 31
0.0000000000000000
  0
LINE
  5
BA
100
AcDbEntity
  8
MAIN0
  6
CONTINUOUS
 62
3
100
AcDbLine
 10
763.4642069822440
 20
570.7347305254873
 30
0.0000000000000000
 11
763.4642069822746
 21
598.4806030909952
 31
0.0000000000000000
  0
MTEXT
  5
BB
100
AcDbEntity
  8
MAIN0
  6
CONTINUOUS
 62
3
100
AcDbMText
 10
577.4256152491095
 20
224.5466072902114
 30
0.0000000000000000
 40
10.00000000000000
 41
0.0000000000000000
 71
     1
 72
     1
  1
{\H0.92x;{Aから見る}}
 11
1.000000000000000
 21
0.0000000000000000
 31
0.0000000000000000
  7
KNJYOKO
  0
MTEXT
  5
BC
100
AcDbEntity
  8
MAIN0
  6
CONTINUOUS
 62
3
100
AcDbMText
 10
783.9610242222718
 20
224.5466072902114
 30
0.0000000000000000
 40
10.00000000000000
 41
0.0000000000000000
 71
     1
 72
     1
  1
{\H0.92x;{Bから見る}}
 11
1.000000000000000
 21
0.0000000000000000
 31
0.0000000000000000
  7
KNJYOKO
  0
LINE
  5
BD
100
AcDbEntity
  8
MAIN0
  6
CENTER
 62
3
100
AcDbLine
 10
715.4642069820925
 20
433.7383802091901
 30
0.0000000000000000
 11
841.6484901562151
 21
246.6624871354771
 31
0.0000000000000000
  0
ARC
  5
BE
100
AcDbEntity
  8
MAIN0
  6
CONTINUOUS
 62
3
100
AcDbCircle
 10
771.4642069822746
 20
598.4806030909863
 30
0.0000000000000000
 40
8.000000000000000
100
AcDbArc
 50
71.22581880422565
 51
180.0000000000000
  0
ARC
  5
BF
100
AcDbEntity
  8
MAIN0
  6
CONTINUOUS
 62
3
100
AcDbCircle
 10
771.4642069822440
 20
570.7347305254784
 30
0.0000000000000000
 40
8.000000000000000
100
AcDbArc
 50
180.0000000000000
 51
247.7667282016367
  0
ARC
  5
C0
100
AcDbEntity
  8
MAIN0
  6
CONTINUOUS
 62
3
100
AcDbCircle
 10
880.2064298640122
 20
489.7383802090080
 30
0.0000000000000000
 40
8.000000000000000
100
AcDbArc
 50
270.0000000000000
 51
378.7741811956475
  0
ARC
  5
C1
100
AcDbEntity
  8
MAIN0
  6
CONTINUOUS
 62
3
100
AcDbCircle
 10
852.4605572985042
 20
489.7383802090387
 30
0.0000000000000000
 40
8.000000000000000
100
AcDbArc
 50
202.2332717982364
 51
270.0000000000000
  0
ARC
  5
C2
100
AcDbEntity
  8
MAIN0
  6
CONTINUOUS
 62
3
100
AcDbCircle
 10
852.4605572983801
 20
377.7383802090387
 30
0.0000000000000000
 40
8.000000000000000
100
AcDbArc
 50
90.00000000000000
 51
157.7667282016366
  0
ARC
  5
C3
100
AcDbEntity
  8
MAIN0
  6
CONTINUOUS
 62
3
100
AcDbCircle
 10
880.2064298638881
 20
377.7383802090080
 30
0.0000000000000000
 40
8.000000000000000
100
AcDbArc
 50
341.2258188042255
 51
450.0000000000000
  0
ARC
  5
C4
100
AcDbEntity
  8
MAIN0
  6
CONTINUOUS
 62
3
100
AcDbCircle
 10
771.4642069821339
 20
296.7420298928578
 30
0.0000000000000000
 40
8.000000000000000
100
AcDbArc
 50
112.2332717983172
 51
180.0000000000000
  0
ARC
  5
C5
100
AcDbEntity
  8
MAIN0
  6
CONTINUOUS
 62
3
100
AcDbCircle
 10
771.4642069821301
 20
268.9961573273458
 30
0.0000000000000000
 40
8.000000000000000
100
AcDbArc
 50
180.0000000000000
 51
288.7741811957241
  0
LINE
  5
C6
100
AcDbEntity
  8
MAIN0
  6
CONTINUOUS
 62
3
100
AcDbLine
 10
763.4642069821301
 20
268.9961573273470
 30
0.0000000000000000
 11
763.4642069821339
 21
296.7420298928589
 31
0.0000000000000000
  0
MTEXT
  5
C7
100
AcDbEntity
  8
MAIN0
  6
CONTINUOUS
 62
3
100
AcDbMText
 10
843.6784427392372
 20
263.2388524562636
 30
0.0000000000000000
 40
10.00000000000000
 41
0.0000000000000000
 71
     1
 72
     1
  1
{\H0.82x;{D}}
 11
0.8290375725550421
 21
0.5591929034707464
 31
0.0000000000000000
  7
STANDARD
  0
INSERT
  5
CE
100
AcDbEntity
  8
MAIN0
  6
CONTINUOUS
 62
2
100
AcDbBlockReference
  2
M0
 10
0.0000000000000000
 20
0.0000000000000000
 30
0.0000000000000000
 50
0.0000000000000000
  0
LINE
  5
CF
100
AcDbEntity
  8
MAIN0
  6
CENTER
 62
3
100
AcDbLine
 10
788.2259668590776
 20
482.8168069466607
 30
0.0000000000000000
 11
816.3095639020605
 21
501.7594323357234
 31
0.0000000000000000
  0
CIRCLE
  5
D0
100
AcDbEntity
  8
MAIN0
  6
CONTINUOUS
 62
3
100
AcDbCircle
 10
628.5976501297752
 20
492.3306126348554
 30
0.0000000000000000
 40
12.00000000000000
  0
CIRCLE
  5
D1
100
AcDbEntity
  8
MAIN0
  6
CONTINUOUS
 62
3
100
AcDbCircle
 10
802.3307638344097
 20
492.3306126348555
 30
0.0000000000000000
 40
12.00000000000000
  0
POINT
  5
D2
100
AcDbEntity
  8
MAIN0
  6
CONTINUOUS
 62
3
100
AcDbPoint
 10
802.3307638344097
 20
492.3306126348555
 30
0.0000000000000000
  0
LINE
  5
D3
100
AcDbEntity
  8
MAIN0
  6
CENTER
 62
3
100
AcDbLine
 10
789.6168550753552
 20
397.5717172056502
 30
0.0000000000000000
 11
830.8594798691922
 21
377.4563450557015
 31
0.0000000000000000
  0
CIRCLE
  5
D4
100
AcDbEntity
  8
MAIN0
  6
CONTINUOUS
 62
3
100
AcDbCircle
 10
809.6398471533191
 20
387.8058514486311
 30
0.0000000000000000
 40
16.28000000000000
  0
CIRCLE
  5
D5
100
AcDbEntity
  8
MAIN0
  6
CONTINUOUS
 62
3
100
AcDbCircle
 10
809.6398471533191
 20
387.8058514486311
 30
0.0000000000000000
 40
11.11000000000000
  0
POINT
  5
D6
100
AcDbEntity
  8
MAIN0
  6
CONTINUOUS
 62
3
100
AcDbPoint
 10
774.0564394077571
 20
346.8718233568732
 30
0.0000000000000000
  0
CIRCLE
  5
D7
100
AcDbEntity
  8
MAIN0
  6
CONTINUOUS
 62
3
100
AcDbCircle
 10
774.0564394077571
 20
346.8718233568732
 30
0.0000000000000000
 40
12.00000000000000
  0
ARC
  5
D8
100
AcDbEntity
  8
MAIN0
  6
CENTER
 62
3
100
AcDbCircle
 10
715.4642069820925
 20
433.7383802091906
 30
0.0000000000000000
 40
110.0000000000000
100
AcDbArc
 50
71.20772921462266
 51
93.06882501363025
  0
ARC
  5
D9
100
AcDbEntity
  8
MAIN0
  6
CONTINUOUS
 62
3
100
AcDbCircle
 10
715.4642069822141
 20
543.7383802091906
 30
0.0000000000000000
 40
22.00000000032908
100
AcDbArc
 50
270.0000000000000
 51
450.0000000000000
  0
ARC
  5
DA
100
AcDbEntity
  8
MAIN0
  6
CENTER
 62
3
100
AcDbCircle
 10
715.4642069820925
 20
433.7383802091906
 30
0.0000000000000000
 40
104.7800000000000
100
AcDbArc
 50
23.50628476828407
 51
56.03609903454264
  0
ARC
  5
DB
100
AcDbEntity
  8
MAIN0
  6
CENTER
 62
3
100
AcDbCircle
 10
715.4642069820925
 20
433.7383802091906
 30
0.0000000000000000
 40
104.7800000000000
100
AcDbArc
 50
292.0201332407037
 51
313.9811538342827
  0
ARC
  5
DC
100
AcDbEntity
  8
MAIN0
  6
CENTER
 62
3
100
AcDbCircle
 10
715.4642069820925
 20
433.7383802091906
 30
0.0000000000000000
 40
104.7800000000000
100
AcDbArc
 50
322.6208556560083
 51
355.1408809376637
  0
LINE
  5
DD
100
AcDbEntity
  8
MAIN0
  6
CONTINUOUS
 62
3
100
AcDbLine
 10
715.4642069820925
 20
433.7383802091906
 30
0.0000000000000000
 11
783.8236349688564
 21
513.1476807055585
 31
0.0000000000000000
  0
LINE
  5
DE
100
AcDbEntity
  8
MAIN0
  6
CONTINUOUS
 62
3
100
AcDbLine
 10
780.3045580808126
 20
510.8991038288481
 30
0.0000000000000000
 11
783.8236349688564
 21
513.1476807055585
 31
0.0000000000000000
  0
LINE
  5
DF
100
AcDbEntity
  8
MAIN0
  6
CONTINUOUS
 62
3
100
AcDbLine
 10
783.8236349688564
 20
513.1476807055585
 30
0.0000000000000000
 11
782.1234388668819
 21
509.3333218696240
 31
0.0000000000000000
  0
MTEXT
  5
E0
100
AcDbEntity
  8
MAIN0
  6
CONTINUOUS
 62
3
100
AcDbMText
 10
758.9239191236101
 20
485.7558625909907
 30
0.0000000000000000
 40
6.199999809265137
 41
0.0000000000000000
 71
     8
 72
     1
  1
{Ｒ52.39}
 11
0.6524091237522798
 21
0.7578669640806245
 31
0.0000000000000000
  7
KNJYOKO
  0
MTEXT
  5
E1
100
AcDbEntity
  8
MAIN0
  6
CONTINUOUS
 62
3
100
AcDbMText
 10
773.0821804320287
 20
502.6625520672951
 30
0.0000000000000000
 40
5.599999904632568
 41
0.0000000000000000
 71
     8
 72
     1
  1
{\U+00B10.152}
 11
0.6524091237522798
 21
0.7578669640806245
 31
0.0000000000000000
  7
STANDARD
  0
CIRCLE
  5
E2
100
AcDbEntity
  8
MAIN0
  6
CONTINUOUS
 62
3
100
AcDbCircle
 10
825.4642069820925
 20
433.7383802090691
 30
0.0000000000000000
 40
22.00000000032908
  0
ARC
  5
E3
100
AcDbEntity
  8
MAIN0
  6
CONTINUOUS
 62
3
100
AcDbCircle
 10
715.4642069819712
 20
323.7383802091906
 30
0.0000000000000000
 40
22.00000000032908
100
AcDbArc
 50
269.9999999998734
 51
449.9999999998734
  0
LINE
  5
E4
100
AcDbEntity
  8
MAIN0
  6
CONTINUOUS
 62
3
100
AcDbLine
 10
715.4642069820925
 20
433.7383802091906
 30
0.0000000000000000
 11
816.7903841199062
 21
407.0577837646507
 31
0.0000000000000000
  0
LINE
  5
E5
100
AcDbEntity
  8
MAIN0
  6
CONTINUOUS
 62
3
100
AcDbLine
 10
813.2277959203874
 20
409.2367664252266
 30
0.0000000000000000
 11
816.7903841199062
 21
407.0577837646507
 31
0.0000000000000000
  0
LINE
  5
E6
100
AcDbEntity
  8
MAIN0
  6
CONTINUOUS
 62
3
100
AcDbLine
 10
816.7903841199062
 20
407.0577837646507
 30
0.0000000000000000
 11
812.6166732441958
 21
406.9158766104340
 31
0.0000000000000000
  0
MTEXT
  5
E7
100
AcDbEntity
  8
MAIN0
  6
CONTINUOUS
 62
3
100
AcDbMText
 10
770.4125168761892
 20
420.3038095972702
 30
0.0000000000000000
 40
6.199999809265137
 41
0.0000000000000000
 71
     8
 72
     1
  1
{Ｒ52.39}
 11
0.9670373844036431
 21
-0.2546344382949029
 31
0.0000000000000000
  7
KNJYOKO
  0
MTEXT
  5
E8
100
AcDbEntity
  8
MAIN0
  6
CONTINUOUS
 62
3
100
AcDbMText
 10
791.8120817925437
 20
414.9792313307430
 30
0.0000000000000000
 40
5.599999904632568
 41
0.0000000000000000
 71
     8
 72
     1
  1
{\U+00B10.076}
 11
0.9670373844036431
 21
-0.2546344382949029
 31
0.0000000000000000
  7
STANDARD
  0
ARC
  5
E9
100
AcDbEntity
  8
MAIN0
  6
CONTINUOUS
 62
3
100
AcDbCircle
 10
715.4642069820919
 20
433.7383802091910
 30
0.0000000000000000
 40
129.2686587926769
100
AcDbArc
 50
304.0000000000000
 51
333.9999999999999
  0
LINE
  5
EA
100
AcDbEntity
  8
MAIN0
  6
CONTINUOUS
 62
3
100
AcDbLine
 10
790.3954423995290
 20
329.8014218567448
 30
0.0000000000000000
 11
787.7503236201382
 21
326.5698051162642
 31
0.0000000000000000
  0
LINE
  5
EB
100
AcDbEntity
  8
MAIN0
  6
CONTINUOUS
 62
3
100
AcDbLine
 10
787.7503236201382
 20
326.5698051162642
 30
0.0000000000000000
 11
791.7375054211876
 21
327.8117316035495
 31
0.0000000000000000
  0
LINE
  5
EC
100
AcDbEntity
  8
MAIN0
  6
CONTINUOUS
 62
3
100
AcDbLine
 10
828.8180703924553
 20
374.0015992222126
 30
0.0000000000000000
 11
831.6501078780284
 21
377.0707300103592
 31
0.0000000000000000
  0
LINE
  5
ED
100
AcDbEntity
  8
MAIN0
  6
CONTINUOUS
 62
3
100
AcDbLine
 10
831.6501078780284
 20
377.0707300103592
 30
0.0000000000000000
 11
830.9751761892890
 21
372.9495084281125
 31
0.0000000000000000
  0
MTEXT
  5
EE
100
AcDbEntity
  8
MAIN0
  6
CONTINUOUS
 62
3
100
AcDbMText
 10
813.9303112178142
 20
351.5357333837264
 30
0.0000000000000000
 40
6.199999809265137
 41
0.0000000000000000
 71
     8
 72
     1
  1
{\H0.57x;{30\U+00B0}}
 11
0.6408630728596780
 21
0.7676552102635994
 31
0.0000000000000000
  7
STANDARD
  0
LINE
  5
EF
100
AcDbEntity
  8
MAIN0
  6
CONTINUOUS
 62
3
100
AcDbLine
 10
831.5785151169461
 20
377.1056481330444
 30
0.0000000000000000
 11
833.4476959706267
 21
376.1939877167811
 31
0.0000000000000000
  0
ARC
  5
F0
100
AcDbEntity
  8
MAIN0
  6
CONTINUOUS
 62
3
100
AcDbCircle
 10
715.4642069820919
 20
433.7383802091910
 30
0.0000000000000000
 40
129.2686587926769
100
AcDbArc
 50
333.9999999999999
 51
393.9999999999998
  0
LINE
  5
F1
100
AcDbEntity
  8
MAIN0
  6
CONTINUOUS
 62
3
100
AcDbLine
 10
832.3250395667678
 20
381.1919515926060
 30
0.0000000000000000
 11
831.6501078780284
 21
377.0707300103592
 31
0.0000000000000000
  0
LINE
  5
F2
100
AcDbEntity
  8
MAIN0
  6
CONTINUOUS
 62
3
100
AcDbLine
 10
831.6501078780284
 20
377.0707300103592
 30
0.0000000000000000
 11
834.4821453636015
 21
380.1398607985058
 31
0.0000000000000000
  0
LINE
  5
F3
100
AcDbEntity
  8
MAIN0
  6
CONTINUOUS
 62
3
100
AcDbLine
 10
823.8747085623045
 20
502.0373150461873
 30
0.0000000000000000
 11
822.6327820750191
 21
506.0244968472367
 31
0.0000000000000000
  0
LINE
  5
F4
100
AcDbEntity
  8
MAIN0
  6
CONTINUOUS
 62
3
100
AcDbLine
 10
822.6327820750191
 20
506.0244968472367
 30
0.0000000000000000
 11
825.8643988154997
 21
503.3793780678458
 31
0.0000000000000000
  0
MTEXT
  5
F5
100
AcDbEntity
  8
MAIN0
  6
CONTINUOUS
 62
3
100
AcDbMText
 10
840.7337500239183
 20
406.1632027017994
 30
0.0000000000000000
 40
6.199999809265137
 41
0.0000000000000000
 71
     8
 72
     1
  1
{\H0.57x;{60\U+00B0}}
 11
0.2149798537455813
 21
0.9766184835868756
 31
0.0000000000000000
  7
STANDARD
  0
LINE
  5
F6
100
AcDbEntity
  8
MAIN0
  6
CONTINUOUS
 62
3
100
AcDbLine
 10
816.9727939699875
 20
502.2067866651661
 30
0.0000000000000000
 11
824.2908572201293
 21
507.1428826541782
 31
0.0000000000000000
  0
POINT
  5
F7
100
AcDbEntity
  8
MAIN0
  6
CONTINUOUS
 62
3
100
AcDbPoint
 10
341.0233538358122
 20
516.2883802095249
 30
0.0000000000000000
  0
POINT
  5
F8
100
AcDbEntity
  8
MAIN0
  6
CONTINUOUS
 62
3
100
AcDbPoint
 10
341.0233538357309
 20
351.1883802095248
 30
0.0000000000000000
  0
LINE
  5
F9
100
AcDbEntity
  8
MAIN0
  6
CONTINUOUS
 62
3
100
AcDbLine
 10
341.8233538477331
 20
516.2883802095250
 30
0.0000000000000000
 11
407.8795640594483
 21
516.2883802095306
 31
0.0000000000000000
  0
LINE
  5
FA
100
AcDbEntity
  8
MAIN0
  6
CONTINUOUS
 62
3
100
AcDbLine
 10
405.8795640594483
 20
516.2883802095305
 30
0.0000000000000000
 11
405.8795640594624
 21
351.1883802095304
 31
0.0000000000000000
  0
LINE
  5
FB
100
AcDbEntity
  8
MAIN0
  6
CONTINUOUS
 62
3
100
AcDbLine
 10
407.0795641071324
 20
512.2883802095306
 30
0.0000000000000000
 11
405.8795640594483
 21
516.2883802095305
 31
0.0000000000000000
  0
LINE
  5
FC
100
AcDbEntity
  8
MAIN0
  6
CONTINUOUS
 62
3
100
AcDbLine
 10
405.8795640594483
 20
516.2883802095305
 30
0.0000000000000000
 11
404.6795640117650
 21
512.2883802095304
 31
0.0000000000000000
  0
LINE
  5
FD
100
AcDbEntity
  8
MAIN0
  6
CONTINUOUS
 62
3
100
AcDbLine
 10
407.0795641071458
 20
355.1883802095305
 30
0.0000000000000000
 11
405.8795640594624
 21
351.1883802095304
 31
0.0000000000000000
  0
LINE
  5
FE
100
AcDbEntity
  8
MAIN0
  6
CONTINUOUS
 62
3
100
AcDbLine
 10
405.8795640594624
 20
351.1883802095304
 30
0.0000000000000000
 11
404.6795640117784
 21
355.1883802095302
 31
0.0000000000000000
  0
MTEXT
  5
FF
100
AcDbEntity
  8
MAIN0
  6
CONTINUOUS
 62
3
100
AcDbMText
 10
404.8795640594554
 20
433.7383802095303
 30
0.0000000000000000
 40
6.199999809265137
 41
0.0000000000000000
 71
     8
 72
     1
  1
{\U+220582.55}
 11
6.123233995736766e-017
 21
1.000000000000000
 31
0.0000000000000000
  7
STANDARD
  0
LINE
  5
100
100
AcDbEntity
  8
MAIN0
  6
CONTINUOUS
 62
3
100
AcDbLine
 10
341.8233538476518
 20
351.1883802095249
 30
0.0000000000000000
 11
407.8795640594624
 21
351.1883802095305
 31
0.0000000000000000
  0
ARC
  5
101
100
AcDbEntity
  8
MAIN0
  6
CONTINUOUS
 62
3
100
AcDbCircle
 10
341.0233538358122
 20
516.2883802095249
 30
0.0000000000000000
 40
64.85621022363614
100
AcDbArc
 50
0.0000000000000000
 51
21.18487482153418
  0
LINE
  5
102
100
AcDbEntity
  8
MAIN0
  6
CONTINUOUS
 62
3
100
AcDbLine
 10
403.6918673559815
 20
528.1530549685476
 30
0.0000000000000000
 11
405.3787387036265
 21
524.3327846677789
 31
0.0000000000000000
  0
LINE
  5
103
100
AcDbEntity
  8
MAIN0
  6
CONTINUOUS
 62
3
100
AcDbLine
 10
405.3787387036265
 20
524.3327846677789
 30
0.0000000000000000
 11
406.0733344396667
 21
528.4507376638579
 31
0.0000000000000000
  0
MTEXT
  5
104
100
AcDbEntity
  8
MAIN0
  6
CONTINUOUS
 62
3
100
AcDbMText
 10
398.5293257281347
 20
540.0008790517341
 30
0.0000000000000000
 40
6.199999809265137
 41
0.0000000000000000
 71
     8
 72
     1
  1
{\H0.56x;{7\U+00B007′30″}}
 11
-0.3812111933070046
 21
0.9244879805045869
 31
0.0000000000000000
  7
KNJYOKO
  0
LINE
  5
105
100
AcDbEntity
  8
MAIN0
  6
CONTINUOUS
 62
3
100
AcDbLine
 10
342.9064241861698
 20
516.5237634576049
 30
0.0000000000000000
 11
407.3632945278386
 21
524.5808535706801
 31
0.0000000000000000
  0
LINE
  5
106
100
AcDbEntity
  8
MAIN0
  6
CONTINUOUS
 62
3
100
AcDbLine
 10
336.7918697802916
 20
573.7383802095279
 30
0.0000000000000000
 11
428.4876005527854
 21
573.7383802095328
 31
0.0000000000000000
  0
LINE
  5
107
100
AcDbEntity
  8
MAIN0
  6
CONTINUOUS
 62
3
100
AcDbLine
 10
426.4876005527854
 20
573.7383802095327
 30
0.0000000000000000
 11
426.4876005527854
 21
293.7383802095278
 31
0.0000000000000000
  0
LINE
  5
108
100
AcDbEntity
  8
MAIN0
  6
CONTINUOUS
 62
3
100
AcDbLine
 10
427.6876006004691
 20
569.7383802095327
 30
0.0000000000000000
 11
426.4876005527854
 21
573.7383802095327
 31
0.0000000000000000
  0
LINE
  5
109
100
AcDbEntity
  8
MAIN0
  6
CONTINUOUS
 62
3
100
AcDbLine
 10
426.4876005527854
 20
573.7383802095327
 30
0.0000000000000000
 11
425.2876005051016
 21
569.7383802095327
 31
0.0000000000000000
  0
LINE
  5
10A
100
AcDbEntity
  8
MAIN0
  6
CONTINUOUS
 62
3
100
AcDbLine
 10
427.6876006004691
 20
297.7383802095278
 30
0.0000000000000000
 11
426.4876005527854
 21
293.7383802095278
 31
0.0000000000000000
  0
LINE
  5
10B
100
AcDbEntity
  8
MAIN0
  6
CONTINUOUS
 62
3
100
AcDbLine
 10
426.4876005527854
 20
293.7383802095278
 30
0.0000000000000000
 11
425.2876005051016
 21
297.7383802095278
 31
0.0000000000000000
  0
MTEXT
  5
10C
100
AcDbEntity
  8
MAIN0
  6
CONTINUOUS
 62
3
100
AcDbMText
 10
425.4876005527854
 20
433.7383802095303
 30
0.0000000000000000
 40
6.199999809265137
 41
0.0000000000000000
 71
     8
 72
     1
  1
{\U+2205140}
 11
6.123233995736766e-017
 21
1.000000000000000
 31
0.0000000000000000
  7
STANDARD
  0
LINE
  5
10D
100
AcDbEntity
  8
MAIN0
  6
CONTINUOUS
 62
3
100
AcDbLine
 10
335.8233538475939
 20
293.7383802095278
 30
0.0000000000000000
 11
428.4876005527854
 21
293.7383802095278
 31
0.0000000000000000
  0
LINE
  5
10E
100
AcDbEntity
  8
MAIN0
  6
CONTINUOUS
 62
3
100
AcDbLine
 10
320.8233538477248
 20
633.7383802095351
 30
0.0000000000000000
 11
445.4722592425412
 21
633.7383802095227
 31
0.0000000000000000
  0
LINE
  5
10F
100
AcDbEntity
  8
MAIN0
  6
CONTINUOUS
 62
3
100
AcDbLine
 10
443.4722592425412
 20
633.7383802095229
 30
0.0000000000000000
 11
443.4722592425412
 21
233.7383802095352
 31
0.0000000000000000
  0
LINE
  5
110
100
AcDbEntity
  8
MAIN0
  6
CONTINUOUS
 62
3
100
AcDbLine
 10
444.6722592902249
 20
629.7383802095229
 30
0.0000000000000000
 11
443.4722592425412
 21
633.7383802095229
 31
0.0000000000000000
  0
LINE
  5
111
100
AcDbEntity
  8
MAIN0
  6
CONTINUOUS
 62
3
100
AcDbLine
 10
443.4722592425412
 20
633.7383802095229
 30
0.0000000000000000
 11
442.2722591948574
 21
629.7383802095229
 31
0.0000000000000000
  0
LINE
  5
112
100
AcDbEntity
  8
MAIN0
  6
CONTINUOUS
 62
3
100
AcDbLine
 10
444.6722592902249
 20
237.7383802095352
 30
0.0000000000000000
 11
443.4722592425412
 21
233.7383802095352
 31
0.0000000000000000
  0
LINE
  5
113
100
AcDbEntity
  8
MAIN0
  6
CONTINUOUS
 62
3
100
AcDbLine
 10
443.4722592425412
 20
233.7383802095352
 30
0.0000000000000000
 11
442.2722591948574
 21
237.7383802095352
 31
0.0000000000000000
  0
MTEXT
  5
114
100
AcDbEntity
  8
MAIN0
  6
CONTINUOUS
 62
3
100
AcDbMText
 10
442.4722592425412
 20
433.7383802095291
 30
0.0000000000000000
 40
6.199999809265137
 41
0.0000000000000000
 71
     8
 72
     1
  1
{\U+2205200}
 11
6.123233995736766e-017
 21
1.000000000000000
 31
0.0000000000000000
  7
STANDARD
  0
LINE
  5
115
100
AcDbEntity
  8
MAIN0
  6
CONTINUOUS
 62
3
100
AcDbLine
 10
320.8233538475266
 20
233.7383802095352
 30
0.0000000000000000
 11
445.4722592425412
 21
233.7383802095352
 31
0.0000000000000000
  0
LINE
  5
116
100
AcDbEntity
  8
MAIN0
  6
CONTINUOUS
 62
3
100
AcDbLine
 10
341.8233538477474
 20
345.2383802091907
 30
0.0000000000000000
 11
368.4068239346377
 21
345.2383802091907
 31
0.0000000000000000
  0
LINE
  5
117
100
AcDbEntity
  8
MAIN0
  6
CONTINUOUS
 62
3
100
AcDbLine
 10
366.4068239346377
 20
350.2823894178699
 30
0.0000000000000000
 11
366.4068239346377
 21
312.6783802091907
 31
0.0000000000000000
  0
LINE
  5
118
100
AcDbEntity
  8
MAIN0
  6
CONTINUOUS
 62
3
100
AcDbLine
 10
367.6068239823214
 20
341.2383802091907
 30
0.0000000000000000
 11
366.4068239346377
 21
345.2383802091907
 31
0.0000000000000000
  0
LINE
  5
119
100
AcDbEntity
  8
MAIN0
  6
CONTINUOUS
 62
3
100
AcDbLine
 10
366.4068239346377
 20
345.2383802091907
 30
0.0000000000000000
 11
365.2068238869540
 21
341.2383802091907
 31
0.0000000000000000
  0
LINE
  5
11A
100
AcDbEntity
  8
MAIN0
  6
CONTINUOUS
 62
3
100
AcDbLine
 10
367.6068239823214
 20
316.6783802091907
 30
0.0000000000000000
 11
366.4068239346377
 21
312.6783802091907
 31
0.0000000000000000
  0
LINE
  5
11B
100
AcDbEntity
  8
MAIN0
  6
CONTINUOUS
 62
3
100
AcDbLine
 10
366.4068239346377
 20
312.6783802091907
 30
0.0000000000000000
 11
365.2068238869540
 21
316.6783802091907
 31
0.0000000000000000
  0
MTEXT
  5
11C
100
AcDbEntity
  8
MAIN0
  6
CONTINUOUS
 62
3
100
AcDbMText
 10
365.4068239346377
 20
325.4263978489222
 30
0.0000000000000000
 40
6.199999809265137
 41
0.0000000000000000
 71
     8
 72
     1
  1
{\U+220516.3}
 11
6.123233995736766e-017
 21
1.000000000000000
 31
0.0000000000000000
  7
STANDARD
  0
MTEXT
  5
11D
100
AcDbEntity
  8
MAIN0
  6
CONTINUOUS
 62
3
100
AcDbMText
 10
359.8068240300052
 20
345.3763981275739
 30
0.0000000000000000
 40
5.599999904632568
 41
0.0000000000000000
 71
     8
 72
     1
  1
{+0.102}
 11
6.123233995736766e-017
 21
1.000000000000000
 31
0.0000000000000000
  7
STANDARD
  0
MTEXT
  5
11E
100
AcDbEntity
  8
MAIN0
  6
CONTINUOUS
 62
3
100
AcDbMText
 10
365.4068239346377
 20
339.0263979547204
 30
0.0000000000000000
 40
5.599999904632568
 41
0.0000000000000000
 71
     8
 72
     1
  1
{ 0}
 11
6.123233995736766e-017
 21
1.000000000000000
 31
0.0000000000000000
  7
STANDARD
  0
LINE
  5
11F
100
AcDbEntity
  8
MAIN0
  6
CONTINUOUS
 62
3
100
AcDbLine
 10
341.8233538477501
 20
312.6783802091907
 30
0.0000000000000000
 11
368.4068239346377
 21
312.6783802091907
 31
0.0000000000000000
  0
LINE
  5
120
100
AcDbEntity
  8
MAIN0
  6
CONTINUOUS
 62
3
100
AcDbLine
 10
328.4233538358304
 20
311.8783801972697
 30
0.0000000000000000
 11
328.4233538358519
 21
297.3476237011655
 31
0.0000000000000000
  0
LINE
  5
121
100
AcDbEntity
  8
MAIN0
  6
CONTINUOUS
 62
3
100
AcDbLine
 10
325.4233538358490
 20
299.3476237011655
 30
0.0000000000000000
 11
354.9268019406887
 21
299.3476237011655
 31
0.0000000000000000
  0
LINE
  5
122
100
AcDbEntity
  8
MAIN0
  6
CONTINUOUS
 62
3
100
AcDbLine
 10
324.4233538358490
 20
300.5476237488492
 30
0.0000000000000000
 11
328.4233538358490
 21
299.3476237011655
 31
0.0000000000000000
  0
LINE
  5
123
100
AcDbEntity
  8
MAIN0
  6
CONTINUOUS
 62
3
100
AcDbLine
 10
328.4233538358490
 20
299.3476237011655
 30
0.0000000000000000
 11
324.4233538358490
 21
298.1476236534818
 31
0.0000000000000000
  0
LINE
  5
124
100
AcDbEntity
  8
MAIN0
  6
CONTINUOUS
 62
3
100
AcDbLine
 10
345.0233538358303
 20
300.5476237488492
 30
0.0000000000000000
 11
341.0233538358303
 21
299.3476237011655
 31
0.0000000000000000
  0
LINE
  5
125
100
AcDbEntity
  8
MAIN0
  6
CONTINUOUS
 62
3
100
AcDbLine
 10
341.0233538358303
 20
299.3476237011655
 30
0.0000000000000000
 11
345.0233538358303
 21
298.1476236534818
 31
0.0000000000000000
  0
MTEXT
  5
126
100
AcDbEntity
  8
MAIN0
  6
CONTINUOUS
 62
3
100
AcDbMText
 10
350.8302492269346
 20
300.3476237011655
 30
0.0000000000000000
 40
6.199999809265137
 41
0.0000000000000000
 71
     8
 72
     1
  1
{\H0.58x;{6.3}}
 11
1.000000000000000
 21
0.0000000000000000
 31
0.0000000000000000
  7
STANDARD
  0
MTEXT
  5
127
100
AcDbEntity
  8
MAIN0
  6
CONTINUOUS
 62
3
100
AcDbMText
 10
362.4802494042584
 20
305.9476236057981
 30
0.0000000000000000
 40
5.599999904632568
 41
0.0000000000000000
 71
     8
 72
     1
  1
{+0.4}
 11
1.000000000000000
 21
0.0000000000000000
 31
0.0000000000000000
  7
STANDARD
  0
MTEXT
  5
128
100
AcDbEntity
  8
MAIN0
  6
CONTINUOUS
 62
3
100
AcDbMText
 10
359.7302493297526
 20
300.3476237011655
 30
0.0000000000000000
 40
5.599999904632568
 41
0.0000000000000000
 71
     8
 72
     1
  1
{ 0}
 11
1.000000000000000
 21
0.0000000000000000
 31
0.0000000000000000
  7
STANDARD
  0
LINE
  5
129
100
AcDbEntity
  8
MAIN0
  6
CONTINUOUS
 62
3
100
AcDbLine
 10
274.3129471900603
 20
340.9583802091907
 30
0.0000000000000000
 11
274.3129471900603
 21
316.9583802091907
 31
0.0000000000000000
  0
LINE
  5
12A
100
AcDbEntity
  8
MAIN0
  6
CONTINUOUS
 62
3
100
AcDbLine
 10
275.5129472377440
 20
336.9583802091907
 30
0.0000000000000000
 11
274.3129471900603
 21
340.9583802091907
 31
0.0000000000000000
  0
LINE
  5
12B
100
AcDbEntity
  8
MAIN0
  6
CONTINUOUS
 62
3
100
AcDbLine
 10
274.3129471900603
 20
340.9583802091907
 30
0.0000000000000000
 11
273.1129471423766
 21
336.9583802091907
 31
0.0000000000000000
  0
LINE
  5
12C
100
AcDbEntity
  8
MAIN0
  6
CONTINUOUS
 62
3
100
AcDbLine
 10
275.5129472377440
 20
320.9583802091907
 30
0.0000000000000000
 11
274.3129471900603
 21
316.9583802091907
 31
0.0000000000000000
  0
LINE
  5
12D
100
AcDbEntity
  8
MAIN0
  6
CONTINUOUS
 62
3
100
AcDbLine
 10
274.3129471900603
 20
316.9583802091907
 30
0.0000000000000000
 11
273.1129471423766
 21
320.9583802091907
 31
0.0000000000000000
  0
MTEXT
  5
12E
100
AcDbEntity
  8
MAIN0
  6
CONTINUOUS
 62
3
100
AcDbMText
 10
273.3129471900603
 20
328.9583802091907
 30
0.0000000000000000
 40
6.199999809265137
 41
0.0000000000000000
 71
     8
 72
     1
  1
{\U+220512}
 11
6.123233995736766e-017
 21
1.000000000000000
 31
0.0000000000000000
  7
STANDARD
  0
LINE
  5
12F
100
AcDbEntity
  8
MAIN0
  6
CONTINUOUS
 62
3
100
AcDbLine
 10
201.0233538358291
 20
298.2369011946689
 30
0.0000000000000000
 11
225.0233538358279
 21
298.2369011946689
 31
0.0000000000000000
  0
LINE
  5
130
100
AcDbEntity
  8
MAIN0
  6
CONTINUOUS
 62
3
100
AcDbLine
 10
205.0233538358291
 20
299.4369012423526
 30
0.0000000000000000
 11
201.0233538358291
 21
298.2369011946689
 31
0.0000000000000000
  0
LINE
  5
131
100
AcDbEntity
  8
MAIN0
  6
CONTINUOUS
 62
3
100
AcDbLine
 10
201.0233538358291
 20
298.2369011946689
 30
0.0000000000000000
 11
205.0233538358291
 21
297.0369011469852
 31
0.0000000000000000
  0
LINE
  5
132
100
AcDbEntity
  8
MAIN0
  6
CONTINUOUS
 62
3
100
AcDbLine
 10
221.0233538358279
 20
299.4369012423526
 30
0.0000000000000000
 11
225.0233538358279
 21
298.2369011946689
 31
0.0000000000000000
  0
LINE
  5
133
100
AcDbEntity
  8
MAIN0
  6
CONTINUOUS
 62
3
100
AcDbLine
 10
225.0233538358279
 20
298.2369011946689
 30
0.0000000000000000
 11
221.0233538358279
 21
297.0369011469852
 31
0.0000000000000000
  0
MTEXT
  5
134
100
AcDbEntity
  8
MAIN0
  6
CONTINUOUS
 62
3
100
AcDbMText
 10
213.0233538358285
 20
299.2369011946689
 30
0.0000000000000000
 40
6.199999809265137
 41
0.0000000000000000
 71
     8
 72
     1
  1
{\H0.69x;{12}}
 11
1.000000000000000
 21
0.0000000000000000
 31
0.0000000000000000
  7
STANDARD
  0
LINE
  5
135
100
AcDbEntity
  8
MAIN0
  6
CONTINUOUS
 62
3
100
AcDbLine
 10
225.0233538358279
 20
311.1583801972698
 30
0.0000000000000000
 11
225.0233538358279
 21
296.2369011946689
 31
0.0000000000000000
  0
LINE
  5
136
100
AcDbEntity
  8
MAIN0
  6
CONTINUOUS
 62
3
100
AcDbLine
 10
201.4233538239070
 20
345.9583802091907
 30
0.0000000000000000
 11
182.2157342539545
 21
345.9583802091907
 31
0.0000000000000000
  0
LINE
  5
137
100
AcDbEntity
  8
MAIN0
  6
CONTINUOUS
 62
3
100
AcDbLine
 10
184.2157342539545
 20
345.9583802091907
 30
0.0000000000000000
 11
184.2157342539545
 21
311.9583802091907
 31
0.0000000000000000
  0
LINE
  5
138
100
AcDbEntity
  8
MAIN0
  6
CONTINUOUS
 62
3
100
AcDbLine
 10
185.4157343016382
 20
341.9583802091907
 30
0.0000000000000000
 11
184.2157342539545
 21
345.9583802091907
 31
0.0000000000000000
  0
LINE
  5
139
100
AcDbEntity
  8
MAIN0
  6
CONTINUOUS
 62
3
100
AcDbLine
 10
184.2157342539545
 20
345.9583802091907
 30
0.0000000000000000
 11
183.0157342062707
 21
341.9583802091907
 31
0.0000000000000000
  0
LINE
  5
13A
100
AcDbEntity
  8
MAIN0
  6
CONTINUOUS
 62
3
100
AcDbLine
 10
185.4157343016382
 20
315.9583802091907
 30
0.0000000000000000
 11
184.2157342539545
 21
311.9583802091907
 31
0.0000000000000000
  0
LINE
  5
13B
100
AcDbEntity
  8
MAIN0
  6
CONTINUOUS
 62
3
100
AcDbLine
 10
184.2157342539545
 20
311.9583802091907
 30
0.0000000000000000
 11
183.0157342062707
 21
315.9583802091907
 31
0.0000000000000000
  0
MTEXT
  5
13C
100
AcDbEntity
  8
MAIN0
  6
CONTINUOUS
 62
3
100
AcDbMText
 10
183.2157342539545
 20
328.9583802091907
 30
0.0000000000000000
 40
6.199999809265137
 41
0.0000000000000000
 71
     8
 72
     1
  1
{\U+220517}
 11
6.123233995736766e-017
 21
1.000000000000000
 31
0.0000000000000000
  7
STANDARD
  0
LINE
  5
13D
100
AcDbEntity
  8
MAIN0
  6
CONTINUOUS
 62
3
100
AcDbLine
 10
201.4233538239070
 20
311.9583802091907
 30
0.0000000000000000
 11
182.2157342539545
 21
311.9583802091907
 31
0.0000000000000000
  0
LINE
  5
13E
100
AcDbEntity
  8
MAIN0
  6
CONTINUOUS
 62
3
100
AcDbLine
 10
319.0233009880885
 20
513.4383802095362
 30
0.0000000000000000
 11
386.4857216872745
 21
513.4383802095398
 31
0.0000000000000000
  0
LINE
  5
13F
100
AcDbEntity
  8
MAIN0
  6
CONTINUOUS
 62
3
100
AcDbLine
 10
384.4857216872745
 20
513.4383802095397
 30
0.0000000000000000
 11
384.4857216872745
 21
354.0383802095361
 31
0.0000000000000000
  0
LINE
  5
140
100
AcDbEntity
  8
MAIN0
  6
CONTINUOUS
 62
3
100
AcDbLine
 10
385.6857217349582
 20
509.4383802095397
 30
0.0000000000000000
 11
384.4857216872745
 21
513.4383802095397
 31
0.0000000000000000
  0
LINE
  5
141
100
AcDbEntity
  8
MAIN0
  6
CONTINUOUS
 62
3
100
AcDbLine
 10
384.4857216872745
 20
513.4383802095397
 30
0.0000000000000000
 11
383.2857216395908
 21
509.4383802095397
 31
0.0000000000000000
  0
LINE
  5
142
100
AcDbEntity
  8
MAIN0
  6
CONTINUOUS
 62
3
100
AcDbLine
 10
385.6857217349582
 20
358.0383802095361
 30
0.0000000000000000
 11
384.4857216872745
 21
354.0383802095361
 31
0.0000000000000000
  0
LINE
  5
143
100
AcDbEntity
  8
MAIN0
  6
CONTINUOUS
 62
3
100
AcDbLine
 10
384.4857216872745
 20
354.0383802095361
 30
0.0000000000000000
 11
383.2857216395908
 21
358.0383802095361
 31
0.0000000000000000
  0
MTEXT
  5
144
100
AcDbEntity
  8
MAIN0
  6
CONTINUOUS
 62
3
100
AcDbMText
 10
383.4857216872745
 20
433.7383802095379
 30
0.0000000000000000
 40
6.199999809265137
 41
0.0000000000000000
 71
     8
 72
     1
  1
{\U+220579.7}
 11
6.123233995736766e-017
 21
1.000000000000000
 31
0.0000000000000000
  7
STANDARD
  0
LINE
  5
145
100
AcDbEntity
  8
MAIN0
  6
CONTINUOUS
 62
3
100
AcDbLine
 10
319.0233009880101
 20
354.0383802095361
 30
0.0000000000000000
 11
386.4857216872745
 21
354.0383802095361
 31
0.0000000000000000
  0
ARC
  5
146
100
AcDbEntity
  8
MAIN0
  6
CONTINUOUS
 62
3
100
AcDbCircle
 10
264.0233538357948
 20
724.0184489603661
 30
0.0000000000000000
 40
12.00000000000000
100
AcDbArc
 50
348.5573097612099
 51
371.4426902265857
  0
ARC
  5
147
100
AcDbEntity
  8
MAIN0
  6
CONTINUOUS
 62
3
100
AcDbCircle
 10
264.0233538357948
 20
724.0184489603661
 30
0.0000000000000000
 40
12.00000000000000
100
AcDbArc
 50
11.44269022658567
 51
44.54485568845530
  0
ARC
  5
148
100
AcDbEntity
  8
MAIN0
  6
CONTINUOUS
 62
3
100
AcDbCircle
 10
264.0233538357948
 20
724.0184489603661
 30
0.0000000000000000
 40
12.00000000000000
100
AcDbArc
 50
168.5573097628165
 51
191.4426902494309
  0
ARC
  5
149
100
AcDbEntity
  8
MAIN0
  6
CONTINUOUS
 62
3
100
AcDbCircle
 10
264.0233538357948
 20
724.0184489603661
 30
0.0000000000000000
 40
12.00000000000000
100
AcDbArc
 50
191.4426902494309
 51
221.4058685041924
  0
LINE
  5
14A
100
AcDbEntity
  8
MAIN0
  6
CONTINUOUS
 62
3
100
AcDbLine
 10
274.5771601149315
 20
729.7295935936646
 30
0.0000000000000000
 11
253.4695475566581
 21
718.3073043270674
 31
0.0000000000000000
  0
LINE
  5
14B
100
AcDbEntity
  8
MAIN0
  6
CONTINUOUS
 62
3
100
AcDbLine
 10
271.6303391745765
 20
726.7704980460477
 30
0.0000000000000000
 11
274.5771601149315
 21
729.7295935936646
 31
0.0000000000000000
  0
LINE
  5
14C
100
AcDbEntity
  8
MAIN0
  6
CONTINUOUS
 62
3
100
AcDbLine
 10
274.5771601149315
 20
729.7295935936646
 30
0.0000000000000000
 11
270.4881102025287
 21
728.8812593857491
 31
0.0000000000000000
  0
LINE
  5
14D
100
AcDbEntity
  8
MAIN0
  6
CONTINUOUS
 62
3
100
AcDbLine
 10
257.5585974690609
 20
719.1556385349829
 30
0.0000000000000000
 11
253.4695475566581
 21
718.3073043270674
 31
0.0000000000000000
  0
LINE
  5
14E
100
AcDbEntity
  8
MAIN0
  6
CONTINUOUS
 62
3
100
AcDbLine
 10
253.4695475566581
 20
718.3073043270674
 30
0.0000000000000000
 11
256.4163684970131
 21
721.2663998746843
 31
0.0000000000000000
  0
MTEXT
  5
14F
100
AcDbEntity
  8
MAIN0
  6
CONTINUOUS
 62
3
100
AcDbMText
 10
263.5474251163532
 20
724.8979328169608
 30
0.0000000000000000
 40
6.199999809265137
 41
0.0000000000000000
 71
     8
 72
     1
  1
{\U+220512}
 11
0.8794838565947224
 21
0.4759287194415501
 31
0.0000000000000000
  7
STANDARD
  0
MTEXT
  5
150
100
AcDbEntity
  8
MAIN0
  6
CONTINUOUS
 62
3
100
AcDbMText
 10
288.3615798337554
 20
653.8758540030271
 30
0.0000000000000000
 40
6.199999809265137
 41
0.0000000000000000
 71
     1
 72
     1
  1
{\H0.66x;{5山/25.4}}
 11
1.000000000000000
 21
-4.922957738736989e-013
 31
0.0000000000000000
  7
KNJYOKO
  0
LINE
  5
151
100
AcDbEntity
  8
MAIN0
  6
CONTINUOUS
 62
3
100
AcDbLine
 10
201.0233538358027
 20
631.5383802215129
 30
0.0000000000000000
 11
201.0233538358027
 21
664.5017834837781
 31
0.0000000000000000
  0
LINE
  5
152
100
AcDbEntity
  8
MAIN0
  6
CONTINUOUS
 62
3
100
AcDbLine
 10
201.0233538358027
 20
662.5017834837781
 30
0.0000000000000000
 11
264.0233538358003
 21
662.5017834837781
 31
0.0000000000000000
  0
LINE
  5
153
100
AcDbEntity
  8
MAIN0
  6
CONTINUOUS
 62
3
100
AcDbLine
 10
205.0233538358027
 20
663.7017835314618
 30
0.0000000000000000
 11
201.0233538358027
 21
662.5017834837781
 31
0.0000000000000000
  0
LINE
  5
154
100
AcDbEntity
  8
MAIN0
  6
CONTINUOUS
 62
3
100
AcDbLine
 10
201.0233538358027
 20
662.5017834837781
 30
0.0000000000000000
 11
205.0233538358027
 21
661.3017834360944
 31
0.0000000000000000
  0
LINE
  5
155
100
AcDbEntity
  8
MAIN0
  6
CONTINUOUS
 62
3
100
AcDbLine
 10
260.0233538358003
 20
663.7017835314618
 30
0.0000000000000000
 11
264.0233538358003
 21
662.5017834837781
 31
0.0000000000000000
  0
LINE
  5
156
100
AcDbEntity
  8
MAIN0
  6
CONTINUOUS
 62
3
100
AcDbLine
 10
264.0233538358003
 20
662.5017834837781
 30
0.0000000000000000
 11
260.0233538358003
 21
661.3017834360944
 31
0.0000000000000000
  0
MTEXT
  5
157
100
AcDbEntity
  8
MAIN0
  6
CONTINUOUS
 62
3
100
AcDbMText
 10
232.5233538358015
 20
663.5017834837781
 30
0.0000000000000000
 40
6.199999809265137
 41
0.0000000000000000
 71
     8
 72
     1
  1
{\H0.62x;{31.5}}
 11
1.000000000000000
 21
0.0000000000000000
 31
0.0000000000000000
  7
STANDARD
  0
LINE
  5
158
100
AcDbEntity
  8
MAIN0
  6
CONTINUOUS
 62
3
100
AcDbLine
 10
264.0233538358003
 20
662.5017834837781
 30
0.0000000000000000
 11
323.0233538358025
 21
662.5017834837781
 31
0.0000000000000000
  0
LINE
  5
159
100
AcDbEntity
  8
MAIN0
  6
CONTINUOUS
 62
3
100
AcDbLine
 10
268.0233538358003
 20
663.7017835314618
 30
0.0000000000000000
 11
264.0233538358003
 21
662.5017834837781
 31
0.0000000000000000
  0
LINE
  5
15A
100
AcDbEntity
  8
MAIN0
  6
CONTINUOUS
 62
3
100
AcDbLine
 10
264.0233538358003
 20
662.5017834837781
 30
0.0000000000000000
 11
268.0233538358003
 21
661.3017834360944
 31
0.0000000000000000
  0
LINE
  5
15B
100
AcDbEntity
  8
MAIN0
  6
CONTINUOUS
 62
3
100
AcDbLine
 10
319.0233538358025
 20
663.7017835314618
 30
0.0000000000000000
 11
323.0233538358025
 21
662.5017834837781
 31
0.0000000000000000
  0
LINE
  5
15C
100
AcDbEntity
  8
MAIN0
  6
CONTINUOUS
 62
3
100
AcDbLine
 10
323.0233538358025
 20
662.5017834837781
 30
0.0000000000000000
 11
319.0233538358025
 21
661.3017834360944
 31
0.0000000000000000
  0
MTEXT
  5
15D
100
AcDbEntity
  8
MAIN0
  6
CONTINUOUS
 62
3
100
AcDbMText
 10
293.5233538358014
 20
663.5017834837781
 30
0.0000000000000000
 40
6.199999809265137
 41
0.0000000000000000
 71
     8
 72
     1
  1
{\H0.62x;{29.5}}
 11
1.000000000000000
 21
0.0000000000000000
 31
0.0000000000000000
  7
STANDARD
  0
LINE
  5
15E
100
AcDbEntity
  8
MAIN0
  6
CONTINUOUS
 62
3
100
AcDbLine
 10
323.0233538358025
 20
631.5383802214565
 30
0.0000000000000000
 11
323.0233538358025
 21
664.5017834837781
 31
0.0000000000000000
  0
LINE
  5
15F
100
AcDbEntity
  8
MAIN0
  6
CONTINUOUS
 62
3
100
AcDbLine
 10
323.0233538358025
 20
662.5017834837781
 30
0.0000000000000000
 11
341.0233538358078
 21
662.5017834837781
 31
0.0000000000000000
  0
LINE
  5
160
100
AcDbEntity
  8
MAIN0
  6
CONTINUOUS
 62
3
100
AcDbLine
 10
327.0233538358025
 20
663.7017835314618
 30
0.0000000000000000
 11
323.0233538358025
 21
662.5017834837781
 31
0.0000000000000000
  0
LINE
  5
161
100
AcDbEntity
  8
MAIN0
  6
CONTINUOUS
 62
3
100
AcDbLine
 10
323.0233538358025
 20
662.5017834837781
 30
0.0000000000000000
 11
327.0233538358025
 21
661.3017834360944
 31
0.0000000000000000
  0
LINE
  5
162
100
AcDbEntity
  8
MAIN0
  6
CONTINUOUS
 62
3
100
AcDbLine
 10
337.0233538358078
 20
663.7017835314618
 30
0.0000000000000000
 11
341.0233538358078
 21
662.5017834837781
 31
0.0000000000000000
  0
LINE
  5
163
100
AcDbEntity
  8
MAIN0
  6
CONTINUOUS
 62
3
100
AcDbLine
 10
341.0233538358078
 20
662.5017834837781
 30
0.0000000000000000
 11
337.0233538358078
 21
661.3017834360944
 31
0.0000000000000000
  0
MTEXT
  5
164
100
AcDbEntity
  8
MAIN0
  6
CONTINUOUS
 62
3
100
AcDbMText
 10
332.0233538358051
 20
663.5017834837781
 30
0.0000000000000000
 40
6.199999809265137
 41
0.0000000000000000
 71
     8
 72
     1
  1
{\H0.67x;{9}}
 11
1.000000000000000
 21
0.0000000000000000
 31
0.0000000000000000
  7
STANDARD
  0
LINE
  5
165
100
AcDbEntity
  8
MAIN0
  6
CONTINUOUS
 62
3
100
AcDbLine
 10
341.0233538358078
 20
569.4879789510596
 30
0.0000000000000000
 11
341.0233538358078
 21
664.5017834837781
 31
0.0000000000000000
  0
LINE
  5
166
100
AcDbEntity
  8
MAIN0
  6
CONTINUOUS
 62
3
100
AcDbLine
 10
341.0233538358078
 20
568.5383802214492
 30
0.0000000000000000
 11
341.0233538358078
 21
681.5271932652281
 31
0.0000000000000000
  0
LINE
  5
167
100
AcDbEntity
  8
MAIN0
  6
CONTINUOUS
 62
3
100
AcDbLine
 10
341.0233538358078
 20
679.5271932652281
 30
0.0000000000000000
 11
201.0233538358027
 21
679.5271932652281
 31
0.0000000000000000
  0
LINE
  5
168
100
AcDbEntity
  8
MAIN0
  6
CONTINUOUS
 62
3
100
AcDbLine
 10
337.0233538358078
 20
678.3271932175444
 30
0.0000000000000000
 11
341.0233538358078
 21
679.5271932652281
 31
0.0000000000000000
  0
LINE
  5
169
100
AcDbEntity
  8
MAIN0
  6
CONTINUOUS
 62
3
100
AcDbLine
 10
341.0233538358078
 20
679.5271932652281
 30
0.0000000000000000
 11
337.0233538358078
 21
680.7271933129118
 31
0.0000000000000000
  0
LINE
  5
16A
100
AcDbEntity
  8
MAIN0
  6
CONTINUOUS
 62
3
100
AcDbLine
 10
205.0233538358027
 20
678.3271932175444
 30
0.0000000000000000
 11
201.0233538358027
 21
679.5271932652281
 31
0.0000000000000000
  0
LINE
  5
16B
100
AcDbEntity
  8
MAIN0
  6
CONTINUOUS
 62
3
100
AcDbLine
 10
201.0233538358027
 20
679.5271932652281
 30
0.0000000000000000
 11
205.0233538358027
 21
680.7271933129118
 31
0.0000000000000000
  0
MTEXT
  5
16C
100
AcDbEntity
  8
MAIN0
  6
CONTINUOUS
 62
3
100
AcDbMText
 10
271.0233538358052
 20
680.5271932652281
 30
0.0000000000000000
 40
6.199999809265137
 41
0.0000000000000000
 71
     8
 72
     1
  1
{\H0.69x;{70}}
 11
1.000000000000000
 21
0.0000000000000000
 31
0.0000000000000000
  7
STANDARD
  0
LINE
  5
16D
100
AcDbEntity
  8
MAIN0
  6
CONTINUOUS
 62
3
100
AcDbLine
 10
201.0233538358027
 20
631.5383802215129
 30
0.0000000000000000
 11
201.0233538358027
 21
681.5271932652281
 31
0.0000000000000000
  0
INSERT
  5
173
100
AcDbEntity
  8
MAIN0
  6
CONTINUOUS
 62
3
100
AcDbBlockReference
  2
$$BALLOON$$1
 10
201.0233538358279
 20
328.9583802091907
 30
0.0000000000000000
 50
0.0000000000000000
  0
INSERT
  5
178
100
AcDbEntity
  8
MAIN0
  6
CONTINUOUS
 62
3
100
AcDbBlockReference
  2
M2
 10
150.5141959613926
 20
227.7387712080653
 30
0.0000000000000000
 50
0.0000000000000000
  0
LINE
  5
179
100
AcDbEntity
  8
MAIN0
  6
CENTER
 62
3
100
AcDbLine
 10
188.1906122569903
 20
328.9583802091907
 30
0.0000000000000000
 11
264.1129473807952
 21
328.9583802091906
 31
0.0000000000000000
  0
LINE
  5
17A
100
AcDbEntity
  8
MAIN0
  6
CENTER
 62
3
100
AcDbLine
 10
276.3129471900603
 20
328.9583802091906
 30
0.0000000000000000
 11
353.0154974419212
 21
328.9583802091906
 31
0.0000000000000000
  0
INSERT
  5
180
100
AcDbEntity
  8
MAIN0
  6
CONTINUOUS
 62
4
100
AcDbBlockReference
  2
M3
 10
0.0000000000000000
 20
0.0000000000000000
 30
0.0000000000000000
 50
0.0000000000000000
  0
INSERT
  5
186
100
AcDbEntity
  8
MAIN0
  6
CONTINUOUS
 62
4
100
AcDbBlockReference
  2
M4
 10
0.0000000000000000
 20
0.0000000000000000
 30
0.0000000000000000
 50
0.0000000000000000
  0
MTEXT
  5
187
100
AcDbEntity
  8
MAIN0
  6
CONTINUOUS
 62
3
100
AcDbMText
 10
57.61385259529277
 20
448.3795222840901
 30
0.0000000000000000
 40
10.00000000000000
 41
0.0000000000000000
 71
     1
 72
     1
  1
{\H0.82x;{A}}
 11
1.000000000000000
 21
0.0000000000000000
 31
0.0000000000000000
  7
STANDARD
  0
MTEXT
  5
188
100
AcDbEntity
  8
MAIN0
  6
CONTINUOUS
 62
3
100
AcDbMText
 10
462.5029661271846
 20
447.2804619071072
 30
0.0000000000000000
 40
10.00000000000000
 41
0.0000000000000000
 71
     1
 72
     1
  1
{\H0.82x;{B}}
 11
1.000000000000000
 21
0.0000000000000000
 31
0.0000000000000000
  7
STANDARD
  0
ARC
  5
189
100
AcDbEntity
  8
MAIN0
  6
CONTINUOUS
 62
3
100
AcDbCircle
 10
857.2126112281111
 20
465.4932280293592
 30
0.0000000000000000
 40
120.0000000000000
100
AcDbArc
 50
359.6568941522358
 51
370.2151540663097
  0
ARC
  5
18A
100
AcDbEntity
  8
MAIN0
  6
CONTINUOUS
 62
3
100
AcDbCircle
 10
1123.408308034741
 20
465.4932280292376
 30
0.0000000000000000
 40
120.0000000000000
100
AcDbArc
 50
169.7848459336380
 51
180.3431058477119
  0
LINE
  5
18B
100
AcDbEntity
  8
MAIN0
  6
CONTINUOUS
 62
3
100
AcDbLine
 10
341.0233538358078
 20
368.4241776675087
 30
0.0000000000000000
 11
311.0233538358123
 21
368.4241776675087
 31
0.0000000000000000
  0
LINE
  5
18C
100
AcDbEntity
  8
MAIN0
  6
CONTINUOUS
 62
3
100
AcDbLine
 10
337.0233538358078
 20
367.2241776198250
 30
0.0000000000000000
 11
341.0233538358078
 21
368.4241776675087
 31
0.0000000000000000
  0
LINE
  5
18D
100
AcDbEntity
  8
MAIN0
  6
CONTINUOUS
 62
3
100
AcDbLine
 10
341.0233538358078
 20
368.4241776675087
 30
0.0000000000000000
 11
337.0233538358078
 21
369.6241777151925
 31
0.0000000000000000
  0
LINE
  5
18E
100
AcDbEntity
  8
MAIN0
  6
CONTINUOUS
 62
3
100
AcDbLine
 10
315.0233538358123
 20
367.2241776198250
 30
0.0000000000000000
 11
311.0233538358123
 21
368.4241776675087
 31
0.0000000000000000
  0
LINE
  5
18F
100
AcDbEntity
  8
MAIN0
  6
CONTINUOUS
 62
3
100
AcDbLine
 10
311.0233538358123
 20
368.4241776675087
 30
0.0000000000000000
 11
315.0233538358123
 21
369.6241777151925
 31
0.0000000000000000
  0
MTEXT
  5
190
100
AcDbEntity
  8
MAIN0
  6
CONTINUOUS
 62
3
100
AcDbMText
 10
326.0233538358100
 20
369.4241776675087
 30
0.0000000000000000
 40
6.199999809265137
 41
0.0000000000000000
 71
     8
 72
     1
  1
{\H0.69x;{15}}
 11
1.000000000000000
 21
0.0000000000000000
 31
0.0000000000000000
  7
STANDARD
  0
CIRCLE
  5
191
100
AcDbEntity
  8
MAIN0
  6
CONTINUOUS
 62
3
100
AcDbCircle
 10
264.0233538358190
 20
433.7383802095628
 30
0.0000000000000000
 40
16.99999999998744
  0
LINE
  5
192
100
AcDbEntity
  8
MAIN0
  6
CONTINUOUS
 62
3
100
AcDbLine
 10
975.3104596315017
 20
562.0050809333976
 30
0.0000000000000000
 11
1005.310459631502
 21
562.0050809333976
 31
0.0000000000000000
  0
LINE
  5
193
100
AcDbEntity
  8
MAIN0
  6
CONTINUOUS
 62
3
100
AcDbLine
 10
979.3104596315017
 20
563.2050809810813
 30
0.0000000000000000
 11
975.3104596315017
 21
562.0050809333976
 31
0.0000000000000000
  0
LINE
  5
194
100
AcDbEntity
  8
MAIN0
  6
CONTINUOUS
 62
3
100
AcDbLine
 10
975.3104596315017
 20
562.0050809333976
 30
0.0000000000000000
 11
979.3104596315017
 21
560.8050808857139
 31
0.0000000000000000
  0
LINE
  5
195
100
AcDbEntity
  8
MAIN0
  6
CONTINUOUS
 62
3
100
AcDbLine
 10
1001.310459631502
 20
563.2050809810813
 30
0.0000000000000000
 11
1005.310459631502
 21
562.0050809333976
 31
0.0000000000000000
  0
LINE
  5
196
100
AcDbEntity
  8
MAIN0
  6
CONTINUOUS
 62
3
100
AcDbLine
 10
1005.310459631502
 20
562.0050809333976
 30
0.0000000000000000
 11
1001.310459631502
 21
560.8050808857139
 31
0.0000000000000000
  0
MTEXT
  5
197
100
AcDbEntity
  8
MAIN0
  6
CONTINUOUS
 62
3
100
AcDbMText
 10
990.3104596315017
 20
563.0050809333976
 30
0.0000000000000000
 40
6.199999809265137
 41
0.0000000000000000
 71
     8
 72
     1
  1
{\U+220515}
 11
1.000000000000000
 21
0.0000000000000000
 31
0.0000000000000000
  7
STANDARD
  0
LINE
  5
198
100
AcDbEntity
  8
MAIN0
  6
CONTINUOUS
 62
3
100
AcDbLine
 10
572.4659022479316
 20
212.3810755939775
 30
0.0000000000000000
 11
632.8093273716444
 21
212.3810755939775
 31
0.0000000000000000
  0
LINE
  5
199
100
AcDbEntity
  8
MAIN0
  6
CONTINUOUS
 62
3
100
AcDbLine
 10
780.9250674683375
 20
211.8823667845052
 30
0.0000000000000000
 11
841.2684925920503
 21
211.8823667845052
 31
0.0000000000000000
  0
MTEXT
  5
19A
100
AcDbEntity
  8
MAIN0
  6
CONTINUOUS
 62
3
100
AcDbMText
 10
577.6406901751133
 20
209.8890669978094
 30
0.0000000000000000
 40
6.000000000000000
 41
0.0000000000000000
 71
     1
 72
     1
  1
{\H0.93x;{VIEW OF A}}
 11
1.000000000000000
 21
0.0000000000000000
 31
0.0000000000000000
  7
STANDARD
  0
MTEXT
  5
19B
100
AcDbEntity
  8
MAIN0
  6
CONTINUOUS
 62
3
100
AcDbMText
 10
786.3523075283665
 20
208.9794677111032
 30
0.0000000000000000
 40
6.000000000000000
 41
0.0000000000000000
 71
     1
 72
     1
  1
{\H0.93x;{VIEW OF B}}
 11
1.000000000000000
 21
0.0000000000000000
 31
0.0000000000000000
  7
STANDARD
  0
MTEXT
  5
19C
100
AcDbEntity
  8
MAIN0
  6
CONTINUOUS
 62
3
100
AcDbMText
 10
243.9088521584671
 20
196.5235264380642
 30
0.0000000000000000
 40
8.000000000000000
 41
0.0000000000000000
 71
     1
 72
     1
  1
{\H0.88x;{SEC.C-O-D}}
 11
1.000000000000000
 21
0.0000000000000000
 31
0.0000000000000000
  7
STANDARD
  0
MTEXT
  5
19D
100
AcDbEntity
  8
MAIN0
  6
CONTINUOUS
 62
3
100
AcDbMText
 10
324.0954770056617
 20
653.9900911260190
 30
0.0000000000000000
 40
4.000000000000000
 41
0.0000000000000000
 71
     1
 72
     1
  1
{\H0.63x;{SQUARE THREAD 22\P5 THREADS/INCH\PLEFT HAND}}
 11
1.000000000000000
 21
0.0000000000000000
 31
0.0000000000000000
  7
STANDARD
  0
ARC
  5
19E
100
AcDbEntity
  8
MAIN0
  6
CONTINUOUS
 62
3
100
AcDbCircle
 10
715.4642069820925
 20
433.7383802091906
 30
0.0000000000000000
 40
82.55000000050056
100
AcDbArc
 50
56.23517368368113
 51
90.00000000000000
  0
ARC
  5
19F
100
AcDbEntity
  8
MAIN0
  6
CONTINUOUS
 62
3
100
AcDbCircle
 10
715.4642069820925
 20
433.7383802091906
 30
0.0000000000000000
 40
79.70000000015024
100
AcDbArc
 50
56.49035859035104
 51
90.00000000000000
  0
ARC
  5
1A0
100
AcDbEntity
  8
MAIN0
  6
CONTINUOUS
 62
3
100
AcDbCircle
 10
715.4642069820925
 20
433.7383802091906
 30
0.0000000000000000
 40
82.55000000050056
100
AcDbArc
 50
270.0000000000000
 51
343.3438094694872
  0
ARC
  5
1A1
100
AcDbEntity
  8
MAIN0
  6
CONTINUOUS
 62
3
100
AcDbCircle
 10
715.4642069820925
 20
433.7383802091906
 30
0.0000000000000000
 40
82.55000000050056
100
AcDbArc
 50
351.4117258618346
 51
407.7492001537364
  0
ARC
  5
1A2
100
AcDbEntity
  8
MAIN0
  6
CONTINUOUS
 62
3
100
AcDbCircle
 10
715.4642069820925
 20
433.7383802091906
 30
0.0000000000000000
 40
79.70000000015024
100
AcDbArc
 50
270.0000000000000
 51
343.3016071353643
  0
ARC
  5
1A3
100
AcDbEntity
  8
MAIN0
  6
CONTINUOUS
 62
3
100
AcDbCircle
 10
715.4642069820925
 20
433.7383802091906
 30
0.0000000000000000
 40
79.70000000015024
100
AcDbArc
 50
351.6592900370812
 51
407.6995461579068
  0
SPLINE
  5
1A4
100
AcDbEntity
  8
MAIN0
  6
CONTINUOUS
 62
3
100
AcDbSpline
210
0.0000000000000000
220
0.0000000000000000
230
1.000000000000000
 70
     8
 71
     3
 72
    13
 73
     9
 74
     0
 42
1.000000000000000e-007
 43
1.000000000000000e-007
 12
0.07260530284681011
 22
-1.095131536714973
 32
0.0000000000000000
 13
0.1326406097755353
 23
1.951238731338037
 33
0.0000000000000000
 40
0.0000000000000000
 40
0.0000000000000000
 40
0.0000000000000000
 40
0.0000000000000000
 40
12.40698524419230
 40
27.94317833184172
 40
34.93304884907042
 40
42.09149398988359
 40
57.47992823264124
 40
70.21147855810006
 40
70.21147855810006
 40
70.21147855810006
 40
70.21147855810006
 10
250.2580243615852
 20
619.8508440370993
 30
0.0000000000000000
 10
250.5582953352754
 20
615.3217504316085
 30
0.0000000000000000
 10
250.8381566234177
 20
600.2898886698793
 30
0.0000000000000000
 10
244.4942133288826
 20
578.2116486271399
 30
0.0000000000000000
 10
264.0549891849215
 20
564.5863554352561
 30
0.0000000000000000
 10
284.1979327992939
 20
577.4364144384728
 30
0.0000000000000000
 10
277.4639909562733
 20
604.1680145031796
 30
0.0000000000000000
 10
278.7072749229421
 20
622.4576155078903
 30
0.0000000000000000
 10
279.2701817891277
 20
630.7383802095619
 30
0.0000000000000000
  0
LINE
  5
1A5
100
AcDbEntity
  8
MAIN0
  6
CONTINUOUS
 62
3
100
AcDbLine
 10
286.0233538357909
 20
634.5383802214728
 30
0.0000000000000000
 11
286.0233538357909
 21
647.9831688180518
 31
0.0000000000000000
  0
LINE
  5
1A6
100
AcDbEntity
  8
MAIN0
  6
CONTINUOUS
 62
3
100
AcDbLine
 10
286.0233538357909
 20
645.9831688180518
 30
0.0000000000000000
 11
242.0233538358066
 21
645.9831688180518
 31
0.0000000000000000
  0
LINE
  5
1A7
100
AcDbEntity
  8
MAIN0
  6
CONTINUOUS
 62
3
100
AcDbLine
 10
282.0233538357909
 20
644.7831687703681
 30
0.0000000000000000
 11
286.0233538357909
 21
645.9831688180518
 31
0.0000000000000000
  0
LINE
  5
1A8
100
AcDbEntity
  8
MAIN0
  6
CONTINUOUS
 62
3
100
AcDbLine
 10
286.0233538357909
 20
645.9831688180518
 30
0.0000000000000000
 11
282.0233538357909
 21
647.1831688657355
 31
0.0000000000000000
  0
LINE
  5
1A9
100
AcDbEntity
  8
MAIN0
  6
CONTINUOUS
 62
3
100
AcDbLine
 10
246.0233538358066
 20
644.7831687703681
 30
0.0000000000000000
 11
242.0233538358066
 21
645.9831688180518
 31
0.0000000000000000
  0
LINE
  5
1AA
100
AcDbEntity
  8
MAIN0
  6
CONTINUOUS
 62
3
100
AcDbLine
 10
242.0233538358066
 20
645.9831688180518
 30
0.0000000000000000
 11
246.0233538358066
 21
647.1831688657355
 31
0.0000000000000000
  0
MTEXT
  5
1AB
100
AcDbEntity
  8
MAIN0
  6
CONTINUOUS
 62
3
100
AcDbMText
 10
264.0233538357987
 20
646.9831688180518
 30
0.0000000000000000
 40
6.199999809265137
 41
0.0000000000000000
 71
     8
 72
     1
  1
{\U+220522}
 11
1.000000000000000
 21
0.0000000000000000
 31
0.0000000000000000
  7
STANDARD
  0
LINE
  5
1AC
100
AcDbEntity
  8
MAIN0
  6
CONTINUOUS
 62
3
100
AcDbLine
 10
242.0233790162586
 20
627.5383802214841
 30
0.0000000000000000
 11
242.0233511054472
 21
647.9831688180500
 31
0.0000000000000000
  0
ARC
  5
1AD
100
AcDbEntity
  8
MAIN0
  6
CONTINUOUS
 62
3
100
AcDbCircle
 10
252.0233538354490
 20
633.7383802094762
 30
0.0000000000000000
 40
14.00000000060589
100
AcDbArc
 50
180.0000000000731
 51
262.7562169788795
  0
SPLINE
  5
1AE
100
AcDbEntity
  8
MAIN0
  6
CONTINUOUS
 62
3
100
AcDbSpline
210
0.0000000000000000
220
0.0000000000000000
230
1.000000000000000
 70
     8
 71
     3
 72
     9
 73
     5
 74
     0
 42
1.000000000000000e-007
 43
1.000000000000000e-007
 12
-0.01965458016553612
 22
2.001330367334390
 32
0.0000000000000000
 13
-0.2047758351204720
 23
1.990466680964687
 33
0.0000000000000000
 40
0.0000000000000000
 40
0.0000000000000000
 40
0.0000000000000000
 40
0.0000000000000000
 40
3.160005324631138
 40
5.454532755122612
 40
5.454532755122612
 40
5.454532755122612
 40
5.454532755122612
 10
250.2580752271454
 20
619.8501192869550
 30
0.0000000000000000
 10
250.2373723678199
 20
621.9581908259959
 30
0.0000000000000000
 10
250.2016368507195
 20
625.5969648401449
 30
0.0000000000000000
 10
249.8293180173451
 20
629.2159867432458
 30
0.0000000000000000
 10
249.6726967604166
 20
630.7383802095635
 30
0.0000000000000000
  0
ARC
  5
1AF
100
AcDbEntity
  8
MAIN0
  6
CONTINUOUS
 62
3
100
AcDbCircle
 10
241.0233538352561
 20
259.1709141580303
 30
0.0000000000000000
 40
8.000000000000000
100
AcDbArc
 50
180.0000000000000
 51
268.9999999999787
  0
ARC
  5
1B0
100
AcDbEntity
  8
MAIN0
  6
CONTINUOUS
 62
3
100
AcDbCircle
 10
241.0233538352560
 20
284.2011158715431
 30
0.0000000000000000
 40
8.000000000000000
100
AcDbArc
 50
90.99999999996513
 51
180.0000000000000
  0
ARC
  5
1B1
100
AcDbEntity
  8
MAIN0
  6
CENTER
 62
3
100
AcDbCircle
 10
715.4642069820925
 20
433.7383802091906
 30
0.0000000000000000
 40
110.0000000000000
100
AcDbArc
 50
341.2077292146228
 51
376.0926984375734
  0
ARC
  5
1B2
100
AcDbEntity
  8
MAIN0
  6
CENTER
 62
3
100
AcDbCircle
 10
715.4642069820925
 20
433.7383802091906
 30
0.0000000000000000
 40
110.0000000000000
100
AcDbArc
 50
266.9311749862429
 51
288.7922707852504
  0
ARC
  5
1B3
100
AcDbEntity
  8
MAIN0
  6
CONTINUOUS
 62
3
100
AcDbCircle
 10
337.0233538358075
 20
569.7383802095269
 30
0.0000000000000000
 40
4.000000000000000
100
AcDbArc
 50
0.0000000000000000
 51
90.00000000000000
  0
ARC
  5
1B4
100
AcDbEntity
  8
MAIN0
  6
CONTINUOUS
 62
3
100
AcDbCircle
 10
337.0233538358305
 20
297.8786300411300
 30
0.0000000000000000
 40
4.000000000000000
100
AcDbArc
 50
270.9999999999652
 51
360.0000000000000
  0
ARC
  5
1B5
100
AcDbEntity
  8
MAIN0
  6
CONTINUOUS
 62
3
100
AcDbCircle
 10
716.1278932804621
 20
687.7343015412472
 30
0.0000000000000000
 40
54.00000000000000
100
AcDbArc
 50
258.6106181090361
 51
269.2957892366048
  0
LINE
  5
1B6
100
AcDbEntity
  8
MAIN0
  6
CONTINUOUS
 62
3
100
AcDbLine
 10
190.0233538355908
 20
613.7383802090951
 30
0.0000000000000000
 11
211.4233538355912
 21
613.7383802091118
 31
0.0000000000000000
  0
LINE
  5
1B7
100
AcDbEntity
  8
MAIN0
  6
CONTINUOUS
 62
3
100
AcDbLine
 10
232.0233538355913
 20
613.7383802091280
 30
0.0000000000000000
 11
250.5082075627989
 21
613.7383802091425
 31
0.0000000000000000
  0
ARC
  5
1B8
100
AcDbEntity
  8
MAIN0
  6
CONTINUOUS
 62
3
100
AcDbCircle
 10
715.4642069820881
 20
429.7383802092822
 30
0.0000000000000000
 40
54.00000000000000
100
AcDbArc
 50
90.00000000000000
 51
100.6719292856989
  0
LINE
  5
1B9
100
AcDbEntity
  8
MAIN0
  6
CONTINUOUS
 62
3
100
AcDbLine
 10
666.3982103363035
 20
423.7383802092450
 30
0.0000000000000000
 11
646.3982103363209
 21
403.7383802092671
 31
0.0000000000000000
  0
ARC
  5
1BA
100
AcDbEntity
  8
MAIN0
  6
CONTINUOUS
 62
3
100
AcDbCircle
 10
719.4642069820009
 20
433.7383802091862
 30
0.0000000000000000
 40
54.00000000000000
100
AcDbArc
 50
179.9999999999999
 51
190.6719292856988
  0
ARC
  5
1BB
100
AcDbEntity
  8
MAIN0
  6
CONTINUOUS
 62
3
100
AcDbCircle
 10
461.4682856500359
 20
434.4020665075606
 30
0.0000000000000000
 40
54.00000000000000
100
AcDbArc
 50
348.6106181090360
 51
359.2957892366047
  0
LINE
  5
1BC
100
AcDbEntity
  8
MAIN0
  6
CONTINUOUS
 62
3
100
AcDbLine
 10
534.4049061931630
 20
403.7383802093911
 30
0.0000000000000000
 11
514.4049061932354
 21
423.7383802094133
 31
0.0000000000000000
  0
LINE
  5
1BD
100
AcDbEntity
  8
MAIN0
  6
CONTINUOUS
 62
3
100
AcDbLine
 10
705.4642069820384
 20
384.6723835634236
 30
0.0000000000000000
 11
685.4642069820163
 21
364.6723835634853
 31
0.0000000000000000
  0
ARC
  5
1BE
100
AcDbEntity
  8
MAIN0
  6
CONTINUOUS
 62
3
100
AcDbCircle
 10
715.4642069820969
 20
437.7383802090990
 30
0.0000000000000000
 40
54.00000000000000
100
AcDbArc
 50
259.3280707141745
 51
269.9999999998734
  0
ARC
  5
1BF
100
AcDbEntity
  8
MAIN0
  6
CONTINUOUS
 62
3
100
AcDbCircle
 10
716.1278932799010
 20
179.7424588771326
 30
0.0000000000000000
 40
54.00000000000000
100
AcDbArc
 50
90.70421076326865
 51
101.3893818908374
  0
LINE
  5
1C0
100
AcDbEntity
  8
MAIN0
  6
CONTINUOUS
 62
3
100
AcDbLine
 10
685.4642069818927
 20
252.6790794203274
 30
0.0000000000000000
 11
705.4642069818707
 21
232.6790794203557
 31
0.0000000000000000
  0
LINE
  5
1C1
100
AcDbEntity
  8
MAIN0
  6
CONTINUOUS
 62
3
100
AcDbLine
 10
666.3982103363256
 20
443.7383802092451
 30
0.0000000000000000
 11
646.3982103363874
 21
463.7383802092673
 31
0.0000000000000000
  0
ARC
  5
1C2
100
AcDbEntity
  8
MAIN0
  6
CONTINUOUS
 62
3
100
AcDbCircle
 10
719.4642069820009
 20
433.7383802091862
 30
0.0000000000000000
 40
54.00000000000000
100
AcDbArc
 50
169.3280707141741
 51
179.9999999998730
  0
ARC
  5
1C3
100
AcDbEntity
  8
MAIN0
  6
CONTINUOUS
 62
3
100
AcDbCircle
 10
461.4682856500344
 20
433.0746939113839
 30
0.0000000000000000
 40
54.00000000000000
100
AcDbArc
 50
0.7042107632682024
 51
11.38938189083691
  0
LINE
  5
1C4
100
AcDbEntity
  8
MAIN0
  6
CONTINUOUS
 62
3
100
AcDbLine
 10
534.4049061932295
 20
463.7383802093916
 30
0.0000000000000000
 11
514.4049061932576
 21
443.7383802094138
 31
0.0000000000000000
  0
LINE
  5
1C5
100
AcDbEntity
  8
MAIN0
  6
CONTINUOUS
 62
3
100
AcDbLine
 10
204.0233538358250
 20
383.7383802095923
 30
0.0000000000000000
 11
309.0233538358232
 21
383.7383802095406
 31
0.0000000000000000
  0
LINE
  5
1C6
100
AcDbEntity
  8
MAIN0
  6
CONTINUOUS
 62
3
100
AcDbLine
 10
211.4233538358166
 20
463.7383802095886
 30
0.0000000000000000
 11
211.4233538358178
 21
449.7383802094099
 31
0.0000000000000000
  0
LINE
  5
1C7
100
AcDbEntity
  8
MAIN0
  6
CONTINUOUS
 62
3
100
AcDbLine
 10
232.0233538358167
 20
463.7383802095785
 30
0.0000000000000000
 11
232.0233538358177
 21
451.7383802095785
 31
0.0000000000000000
  0
LINE
  5
1C8
100
AcDbEntity
  8
MAIN0
  6
CONTINUOUS
 62
3
100
AcDbLine
 10
253.0233538358168
 20
463.7383802095682
 30
0.0000000000000000
 11
253.0233538358176
 21
452.7909390928195
 31
0.0000000000000000
  0
LINE
  5
1C9
100
AcDbEntity
  8
MAIN0
  6
CONTINUOUS
 62
3
100
AcDbLine
 10
211.4233538358175
 20
451.7383802095886
 30
0.0000000000000000
 11
232.0233538358177
 21
451.7383802095785
 31
0.0000000000000000
  0
LINE
  5
1CA
100
AcDbEntity
  8
MAIN0
  6
CONTINUOUS
 62
3
100
AcDbLine
 10
201.0233538358168
 20
463.7383802095937
 30
0.0000000000000000
 11
211.4233538358164
 21
463.7383802095886
 31
0.0000000000000000
  0
LINE
  5
1CB
100
AcDbEntity
  8
MAIN0
  6
CONTINUOUS
 62
3
100
AcDbLine
 10
232.0233538358165
 20
463.7383802095785
 30
0.0000000000000000
 11
253.0233538358166
 21
463.7383802095682
 31
0.0000000000000000
  0
LINE
  5
1CC
100
AcDbEntity
  8
MAIN0
  6
CONTINUOUS
 62
3
100
AcDbLine
 10
211.4233538357870
 20
403.7383802095886
 30
0.0000000000000000
 11
211.4233538357998
 21
415.7383802095886
 31
0.0000000000000000
  0
LINE
  5
1CD
100
AcDbEntity
  8
MAIN0
  6
CONTINUOUS
 62
3
100
AcDbLine
 10
232.0233538357871
 20
403.7383802095785
 30
0.0000000000000000
 11
232.0233538358000
 21
415.7383802095785
 31
0.0000000000000000
  0
LINE
  5
1CE
100
AcDbEntity
  8
MAIN0
  6
CONTINUOUS
 62
3
100
AcDbLine
 10
211.4233538357998
 20
415.7383802095886
 30
0.0000000000000000
 11
232.0233538357999
 21
415.7383802095785
 31
0.0000000000000000
  0
LINE
  5
1CF
100
AcDbEntity
  8
MAIN0
  6
CONTINUOUS
 62
3
100
AcDbLine
 10
201.0233538357872
 20
403.7383802095937
 30
0.0000000000000000
 11
211.4233538357868
 21
403.7383802095886
 31
0.0000000000000000
  0
LINE
  5
1D0
100
AcDbEntity
  8
MAIN0
  6
CONTINUOUS
 62
3
100
AcDbLine
 10
232.0233538357870
 20
403.7383802095785
 30
0.0000000000000000
 11
253.0233538357871
 21
403.7383802095682
 31
0.0000000000000000
  0
LINE
  5
1D1
100
AcDbEntity
  8
MAIN0
  6
CONTINUOUS
 62
3
100
AcDbLine
 10
253.0233538357872
 20
403.7383802095682
 30
0.0000000000000000
 11
253.0233538357988
 21
414.6858213263167
 31
0.0000000000000000
  0
ARC
  5
1D2
100
AcDbEntity
  8
MAIN0
  6
CONTINUOUS
 62
3
100
AcDbCircle
 10
204.0233538358236
 20
380.7383802095923
 30
0.0000000000000000
 40
3.000000000000000
100
AcDbArc
 50
89.99999999997181
 51
179.9999999999718
  0
ARC
  5
1D3
100
AcDbEntity
  8
MAIN0
  6
HIDDEN
 62
3
100
AcDbCircle
 10
204.0233538358146
 20
486.7383802095923
 30
0.0000000000000000
 40
3.000000000000000
100
AcDbArc
 50
179.9999999999718
 51
269.9999999999718
  0
LINE
  5
1D4
100
AcDbEntity
  8
MAIN0
  6
CONTINUOUS
 62
3
100
AcDbLine
 10
211.4233538355458
 20
628.0959797720673
 30
0.0000000000000000
 11
211.4233538355092
 21
489.3807806473030
 31
0.0000000000000000
  0
LINE
  5
1D5
100
AcDbEntity
  8
MAIN0
  6
CONTINUOUS
 62
3
100
AcDbLine
 10
232.0233538355516
 20
601.0637236210315
 30
0.0000000000000000
 11
232.0233538355212
 21
489.3807806473120
 31
0.0000000000000000
  0
LINE
  5
1D6
100
AcDbEntity
  8
MAIN0
  6
CONTINUOUS
 62
3
100
AcDbLine
 10
286.0233538357909
 20
633.7383802095519
 30
0.0000000000000000
 11
286.0233538357586
 21
565.7383802095519
 31
0.0000000000000000
  0
ARC
  5
1D7
100
AcDbEntity
  8
MAIN0
  6
HIDDEN
 62
3
100
AcDbCircle
 10
204.0233538358025
 20
630.7383802095923
 30
0.0000000000000000
 40
3.000000000000000
100
AcDbArc
 50
89.99999999997181
 51
179.9999999999718
  0
LINE
  5
1D8
100
AcDbEntity
  8
MAIN0
  6
CONTINUOUS
 62
3
100
AcDbLine
 10
204.0233538356073
 20
233.7383802095923
 30
0.0000000000000000
 11
320.0233538356056
 21
233.7383802095352
 31
0.0000000000000000
  0
ARC
  5
1D9
100
AcDbEntity
  8
MAIN0
  6
CONTINUOUS
 62
3
100
AcDbCircle
 10
204.0233538356088
 20
236.7383802095923
 30
0.0000000000000000
 40
3.000000000000000
100
AcDbArc
 50
179.9999999999718
 51
269.9999999999718
  0
LINE
  5
1DA
100
AcDbEntity
  8
MAIN0
  6
CENTER
 62
3
100
AcDbLine
 10
132.9721775135242
 20
433.7383802096272
 30
0.0000000000000000
 11
350.4695750570306
 21
433.7383802095202
 31
0.0000000000000000
  0
LINE
  5
1DB
100
AcDbEntity
  8
MAIN0
  6
CENTER
 62
3
100
AcDbLine
 10
933.3288351446612
 20
433.7383802089491
 30
0.0000000000000000
 11
499.7459142092957
 21
433.7383802094298
 31
0.0000000000000000
  0
LINE
  5
1DC
100
AcDbEntity
  8
MAIN0
  6
HIDDEN
 62
3
100
AcDbLine
 10
201.0233538358027
 20
630.7383802095919
 30
0.0000000000000000
 11
201.0233538358150
 21
483.7383802095937
 31
0.0000000000000000
  0
LINE
  5
1DD
100
AcDbEntity
  8
MAIN0
  6
CONTINUOUS
 62
3
100
AcDbLine
 10
201.0233538358149
 20
483.7383802095937
 30
0.0000000000000000
 11
201.0233538358166
 21
463.7383802095937
 31
0.0000000000000000
  0
LINE
  5
1DE
100
AcDbEntity
  8
MAIN0
  6
CENTER
 62
3
100
AcDbLine
 10
193.2539955686936
 20
253.7383802095976
 30
0.0000000000000000
 11
207.8725759727413
 21
253.7383802095904
 31
0.0000000000000000
  0
LINE
  5
1DF
100
AcDbEntity
  8
MAIN0
  6
CENTER
 62
3
100
AcDbLine
 10
193.2539955687034
 20
273.7383802095976
 30
0.0000000000000000
 11
207.8725759727512
 21
273.7383802095904
 31
0.0000000000000000
  0
LINE
  5
1E0
100
AcDbEntity
  8
MAIN0
  6
CENTER
 62
3
100
AcDbLine
 10
193.2539955687133
 20
293.7383802095976
 30
0.0000000000000000
 11
207.8725759727610
 21
293.7383802095904
 31
0.0000000000000000
  0
LINE
  5
1E1
100
AcDbEntity
  8
MAIN0
  6
CENTER
 62
3
100
AcDbLine
 10
193.2539955687231
 20
313.7383802095976
 30
0.0000000000000000
 11
207.8725759727709
 21
313.7383802095903
 31
0.0000000000000000
  0
LINE
  5
1E2
100
AcDbEntity
  8
MAIN0
  6
CENTER
 62
3
100
AcDbLine
 10
193.2539955687329
 20
333.7383802095976
 30
0.0000000000000000
 11
207.8725759727807
 21
333.7383802095903
 31
0.0000000000000000
  0
LINE
  5
1E3
100
AcDbEntity
  8
MAIN0
  6
CENTER
 62
3
100
AcDbLine
 10
193.2539955687428
 20
353.7383802095976
 30
0.0000000000000000
 11
207.8725759727906
 21
353.7383802095903
 31
0.0000000000000000
  0
LINE
  5
1E4
100
AcDbEntity
  8
MAIN0
  6
CONTINUOUS
 62
3
100
AcDbLine
 10
201.0233538358216
 20
403.7383802095937
 30
0.0000000000000000
 11
201.0233538358257
 21
354.2383802101200
 31
0.0000000000000000
  0
LINE
  5
1E5
100
AcDbEntity
  8
MAIN0
  6
CONTINUOUS
 62
3
100
AcDbLine
 10
201.0233538358259
 20
353.2383802096334
 30
0.0000000000000000
 11
201.0233538358274
 21
334.2383802101200
 31
0.0000000000000000
  0
LINE
  5
1E6
100
AcDbEntity
  8
MAIN0
  6
CONTINUOUS
 62
3
100
AcDbLine
 10
201.0233538358276
 20
333.2383802096334
 30
0.0000000000000000
 11
201.0233538358291
 21
314.2383802101200
 31
0.0000000000000000
  0
LINE
  5
1E7
100
AcDbEntity
  8
MAIN0
  6
CONTINUOUS
 62
3
100
AcDbLine
 10
201.0233538358291
 20
313.2383802096334
 30
0.0000000000000000
 11
201.0233538358306
 21
294.2383802101200
 31
0.0000000000000000
  0
LINE
  5
1E8
100
AcDbEntity
  8
MAIN0
  6
CONTINUOUS
 62
3
100
AcDbLine
 10
201.0233538358309
 20
293.2383802096667
 30
0.0000000000000000
 11
201.0233538358324
 21
274.2383802100866
 31
0.0000000000000000
  0
LINE
  5
1E9
100
AcDbEntity
  8
MAIN0
  6
CONTINUOUS
 62
3
100
AcDbLine
 10
201.0233538358343
 20
253.2383802096334
 30
0.0000000000000000
 11
201.0233538358357
 21
236.7383802095937
 31
0.0000000000000000
  0
LINE
  5
1EA
100
AcDbEntity
  8
MAIN0
  6
CONTINUOUS
 62
3
100
AcDbLine
 10
201.0233538358326
 20
273.2383802096667
 30
0.0000000000000000
 11
201.0233538358343
 21
254.2383802101200
 31
0.0000000000000000
  0
LINE
  5
1EB
100
AcDbEntity
  8
MAIN0
  6
CONTINUOUS
 62
3
100
AcDbLine
 10
517.7270076492073
 20
403.7383802094092
 30
0.0000000000000000
 11
675.4642069820593
 21
403.7383802092348
 31
0.0000000000000000
  0
LINE
  5
1EC
100
AcDbEntity
  8
MAIN0
  6
CONTINUOUS
 62
3
100
AcDbLine
 10
517.7270076492737
 20
463.7383802094092
 30
0.0000000000000000
 11
675.4642069821257
 21
463.7383802092348
 31
0.0000000000000000
  0
LINE
  5
1ED
100
AcDbEntity
  8
MAIN0
  6
CONTINUOUS
 62
3
100
AcDbLine
 10
685.4642069821367
 20
473.7383802092238
 30
0.0000000000000000
 11
685.4642069823112
 21
631.4755795420756
 31
0.0000000000000000
  0
LINE
  5
1EE
100
AcDbEntity
  8
MAIN0
  6
CONTINUOUS
 62
3
100
AcDbLine
 10
685.4642069818738
 20
236.0011808763719
 30
0.0000000000000000
 11
685.4642069820483
 21
393.7383802092238
 31
0.0000000000000000
  0
LINE
  5
1EF
100
AcDbEntity
  8
MAIN0
  6
CENTER
 62
3
100
AcDbLine
 10
707.5059310907083
 20
425.7801043178241
 30
0.0000000000000000
 11
863.1343981234459
 21
581.4085713502176
 31
0.0000000000000000
  0
ARC
  5
1F0
100
AcDbEntity
  8
MAIN0
  6
CONTINUOUS
 62
3
100
AcDbCircle
 10
715.4642069820925
 20
433.7383802091906
 30
0.0000000000000000
 40
180.0000000000000
100
AcDbArc
 50
189.5940682267971
 51
260.4059317730761
  0
ARC
  5
1F1
100
AcDbEntity
  8
MAIN0
  6
CONTINUOUS
 62
3
100
AcDbCircle
 10
715.4642069820925
 20
433.7383802091906
 30
0.0000000000000000
 40
180.0000000000000
100
AcDbArc
 50
99.59406822679713
 51
170.4059317730761
  0
ARC
  5
1F2
100
AcDbEntity
  8
MAIN0
  6
CONTINUOUS
 62
3
100
AcDbCircle
 10
715.4642069820925
 20
433.7383802091906
 30
0.0000000000000000
 40
80.00000000000000
100
AcDbArc
 50
202.0243128369788
 51
247.9756871628945
  0
ARC
  5
1F3
100
AcDbEntity
  8
MAIN0
  6
CONTINUOUS
 62
3
100
AcDbCircle
 10
715.4642069820925
 20
433.7383802091906
 30
0.0000000000000000
 40
80.00000000000000
100
AcDbArc
 50
112.0243128369788
 51
157.9756871628945
  0
LINE
  5
1F4
100
AcDbEntity
  8
MAIN0
  6
CENTER
 62
3
100
AcDbLine
 10
705.8052064447066
 20
443.3973807465977
 30
0.0000000000000000
 11
865.0420446572848
 21
284.1605425336674
 31
0.0000000000000000
  0
ARC
  5
1F5
100
AcDbEntity
  8
MAIN0
  6
CONTINUOUS
 62
3
100
AcDbCircle
 10
715.4642069820925
 20
433.7383802091906
 30
0.0000000000000000
 40
160.0000000000000
100
AcDbArc
 50
190.8069228747970
 51
259.1930771251271
  0
ARC
  5
1F6
100
AcDbEntity
  8
MAIN0
  6
CONTINUOUS
 62
3
100
AcDbCircle
 10
715.4642069820925
 20
433.7383802091906
 30
0.0000000000000000
 40
140.0000000000000
100
AcDbArc
 50
192.3736251161252
 51
257.6263748838016
  0
ARC
  5
1F7
100
AcDbEntity
  8
MAIN0
  6
CONTINUOUS
 62
3
100
AcDbCircle
 10
715.4642069820925
 20
433.7383802091906
 30
0.0000000000000000
 40
140.0000000000000
100
AcDbArc
 50
102.3736251161252
 51
167.6263748837481
  0
ARC
  5
1F8
100
AcDbEntity
  8
MAIN0
  6
CONTINUOUS
 62
3
100
AcDbCircle
 10
715.4642069820925
 20
433.7383802091906
 30
0.0000000000000000
 40
160.0000000000000
100
AcDbArc
 50
100.8069228747969
 51
169.1930771250763
  0
ARC
  5
1F9
100
AcDbEntity
  8
MAIN0
  6
CONTINUOUS
 62
3
100
AcDbCircle
 10
715.4642069820925
 20
433.7383802091906
 30
0.0000000000000000
 40
200.0000000000000
100
AcDbArc
 50
269.9999999999366
 51
449.9999999998959
  0
LINE
  5
1FA
100
AcDbEntity
  8
MAIN0
  6
CONTINUOUS
 62
3
100
AcDbLine
 10
141.4233538240062
 20
463.7383802100370
 30
0.0000000000000000
 11
88.50930178164981
 21
463.7383802100630
 31
0.0000000000000000
  0
LINE
  5
1FB
100
AcDbEntity
  8
MAIN0
  6
CONTINUOUS
 62
3
100
AcDbLine
 10
90.50930178164981
 20
463.7383802100621
 30
0.0000000000000000
 11
90.50930178162025
 21
403.7383802100620
 31
0.0000000000000000
  0
LINE
  5
1FC
100
AcDbEntity
  8
MAIN0
  6
CONTINUOUS
 62
3
100
AcDbLine
 10
91.70930182933155
 20
459.7383802100615
 30
0.0000000000000000
 11
90.50930178164981
 21
463.7383802100621
 31
0.0000000000000000
  0
LINE
  5
1FD
100
AcDbEntity
  8
MAIN0
  6
CONTINUOUS
 62
3
100
AcDbLine
 10
90.50930178164981
 20
463.7383802100621
 30
0.0000000000000000
 11
89.30930173396412
 21
459.7383802100626
 31
0.0000000000000000
  0
LINE
  5
1FE
100
AcDbEntity
  8
MAIN0
  6
CONTINUOUS
 62
3
100
AcDbLine
 10
91.70930182930594
 20
407.7383802100615
 30
0.0000000000000000
 11
90.50930178162025
 21
403.7383802100620
 31
0.0000000000000000
  0
LINE
  5
1FF
100
AcDbEntity
  8
MAIN0
  6
CONTINUOUS
 62
3
100
AcDbLine
 10
90.50930178162025
 20
403.7383802100620
 30
0.0000000000000000
 11
89.30930173393851
 21
407.7383802100626
 31
0.0000000000000000
  0
MTEXT
  5
200
100
AcDbEntity
  8
MAIN0
  6
CONTINUOUS
 62
3
100
AcDbMText
 10
89.50930178163503
 20
433.7383802100625
 30
0.0000000000000000
 40
6.199999809265137
 41
0.0000000000000000
 71
     8
 72
     1
  1
{\H0.69x;{30}}
 11
6.123233995736766e-017
 21
1.000000000000000
 31
0.0000000000000000
  7
STANDARD
  0
LINE
  5
201
100
AcDbEntity
  8
MAIN0
  6
CONTINUOUS
 62
3
100
AcDbLine
 10
141.4233538237902
 20
403.7383802100370
 30
0.0000000000000000
 11
88.50930178162025
 21
403.7383802100630
 31
0.0000000000000000
  0
LINE
  5
202
100
AcDbEntity
  8
MAIN0
  6
CONTINUOUS
 62
3
100
AcDbLine
 10
141.0233538357190
 20
404.1383801981203
 30
0.0000000000000000
 11
141.0233538358864
 21
368.2407487206792
 31
0.0000000000000000
  0
LINE
  5
203
100
AcDbEntity
  8
MAIN0
  6
CONTINUOUS
 62
3
100
AcDbLine
 10
141.0233538358772
 20
370.2407487206792
 30
0.0000000000000000
 11
201.0233538358052
 21
370.2407487206497
 31
0.0000000000000000
  0
LINE
  5
204
100
AcDbEntity
  8
MAIN0
  6
CONTINUOUS
 62
3
100
AcDbLine
 10
145.0233538358778
 20
371.4407487683609
 30
0.0000000000000000
 11
141.0233538358772
 21
370.2407487206792
 31
0.0000000000000000
  0
LINE
  5
205
100
AcDbEntity
  8
MAIN0
  6
CONTINUOUS
 62
3
100
AcDbLine
 10
141.0233538358772
 20
370.2407487206792
 30
0.0000000000000000
 11
145.0233538358766
 21
369.0407486729935
 31
0.0000000000000000
  0
LINE
  5
206
100
AcDbEntity
  8
MAIN0
  6
CONTINUOUS
 62
3
100
AcDbLine
 10
197.0233538358058
 20
371.4407487683354
 30
0.0000000000000000
 11
201.0233538358052
 21
370.2407487206497
 31
0.0000000000000000
  0
LINE
  5
207
100
AcDbEntity
  8
MAIN0
  6
CONTINUOUS
 62
3
100
AcDbLine
 10
201.0233538358052
 20
370.2407487206497
 30
0.0000000000000000
 11
197.0233538358046
 21
369.0407486729679
 31
0.0000000000000000
  0
MTEXT
  5
208
100
AcDbEntity
  8
MAIN0
  6
CONTINUOUS
 62
3
100
AcDbMText
 10
171.0233538358417
 20
371.2407487206644
 30
0.0000000000000000
 40
6.199999809265137
 41
0.0000000000000000
 71
     8
 72
     1
  1
{\H0.69x;{30}}
 11
1.000000000000000
 21
0.0000000000000000
 31
0.0000000000000000
  7
STANDARD
  0
MTEXT
  5
209
100
AcDbEntity
  8
MAIN0
  6
CONTINUOUS
 62
3
100
AcDbMText
 10
287.9866076334438
 20
646.7512825367214
 30
0.0000000000000000
 40
6.199999809265137
 41
0.0000000000000000
 71
     1
 72
     1
  1
{\H0.70x;{左角ネジ}}
 11
1.000000000000000
 21
-4.922957738736989e-013
 31
0.0000000000000000
  7
KNJYOKO
  0
LINE
  5
20A
100
AcDbEntity
  8
MAIN0
  6
CENTER
 62
3
100
AcDbLine
 10
244.8315936727776
 20
724.0184489603735
 30
0.0000000000000000
 11
280.8048566515960
 21
724.0184489603593
 31
0.0000000000000000
  0
LINE
  5
20B
100
AcDbEntity
  8
MAIN0
  6
CONTINUOUS
 62
3
100
AcDbLine
 10
261.6427017813934
 20
712.2569653891546
 30
0.0000000000000000
 11
252.2618702645775
 21
721.6377969059938
 31
0.0000000000000000
  0
LINE
  5
20C
100
AcDbEntity
  8
MAIN0
  6
CONTINUOUS
 62
3
100
AcDbLine
 10
275.7848374079612
 20
726.3991010100488
 30
0.0000000000000000
 11
266.4040058855066
 21
735.7799325325267
 31
0.0000000000000000
  0
LINE
  5
20D
100
AcDbEntity
  8
MAIN0
  6
CONTINUOUS
 62
3
100
AcDbLine
 10
261.6427017908017
 20
735.7799325334815
 30
0.0000000000000000
 11
252.2618702626850
 21
726.3991010053881
 31
0.0000000000000000
  0
LINE
  5
20E
100
AcDbEntity
  8
MAIN0
  6
CONTINUOUS
 62
3
100
AcDbLine
 10
275.7848374102070
 20
721.6377969054252
 30
0.0000000000000000
 11
266.4040058907469
 21
712.2569653859882
 31
0.0000000000000000
  0
LINE
  5
20F
100
AcDbEntity
  8
MAIN0
  6
CENTER
 62
3
100
AcDbLine
 10
852.9377073152691
 20
668.7746331170339
 30
0.0000000000000000
 11
1122.317168771759
 21
668.7746331169940
 31
0.0000000000000000
  0
LINE
  5
210
100
AcDbEntity
  8
MAIN0
  6
CONTINUOUS
 62
3
100
AcDbLine
 10
974.3104596315300
 20
692.7746331170163
 30
0.0000000000000000
 11
1006.310459631530
 21
692.7746331170112
 31
0.0000000000000000
  0
LINE
  5
211
100
AcDbEntity
  8
MAIN0
  6
CONTINUOUS
 62
3
100
AcDbLine
 10
978.6104596310872
 20
432.7746331170154
 30
0.0000000000000000
 11
1002.010459631735
 21
432.7746331170119
 31
0.0000000000000000
  0
ARC
  5
212
100
AcDbEntity
  8
MAIN0
  6
CONTINUOUS
 62
3
100
AcDbCircle
 10
1100.310459631516
 20
668.7746331169853
 30
0.0000000000000000
 40
10.00000000000009
100
AcDbArc
 50
270.0000000000000
 51
450.0000000000000
  0
LINE
  5
213
100
AcDbEntity
  8
MAIN0
  6
CONTINUOUS
 62
3
100
AcDbLine
 10
1005.310459631502
 20
630.7746331170101
 30
0.0000000000000000
 11
1005.310459631436
 21
486.7746331170114
 31
0.0000000000000000
  0
LINE
  5
214
100
AcDbEntity
  8
MAIN0
  6
CONTINUOUS
 62
3
100
AcDbLine
 10
991.3977995082682
 20
458.7746331170134
 30
0.0000000000000000
 11
1003.410459631731
 21
458.7746331170117
 31
0.0000000000000000
  0
LINE
  5
215
100
AcDbEntity
  8
MAIN0
  6
CONTINUOUS
 62
3
100
AcDbLine
 10
975.3104596314358
 20
486.7746331170159
 30
0.0000000000000000
 11
1005.310459631436
 21
486.7746331170114
 31
0.0000000000000000
  0
LINE
  5
216
100
AcDbEntity
  8
MAIN0
  6
CONTINUOUS
 62
3
100
AcDbLine
 10
971.3104596315070
 20
642.7746331170166
 30
0.0000000000000000
 11
1009.310459631507
 21
642.7746331170106
 31
0.0000000000000000
  0
LINE
  5
217
100
AcDbEntity
  8
MAIN0
  6
CENTER
 62
3
100
AcDbLine
 10
963.4798343493072
 20
343.4545754415456
 30
0.0000000000000000
 11
1021.968855932979
 21
343.4545754415536
 31
0.0000000000000000
  0
LINE
  5
218
100
AcDbEntity
  8
MAIN0
  6
CONTINUOUS
 62
3
100
AcDbLine
 10
978.5489760596444
 20
345.8352274934076
 30
0.0000000000000000
 11
987.9298075794743
 21
355.2160590132679
 31
0.0000000000000000
  0
LINE
  5
219
100
AcDbEntity
  8
MAIN0
  6
CONTINUOUS
 62
3
100
AcDbLine
 10
992.6911116835964
 20
331.6930918698978
 30
0.0000000000000000
 11
1002.071943203030
 21
341.0739233893614
 31
0.0000000000000000
  0
LINE
  5
21A
100
AcDbEntity
  8
MAIN0
  6
CONTINUOUS
 62
3
100
AcDbLine
 10
987.9298075795119
 20
331.6930918698233
 30
0.0000000000000000
 11
978.5489760596520
 21
341.0739233896529
 31
0.0000000000000000
  0
LINE
  5
21B
100
AcDbEntity
  8
MAIN0
  6
CONTINUOUS
 62
3
100
AcDbLine
 10
1002.071943203022
 20
345.8352274937752
 30
0.0000000000000000
 11
992.6911116835582
 21
355.2160590132088
 31
0.0000000000000000
  0
LINE
  5
21C
100
AcDbEntity
  8
MAIN0
  6
CONTINUOUS
 62
3
100
AcDbLine
 10
1003.410459631730
 20
466.2118229414178
 30
0.0000000000000000
 11
1003.410459631735
 21
434.1746331170117
 31
0.0000000000000000
  0
LINE
  5
21D
100
AcDbEntity
  8
MAIN0
  6
CONTINUOUS
 62
3
100
AcDbLine
 10
1003.365255378615
 20
458.7746331170117
 30
0.0000000000000000
 11
1003.365255378607
 21
434.1746331170117
 31
0.0000000000000000
  0
LINE
  5
21E
100
AcDbEntity
  8
MAIN0
  6
CONTINUOUS
 62
3
100
AcDbLine
 10
991.3977995082682
 20
458.7746331170134
 30
0.0000000000000000
 11
991.3977995082889
 21
434.1746331170016
 31
0.0000000000000000
  0
LINE
  5
21F
100
AcDbEntity
  8
MAIN0
  6
CONTINUOUS
 62
3
100
AcDbLine
 10
1003.410459631735
 20
434.1746331170117
 30
0.0000000000000000
 11
1002.010459631735
 21
432.7746331170118
 31
0.0000000000000000
  0
LINE
  5
220
100
AcDbEntity
  8
MAIN0
  6
CONTINUOUS
 62
3
100
AcDbLine
 10
977.2104596310892
 20
434.1746331170080
 30
0.0000000000000000
 11
1003.410459631735
 21
434.1746331170076
 31
0.0000000000000000
  0
LINE
  5
221
100
AcDbEntity
  8
MAIN0
  6
CONTINUOUS
 62
3
100
AcDbLine
 10
1003.365255378615
 20
458.7746331170117
 30
0.0000000000000000
 11
991.3977995082889
 21
434.1746331170016
 31
0.0000000000000000
  0
LINE
  5
222
100
AcDbEntity
  8
MAIN0
  6
CONTINUOUS
 62
3
100
AcDbLine
 10
991.3977995082682
 20
458.7746331170134
 30
0.0000000000000000
 11
1003.365255378607
 21
434.1746331170117
 31
0.0000000000000000
  0
LINE
  5
223
100
AcDbEntity
  8
MAIN0
  6
CONTINUOUS
 62
3
100
AcDbLine
 10
989.2231197545779
 20
458.7746331170145
 30
0.0000000000000000
 11
977.2104596311156
 21
458.7746331170237
 31
0.0000000000000000
  0
LINE
  5
224
100
AcDbEntity
  8
MAIN0
  6
CONTINUOUS
 62
3
100
AcDbLine
 10
977.2556638842307
 20
458.7746331170235
 30
0.0000000000000000
 11
989.2231197545347
 21
434.1746331170025
 31
0.0000000000000000
  0
LINE
  5
225
100
AcDbEntity
  8
MAIN0
  6
CONTINUOUS
 62
3
100
AcDbLine
 10
977.2556638842307
 20
458.7746331170235
 30
0.0000000000000000
 11
977.2556638842166
 21
434.1746331170236
 31
0.0000000000000000
  0
LINE
  5
226
100
AcDbEntity
  8
MAIN0
  6
CONTINUOUS
 62
3
100
AcDbLine
 10
989.2231197545777
 20
458.7746331170144
 30
0.0000000000000000
 11
977.2556638842166
 21
434.1746331170236
 31
0.0000000000000000
  0
LINE
  5
227
100
AcDbEntity
  8
MAIN0
  6
CONTINUOUS
 62
3
100
AcDbLine
 10
989.2231197545779
 20
458.7746331170145
 30
0.0000000000000000
 11
989.2231197545348
 21
434.1746331170026
 31
0.0000000000000000
  0
LINE
  5
228
100
AcDbEntity
  8
MAIN0
  6
CONTINUOUS
 62
3
100
AcDbLine
 10
1006.310459631530
 20
692.7746331170110
 30
0.0000000000000000
 11
1009.310459631529
 21
689.7746331170115
 31
0.0000000000000000
  0
LINE
  5
229
100
AcDbEntity
  8
MAIN0
  6
CONTINUOUS
 62
3
100
AcDbLine
 10
971.3104596315284
 20
689.7746331170209
 30
0.0000000000000000
 11
1009.310459631529
 21
689.7746331170044
 31
0.0000000000000000
  0
LINE
  5
22A
100
AcDbEntity
  8
MAIN0
  6
CONTINUOUS
 62
3
100
AcDbLine
 10
975.3104596315017
 20
630.7746331170147
 30
0.0000000000000000
 11
975.3104596314358
 21
486.7746331170251
 31
0.0000000000000000
  0
LINE
  5
22B
100
AcDbEntity
  8
MAIN0
  6
CONTINUOUS
 62
3
100
AcDbLine
 10
977.2104596311219
 20
464.7746331170264
 30
0.0000000000000000
 11
977.2104596310891
 21
434.1746331170236
 31
0.0000000000000000
  0
LINE
  5
22C
100
AcDbEntity
  8
MAIN0
  6
CONTINUOUS
 62
3
100
AcDbLine
 10
977.2556638842307
 20
458.7746331170235
 30
0.0000000000000000
 11
977.2556638842166
 21
434.1746331170236
 31
0.0000000000000000
  0
LINE
  5
22D
100
AcDbEntity
  8
MAIN0
  6
CONTINUOUS
 62
3
100
AcDbLine
 10
977.2104596310891
 20
434.1746331170236
 30
0.0000000000000000
 11
978.6104596310872
 21
432.7746331170225
 31
0.0000000000000000
  0
LINE
  5
22E
100
AcDbEntity
  8
MAIN0
  6
CONTINUOUS
 62
3
100
AcDbLine
 10
974.3104596315300
 20
692.7746331170267
 30
0.0000000000000000
 11
971.3104596315285
 21
689.7746331170298
 31
0.0000000000000000
  0
ARC
  5
22F
100
AcDbEntity
  8
MAIN0
  6
CONTINUOUS
 62
3
100
AcDbCircle
 10
880.3104596315225
 20
668.7746331170858
 30
0.0000000000000000
 40
10.00000000000009
100
AcDbArc
 50
89.99999999994769
 51
269.9999999999477
  0
ARC
  5
230
100
AcDbEntity
  8
MAIN0
  6
CONTINUOUS
 62
3
100
AcDbCircle
 10
1024.840809134543
 20
668.7746331170034
 30
0.0000000000000000
 40
18.47137665920091
100
AcDbArc
 50
147.2224941279079
 51
212.7775058720398
  0
LINE
  5
231
100
AcDbEntity
  8
MAIN0
  6
CONTINUOUS
 62
3
100
AcDbLine
 10
1009.310459631515
 20
658.7746331170105
 30
0.0000000000000000
 11
1009.310459631507
 21
642.7746331170107
 31
0.0000000000000000
  0
LINE
  5
232
100
AcDbEntity
  8
MAIN0
  6
CONTINUOUS
 62
3
100
AcDbLine
 10
1009.310459631529
 20
689.7746331170115
 30
0.0000000000000000
 11
1009.310459631524
 21
678.7746331170105
 31
0.0000000000000000
  0
ARC
  5
233
100
AcDbEntity
  8
MAIN0
  6
CONTINUOUS
 62
3
100
AcDbCircle
 10
955.7801101284952
 20
668.7746331170358
 30
0.0000000000000000
 40
18.47137665920091
100
AcDbArc
 50
327.2224941279079
 51
392.7775058720397
  0
LINE
  5
234
100
AcDbEntity
  8
MAIN0
  6
CONTINUOUS
 62
3
100
AcDbLine
 10
971.3104596315143
 20
658.7746331170165
 30
0.0000000000000000
 11
971.3104596315070
 21
642.7746331170290
 31
0.0000000000000000
  0
LINE
  5
235
100
AcDbEntity
  8
MAIN0
  6
CONTINUOUS
 62
3
100
AcDbLine
 10
971.3104596315286
 20
689.7746331170298
 30
0.0000000000000000
 11
971.3104596315235
 21
678.7746331170165
 31
0.0000000000000000
  0
LINE
  5
236
100
AcDbEntity
  8
MAIN0
  6
HIDDEN
 62
3
100
AcDbLine
 10
1009.310459631524
 20
678.7746331170106
 30
0.0000000000000000
 11
971.3104596315235
 21
678.7746331170165
 31
0.0000000000000000
  0
LINE
  5
237
100
AcDbEntity
  8
MAIN0
  6
HIDDEN
 62
3
100
AcDbLine
 10
1009.310459631515
 20
658.7746331170105
 30
0.0000000000000000
 11
971.3104596315144
 21
658.7746331170165
 31
0.0000000000000000
  0
SPLINE
  5
238
100
AcDbEntity
  8
MAIN0
  6
CONTINUOUS
 62
3
100
AcDbSpline
210
0.0000000000000000
220
0.0000000000000000
230
1.000000000000000
 70
     8
 71
     3
 72
    10
 73
     6
 74
     0
 42
1.000000000000000e-007
 43
1.000000000000000e-007
 12
-0.9844167155007426
 22
-1.933153828607942
 32
0.0000000000000000
 13
-1.750928691090735
 23
-1.570046551804353
 33
0.0000000000000000
 40
0.0000000000000000
 40
0.0000000000000000
 40
0.0000000000000000
 40
0.0000000000000000
 40
2.901395039870598
 40
8.030779914829161
 40
11.31356776259679
 40
11.31356776259679
 40
11.31356776259679
 40
11.31356776259679
 10
925.0720083898676
 20
678.7746331170231
 30
0.0000000000000000
 10
924.1199477980277
 20
676.9050188071465
 30
0.0000000000000000
 10
921.4847364691392
 20
671.7301078274595
 30
0.0000000000000000
 10
930.9145794927329
 20
664.8951772894209
 30
0.0000000000000000
 10
926.0048746345219
 20
660.4926763639210
 30
0.0000000000000000
 10
924.0888988247151
 20
658.7746331170233
 30
0.0000000000000000
  0
SPLINE
  5
239
100
AcDbEntity
  8
MAIN0
  6
CONTINUOUS
 62
3
100
AcDbSpline
210
0.0000000000000000
220
0.0000000000000000
230
1.000000000000000
 70
     8
 71
     3
 72
    10
 73
     6
 74
     0
 42
1.000000000000000e-007
 43
1.000000000000000e-007
 12
-1.440465830314906
 22
-1.715855479461425
 32
0.0000000000000000
 13
-1.571129881198544
 23
-1.668686124498890
 33
0.0000000000000000
 40
0.0000000000000000
 40
0.0000000000000000
 40
0.0000000000000000
 40
0.0000000000000000
 40
2.642035839281813
 40
8.066501019196995
 40
11.16414560060782
 40
11.16414560060782
 40
11.16414560060782
 40
11.16414560060782
 10
934.5754300218131
 20
678.4512395603338
 30
0.0000000000000000
 10
933.3068425721622
 20
676.9401223364121
 30
0.0000000000000000
 10
929.4336695427111
 20
672.3264723451219
 30
0.0000000000000000
 10
939.3499900210195
 20
665.2378740642926
 30
0.0000000000000000
 10
934.8868762553946
 20
660.4976319608985
 30
0.0000000000000000
 10
933.2646089343321
 20
658.7746331170220
 30
0.0000000000000000
  0
SPLINE
  5
23A
100
AcDbEntity
  8
MAIN0
  6
CONTINUOUS
 62
3
100
AcDbSpline
210
0.0000000000000000
220
0.0000000000000000
230
1.000000000000000
 70
     8
 71
     3
 72
     9
 73
     5
 74
     0
 42
1.000000000000000e-007
 43
1.000000000000000e-007
 12
-1.071510951745836
 22
1.948493801709788
 32
0.0000000000000000
 13
1.490518418526222
 23
1.638224599226192
 33
0.0000000000000000
 40
0.0000000000000000
 40
0.0000000000000000
 40
0.0000000000000000
 40
0.0000000000000000
 40
2.836017915548923
 40
5.573280126157993
 40
5.573280126157993
 40
5.573280126157993
 40
5.573280126157993
 10
933.2646089343321
 20
658.7746331170220
 30
0.0000000000000000
 10
932.2516675157128
 20
660.6166208936836
 30
0.0000000000000000
 10
930.2610572849378
 20
664.2364548206872
 30
0.0000000000000000
 10
933.0300828448192
 20
667.2798830210377
 30
0.0000000000000000
 10
934.3900627585687
 20
668.7746331170217
 30
0.0000000000000000
  0
SPLINE
  5
23B
100
AcDbEntity
  8
MAIN0
  6
CONTINUOUS
 62
3
100
AcDbSpline
210
0.0000000000000000
220
0.0000000000000000
230
1.000000000000000
 70
     8
 71
     3
 72
     9
 73
     5
 74
     0
 42
1.000000000000000e-007
 43
1.000000000000000e-007
 12
1.563373163866800
 22
-1.630105929079377
 32
0.0000000000000000
 13
-1.240794283732612
 23
-1.887241412472690
 33
0.0000000000000000
 40
0.0000000000000000
 40
0.0000000000000000
 40
0.0000000000000000
 40
0.0000000000000000
 40
2.843195268106422
 40
5.686110042463165
 40
5.686110042463165
 40
5.686110042463165
 40
5.686110042463165
 10
925.0720083898676
 20
678.7746331170231
 30
0.0000000000000000
 10
926.5536667837978
 20
677.2297299623328
 30
0.0000000000000000
 10
929.5168373995247
 20
674.1400760644601
 30
0.0000000000000000
 10
927.1650731204034
 20
670.5630552817887
 30
0.0000000000000000
 10
925.9892489866829
 20
668.7746331170231
 30
0.0000000000000000
  0
LINE
  5
23C
100
AcDbEntity
  8
MAIN0
  6
CONTINUOUS
 62
3
100
AcDbLine
 10
925.0720083898676
 20
678.7746331170232
 30
0.0000000000000000
 11
880.3104596315316
 21
678.7746331170298
 31
0.0000000000000000
  0
LINE
  5
23D
100
AcDbEntity
  8
MAIN0
  6
CONTINUOUS
 62
3
100
AcDbLine
 10
971.3104596315236
 20
678.7746331170164
 30
0.0000000000000000
 11
934.8372645379679
 21
678.7746331170216
 31
0.0000000000000000
  0
LINE
  5
23E
100
AcDbEntity
  8
MAIN0
  6
CONTINUOUS
 62
3
100
AcDbLine
 10
924.0888988247151
 20
658.7746331170233
 30
0.0000000000000000
 11
880.3104596315133
 21
658.7746331170298
 31
0.0000000000000000
  0
LINE
  5
23F
100
AcDbEntity
  8
MAIN0
  6
CONTINUOUS
 62
3
100
AcDbLine
 10
971.3104596315143
 20
658.7746331170164
 30
0.0000000000000000
 11
933.2646089343321
 21
658.7746331170220
 31
0.0000000000000000
  0
LINE
  5
240
100
AcDbEntity
  8
MAIN0
  6
CONTINUOUS
 62
3
100
AcDbLine
 10
934.5754300218131
 20
678.4512395603338
 30
0.0000000000000000
 11
934.8372645379679
 21
678.7746331170217
 31
0.0000000000000000
  0
SPLINE
  5
241
100
AcDbEntity
  8
MAIN0
  6
CONTINUOUS
 62
3
100
AcDbSpline
210
0.0000000000000000
220
0.0000000000000000
230
1.000000000000000
 70
     8
 71
     3
 72
    10
 73
     6
 74
     0
 42
1.000000000000000e-007
 43
1.000000000000000e-007
 12
0.9844167154990373
 22
-1.933153828608852
 32
0.0000000000000000
 13
1.750928691089484
 23
-1.570046551806058
 33
0.0000000000000000
 40
0.0000000000000000
 40
0.0000000000000000
 40
0.0000000000000000
 40
0.0000000000000000
 40
2.901395039870598
 40
8.030779914829161
 40
11.31356776259679
 40
11.31356776259679
 40
11.31356776259679
 40
11.31356776259679
 10
1055.548910873180
 20
678.7746331169635
 30
0.0000000000000000
 10
1056.500971465018
 20
676.9050188070860
 30
0.0000000000000000
 10
1059.136182793902
 20
671.7301078273965
 30
0.0000000000000000
 10
1049.706339770302
 20
664.8951772893665
 30
0.0000000000000000
 10
1054.616044628509
 20
660.4926763638623
 30
0.0000000000000000
 10
1056.532020438314
 20
658.7746331169628
 30
0.0000000000000000
  0
SPLINE
  5
242
100
AcDbEntity
  8
MAIN0
  6
CONTINUOUS
 62
3
100
AcDbSpline
210
0.0000000000000000
220
0.0000000000000000
230
1.000000000000000
 70
     8
 71
     3
 72
    10
 73
     6
 74
     0
 42
1.000000000000000e-007
 43
1.000000000000000e-007
 12
1.440465830313315
 22
-1.715855479462675
 32
0.0000000000000000
 13
1.571129881197180
 23
-1.668686124500482
 33
0.0000000000000000
 40
0.0000000000000000
 40
0.0000000000000000
 40
0.0000000000000000
 40
0.0000000000000000
 40
2.642035839281813
 40
8.066501019196995
 40
11.16414560060782
 40
11.16414560060782
 40
11.16414560060782
 40
11.16414560060782
 10
1046.045489241234
 20
678.4512395602828
 30
0.0000000000000000
 10
1047.314076690883
 20
676.9401223363600
 30
0.0000000000000000
 10
1051.187249720330
 20
672.3264723450664
 30
0.0000000000000000
 10
1041.270929242015
 20
665.2378740642461
 30
0.0000000000000000
 10
1045.734043007636
 20
660.4976319608479
 30
0.0000000000000000
 10
1047.356310328697
 20
658.7746331169699
 30
0.0000000000000000
  0
SPLINE
  5
243
100
AcDbEntity
  8
MAIN0
  6
CONTINUOUS
 62
3
100
AcDbSpline
210
0.0000000000000000
220
0.0000000000000000
230
1.000000000000000
 70
     8
 71
     3
 72
     9
 73
     5
 74
     0
 42
1.000000000000000e-007
 43
1.000000000000000e-007
 12
1.071510951747314
 22
1.948493801708878
 32
0.0000000000000000
 13
-1.490518418524516
 23
1.638224599227556
 33
0.0000000000000000
 40
0.0000000000000000
 40
0.0000000000000000
 40
0.0000000000000000
 40
0.0000000000000000
 40
2.836017915548923
 40
5.573280126157993
 40
5.573280126157993
 40
5.573280126157993
 40
5.573280126157993
 10
1047.356310328697
 20
658.7746331169699
 30
0.0000000000000000
 10
1048.369251747318
 20
660.6166208936306
 30
0.0000000000000000
 10
1050.359861978096
 20
664.2364548206324
 30
0.0000000000000000
 10
1047.590836418217
 20
667.2798830209854
 30
0.0000000000000000
 10
1046.230856504469
 20
668.7746331169707
 30
0.0000000000000000
  0
SPLINE
  5
244
100
AcDbEntity
  8
MAIN0
  6
CONTINUOUS
 62
3
100
AcDbSpline
210
0.0000000000000000
220
0.0000000000000000
230
1.000000000000000
 70
     8
 71
     3
 72
     9
 73
     5
 74
     0
 42
1.000000000000000e-007
 43
1.000000000000000e-007
 12
-1.563373163868164
 22
-1.630105929078013
 32
0.0000000000000000
 13
1.240794283731020
 23
-1.887241412474168
 33
0.0000000000000000
 40
0.0000000000000000
 40
0.0000000000000000
 40
0.0000000000000000
 40
0.0000000000000000
 40
2.843195268106422
 40
5.686110042463165
 40
5.686110042463165
 40
5.686110042463165
 40
5.686110042463165
 10
1055.548910873180
 20
678.7746331169635
 30
0.0000000000000000
 10
1054.067252479248
 20
677.2297299622745
 30
0.0000000000000000
 10
1051.104081863518
 20
674.1400760644046
 30
0.0000000000000000
 10
1053.455846142636
 20
670.5630552817311
 30
0.0000000000000000
 10
1054.631670276355
 20
668.7746331169642
 30
0.0000000000000000
  0
LINE
  5
245
100
AcDbEntity
  8
MAIN0
  6
CONTINUOUS
 62
3
100
AcDbLine
 10
1046.045489241234
 20
678.4512395602828
 30
0.0000000000000000
 11
1045.783654725079
 21
678.7746331169709
 31
0.0000000000000000
  0
LINE
  5
246
100
AcDbEntity
  8
MAIN0
  6
CONTINUOUS
 62
3
100
AcDbLine
 10
1045.783654725079
 20
678.7746331170052
 30
0.0000000000000000
 11
1009.310459631524
 21
678.7746331170105
 31
0.0000000000000000
  0
LINE
  5
247
100
AcDbEntity
  8
MAIN0
  6
CONTINUOUS
 62
3
100
AcDbLine
 10
1100.310459631516
 20
678.7746331169972
 30
0.0000000000000000
 11
1055.548910873180
 21
678.7746331170039
 31
0.0000000000000000
  0
LINE
  5
248
100
AcDbEntity
  8
MAIN0
  6
CONTINUOUS
 62
3
100
AcDbLine
 10
1047.356310328697
 20
658.7746331170050
 30
0.0000000000000000
 11
1009.310459631515
 21
658.7746331170105
 31
0.0000000000000000
  0
LINE
  5
249
100
AcDbEntity
  8
MAIN0
  6
CONTINUOUS
 62
3
100
AcDbLine
 10
1100.310459631513
 20
658.7746331169972
 30
0.0000000000000000
 11
1056.532020438314
 21
658.7746331170037
 31
0.0000000000000000
  0
LINE
  5
24A
100
AcDbEntity
  8
MAIN0
  6
CONTINUOUS
 62
3
100
AcDbLine
 10
971.3104596315286
 20
690.5746331289508
 30
0.0000000000000000
 11
971.3104596315330
 21
721.4808042978659
 31
0.0000000000000000
  0
LINE
  5
24B
100
AcDbEntity
  8
MAIN0
  6
CONTINUOUS
 62
3
100
AcDbLine
 10
971.3104596315327
 20
719.4808042978659
 30
0.0000000000000000
 11
1009.310459631533
 21
719.4808042978606
 31
0.0000000000000000
  0
LINE
  5
24C
100
AcDbEntity
  8
MAIN0
  6
CONTINUOUS
 62
3
100
AcDbLine
 10
975.3104596315328
 20
720.6808043455491
 30
0.0000000000000000
 11
971.3104596315327
 21
719.4808042978659
 31
0.0000000000000000
  0
LINE
  5
24D
100
AcDbEntity
  8
MAIN0
  6
CONTINUOUS
 62
3
100
AcDbLine
 10
971.3104596315327
 20
719.4808042978659
 30
0.0000000000000000
 11
975.3104596315326
 21
718.2808042501816
 31
0.0000000000000000
  0
LINE
  5
24E
100
AcDbEntity
  8
MAIN0
  6
CONTINUOUS
 62
3
100
AcDbLine
 10
1005.310459631533
 20
720.6808043455449
 30
0.0000000000000000
 11
1009.310459631533
 21
719.4808042978606
 31
0.0000000000000000
  0
LINE
  5
24F
100
AcDbEntity
  8
MAIN0
  6
CONTINUOUS
 62
3
100
AcDbLine
 10
1009.310459631533
 20
719.4808042978606
 30
0.0000000000000000
 11
1005.310459631533
 21
718.2808042501774
 31
0.0000000000000000
  0
MTEXT
  5
250
100
AcDbEntity
  8
MAIN0
  6
CONTINUOUS
 62
3
100
AcDbMText
 10
990.3104596315329
 20
720.4808042978634
 30
0.0000000000000000
 40
6.199999809265137
 41
0.0000000000000000
 71
     8
 72
     1
  1
{\U+220519}
 11
1.000000000000000
 21
0.0000000000000000
 31
0.0000000000000000
  7
STANDARD
  0
LINE
  5
251
100
AcDbEntity
  8
MAIN0
  6
CONTINUOUS
 62
3
100
AcDbLine
 10
1009.310459631529
 20
690.5746331289323
 30
0.0000000000000000
 11
1009.310459631533
 21
721.4808042978605
 31
0.0000000000000000
  0
POINT
  5
252
100
AcDbEntity
  8
MAIN0
  6
CONTINUOUS
 62
3
100
AcDbPoint
 10
1110.310459631516
 20
668.7746331169957
 30
0.0000000000000000
  0
LINE
  5
253
100
AcDbEntity
  8
MAIN0
  6
CONTINUOUS
 62
3
100
AcDbLine
 10
870.3104596315225
 20
669.5746331289522
 30
0.0000000000000000
 11
870.3104596315361
 21
756.5898513752238
 31
0.0000000000000000
  0
LINE
  5
254
100
AcDbEntity
  8
MAIN0
  6
CONTINUOUS
 62
3
100
AcDbLine
 10
870.3104596315358
 20
754.5898513752238
 30
0.0000000000000000
 11
1110.310459631529
 21
754.5898513751863
 31
0.0000000000000000
  0
LINE
  5
255
100
AcDbEntity
  8
MAIN0
  6
CONTINUOUS
 62
3
100
AcDbLine
 10
874.3104596315360
 20
755.7898514229069
 30
0.0000000000000000
 11
870.3104596315358
 21
754.5898513752238
 31
0.0000000000000000
  0
LINE
  5
256
100
AcDbEntity
  8
MAIN0
  6
CONTINUOUS
 62
3
100
AcDbLine
 10
870.3104596315358
 20
754.5898513752238
 30
0.0000000000000000
 11
874.3104596315355
 21
753.3898513275394
 31
0.0000000000000000
  0
LINE
  5
257
100
AcDbEntity
  8
MAIN0
  6
CONTINUOUS
 62
3
100
AcDbLine
 10
1106.310459631530
 20
755.7898514228707
 30
0.0000000000000000
 11
1110.310459631529
 21
754.5898513751863
 31
0.0000000000000000
  0
LINE
  5
258
100
AcDbEntity
  8
MAIN0
  6
CONTINUOUS
 62
3
100
AcDbLine
 10
1110.310459631529
 20
754.5898513751863
 30
0.0000000000000000
 11
1106.310459631529
 21
753.3898513275033
 31
0.0000000000000000
  0
MTEXT
  5
259
100
AcDbEntity
  8
MAIN0
  6
CONTINUOUS
 62
3
100
AcDbMText
 10
990.3104596315327
 20
755.5898513752049
 30
0.0000000000000000
 40
6.199999809265137
 41
0.0000000000000000
 71
     8
 72
     1
  1
{\H0.70x;{200}}
 11
1.000000000000000
 21
0.0000000000000000
 31
0.0000000000000000
  7
STANDARD
  0
LINE
  5
25A
100
AcDbEntity
  8
MAIN0
  6
CONTINUOUS
 62
3
100
AcDbLine
 10
1110.310459631516
 20
669.5746331289166
 30
0.0000000000000000
 11
1110.310459631530
 21
756.5898513751863
 31
0.0000000000000000
  0
LINE
  5
25B
100
AcDbEntity
  8
MAIN0
  6
CONTINUOUS
 62
3
100
AcDbLine
 10
899.4034892470045
 20
689.1992489770086
 30
0.0000000000000000
 11
899.4034892470045
 21
658.7746331170233
 31
0.0000000000000000
  0
LINE
  5
25C
100
AcDbEntity
  8
MAIN0
  6
CONTINUOUS
 62
3
100
AcDbLine
 10
900.6034892946882
 20
674.7746331170232
 30
0.0000000000000000
 11
899.4034892470045
 21
678.7746331170232
 31
0.0000000000000000
  0
LINE
  5
25D
100
AcDbEntity
  8
MAIN0
  6
CONTINUOUS
 62
3
100
AcDbLine
 10
899.4034892470045
 20
678.7746331170232
 30
0.0000000000000000
 11
898.2034891993208
 21
674.7746331170232
 31
0.0000000000000000
  0
LINE
  5
25E
100
AcDbEntity
  8
MAIN0
  6
CONTINUOUS
 62
3
100
AcDbLine
 10
900.6034892946882
 20
662.7746331170233
 30
0.0000000000000000
 11
899.4034892470045
 21
658.7746331170233
 31
0.0000000000000000
  0
LINE
  5
25F
100
AcDbEntity
  8
MAIN0
  6
CONTINUOUS
 62
3
100
AcDbLine
 10
899.4034892470045
 20
658.7746331170233
 30
0.0000000000000000
 11
898.2034891993208
 21
662.7746331170233
 31
0.0000000000000000
  0
MTEXT
  5
260
100
AcDbEntity
  8
MAIN0
  6
CONTINUOUS
 62
3
100
AcDbMText
 10
898.4034892470045
 20
692.8238654077227
 30
0.0000000000000000
 40
6.199999809265137
 41
0.0000000000000000
 71
     8
 72
     1
  1
{\U+220510}
 11
6.123233995736766e-017
 21
1.000000000000000
 31
0.0000000000000000
  7
STANDARD
  0
LINE
  5
261
100
AcDbEntity
  8
MAIN0
  6
CONTINUOUS
 62
3
100
AcDbLine
 10
1007.110459643451
 20
692.7746331170112
 30
0.0000000000000000
 11
1138.414592311678
 21
692.7746331170112
 31
0.0000000000000000
  0
LINE
  5
262
100
AcDbEntity
  8
MAIN0
  6
CONTINUOUS
 62
3
100
AcDbLine
 10
1136.414592311678
 20
692.7746331170112
 30
0.0000000000000000
 11
1136.414592311678
 21
432.7746331170119
 31
0.0000000000000000
  0
LINE
  5
263
100
AcDbEntity
  8
MAIN0
  6
CONTINUOUS
 62
3
100
AcDbLine
 10
1137.614592359362
 20
688.7746331170112
 30
0.0000000000000000
 11
1136.414592311678
 21
692.7746331170112
 31
0.0000000000000000
  0
LINE
  5
264
100
AcDbEntity
  8
MAIN0
  6
CONTINUOUS
 62
3
100
AcDbLine
 10
1136.414592311678
 20
692.7746331170112
 30
0.0000000000000000
 11
1135.214592263994
 21
688.7746331170112
 31
0.0000000000000000
  0
LINE
  5
265
100
AcDbEntity
  8
MAIN0
  6
CONTINUOUS
 62
3
100
AcDbLine
 10
1137.614592359362
 20
436.7746331170119
 30
0.0000000000000000
 11
1136.414592311678
 21
432.7746331170119
 31
0.0000000000000000
  0
LINE
  5
266
100
AcDbEntity
  8
MAIN0
  6
CONTINUOUS
 62
3
100
AcDbLine
 10
1136.414592311678
 20
432.7746331170119
 30
0.0000000000000000
 11
1135.214592263994
 21
436.7746331170119
 31
0.0000000000000000
  0
MTEXT
  5
267
100
AcDbEntity
  8
MAIN0
  6
CONTINUOUS
 62
3
100
AcDbMText
 10
1135.414592311678
 20
562.7746331170115
 30
0.0000000000000000
 40
6.199999809265137
 41
0.0000000000000000
 71
     8
 72
     1
  1
{\H0.70x;{130}}
 11
6.123233995736766e-017
 21
1.000000000000000
 31
0.0000000000000000
  7
STANDARD
  0
LINE
  5
268
100
AcDbEntity
  8
MAIN0
  6
CONTINUOUS
 62
3
100
AcDbLine
 10
1002.810459643656
 20
432.7746331170119
 30
0.0000000000000000
 11
1138.414592311678
 21
432.7746331170119
 31
0.0000000000000000
  0
LINE
  5
269
100
AcDbEntity
  8
MAIN0
  6
CONTINUOUS
 62
3
100
AcDbLine
 10
1004.210459643652
 20
458.7746331170116
 30
0.0000000000000000
 11
1046.751405986595
 21
458.7746331170097
 31
0.0000000000000000
  0
LINE
  5
26A
100
AcDbEntity
  8
MAIN0
  6
CONTINUOUS
 62
3
100
AcDbLine
 10
1044.751405986595
 20
458.7746331170098
 30
0.0000000000000000
 11
1044.751405986595
 21
432.7746331170119
 31
0.0000000000000000
  0
LINE
  5
26B
100
AcDbEntity
  8
MAIN0
  6
CONTINUOUS
 62
3
100
AcDbLine
 10
1045.951406034279
 20
454.7746331170098
 30
0.0000000000000000
 11
1044.751405986595
 21
458.7746331170098
 31
0.0000000000000000
  0
LINE
  5
26C
100
AcDbEntity
  8
MAIN0
  6
CONTINUOUS
 62
3
100
AcDbLine
 10
1044.751405986595
 20
458.7746331170098
 30
0.0000000000000000
 11
1043.551405938912
 21
454.7746331170098
 31
0.0000000000000000
  0
LINE
  5
26D
100
AcDbEntity
  8
MAIN0
  6
CONTINUOUS
 62
3
100
AcDbLine
 10
1045.951406034279
 20
436.7746331170119
 30
0.0000000000000000
 11
1044.751405986595
 21
432.7746331170119
 31
0.0000000000000000
  0
LINE
  5
26E
100
AcDbEntity
  8
MAIN0
  6
CONTINUOUS
 62
3
100
AcDbLine
 10
1044.751405986595
 20
432.7746331170119
 30
0.0000000000000000
 11
1043.551405938912
 21
436.7746331170119
 31
0.0000000000000000
  0
MTEXT
  5
26F
100
AcDbEntity
  8
MAIN0
  6
CONTINUOUS
 62
3
100
AcDbMText
 10
1043.751405986595
 20
445.7746331170108
 30
0.0000000000000000
 40
6.199999809265137
 41
0.0000000000000000
 71
     8
 72
     1
  1
{\H0.69x;{13}}
 11
6.123233995736766e-017
 21
1.000000000000000
 31
0.0000000000000000
  7
STANDARD
  0
LINE
  5
270
100
AcDbEntity
  8
MAIN0
  6
CONTINUOUS
 62
3
100
AcDbLine
 10
1002.810459643656
 20
432.7746331170119
 30
0.0000000000000000
 11
1046.751405986595
 21
432.7746331170119
 31
0.0000000000000000
  0
INSERT
  5
276
100
AcDbEntity
  8
MAIN0
  6
CONTINUOUS
 62
3
100
AcDbBlockReference
  2
$$BALLOON$$5
 10
320.7829181588007
 20
609.7472574961489
 30
0.0000000000000000
 50
0.0000000000000000
  0
INSERT
  5
27C
100
AcDbEntity
  8
MAIN0
  6
CONTINUOUS
 62
3
100
AcDbBlockReference
  2
$$BALLOON$$6
 10
283.0281277803233
 20
610.2887365888241
 30
0.0000000000000000
 50
0.0000000000000000
  0
INSERT
  5
282
100
AcDbEntity
  8
MAIN0
  6
CONTINUOUS
 62
3
100
AcDbBlockReference
  2
$$BALLOON$$7
 10
327.8411226791235
 20
553.7723961525786
 30
0.0000000000000000
 50
0.0000000000000000
  0
INSERT
  5
288
100
AcDbEntity
  8
MAIN0
  6
CONTINUOUS
 62
3
100
AcDbBlockReference
  2
$$BALLOON$$8
 10
885.2404008191575
 20
672.3909489913085
 30
0.0000000000000000
 50
0.0000000000000000
  0
POINT
  5
289
100
AcDbEntity
  8
MAIN0
  6
CONTINUOUS
 62
3
100
AcDbPoint
 10
715.4642069821919
 20
523.7383802091906
 30
0.0000000000000000
  0
LINE
  5
28A
100
AcDbEntity
  8
MAIN0
  6
CONTINUOUS
 62
3
100
AcDbLine
 10
685.4642069822927
 20
614.7976809981201
 30
0.0000000000000000
 11
705.4642069823149
 21
634.7976809980477
 31
0.0000000000000000
  0
LINE
  5
28B
100
AcDbEntity
  8
MAIN0
  6
CONTINUOUS
 62
3
100
AcDbLine
 10
211.4233538357772
 20
449.7383802094099
 30
0.0000000000000000
 11
232.0233538357772
 21
449.7383802094698
 31
0.0000000000000000
  0
LINE
  5
28C
100
AcDbEntity
  8
MAIN0
  6
CENTER
 62
3
100
AcDbLine
 10
155.0233538359034
 20
449.7383802092342
 30
0.0000000000000000
 11
155.0233538358856
 21
415.7383802096184
 31
0.0000000000000000
  0
LINE
  5
28D
100
AcDbEntity
  8
MAIN0
  6
CENTER
 62
3
100
AcDbLine
 10
163.0233538359034
 20
449.7383802092201
 30
0.0000000000000000
 11
163.0233538358856
 21
415.7383802096144
 31
0.0000000000000000
  0
LINE
  5
28E
100
AcDbEntity
  8
MAIN0
  6
CENTER
 62
3
100
AcDbLine
 10
171.0233538359034
 20
449.7383802092161
 30
0.0000000000000000
 11
171.0233538358856
 21
415.7383802096105
 31
0.0000000000000000
  0
LINE
  5
28F
100
AcDbEntity
  8
MAIN0
  6
CENTER
 62
3
100
AcDbLine
 10
179.0233538359034
 20
449.7383802092122
 30
0.0000000000000000
 11
179.0233538358856
 21
415.7383802096065
 31
0.0000000000000000
  0
LINE
  5
290
100
AcDbEntity
  8
MAIN0
  6
CENTER
 62
3
100
AcDbLine
 10
187.0233538359034
 20
449.7383802092082
 30
0.0000000000000000
 11
187.0233538358856
 21
415.7383802096026
 31
0.0000000000000000
  0
LINE
  5
291
100
AcDbEntity
  8
MAIN0
  6
CENTER
 62
3
100
AcDbLine
 10
195.0233538359035
 20
449.7383802092043
 30
0.0000000000000000
 11
195.0233538358856
 21
415.7383802095987
 31
0.0000000000000000
  0
LINE
  5
292
100
AcDbEntity
  8
MAIN0
  6
CENTER
 62
3
100
AcDbLine
 10
203.0233538359035
 20
449.7383802092004
 30
0.0000000000000000
 11
203.0233538358856
 21
415.7383802095947
 31
0.0000000000000000
  0
LINE
  5
293
100
AcDbEntity
  8
MAIN0
  6
CENTER
 62
3
100
AcDbLine
 10
211.0233538359035
 20
449.7383802091964
 30
0.0000000000000000
 11
211.0233538358856
 21
415.7383802095908
 31
0.0000000000000000
  0
LINE
  5
294
100
AcDbEntity
  8
MAIN0
  6
CENTER
 62
3
100
AcDbLine
 10
219.0233538359035
 20
449.7383802091925
 30
0.0000000000000000
 11
219.0233538358856
 21
415.7383802095869
 31
0.0000000000000000
  0
LINE
  5
295
100
AcDbEntity
  8
MAIN0
  6
CENTER
 62
3
100
AcDbLine
 10
227.0233538359035
 20
449.7383802091886
 30
0.0000000000000000
 11
227.0233538358856
 21
415.7383802095829
 31
0.0000000000000000
  0
LINE
  5
296
100
AcDbEntity
  8
MAIN0
  6
CONTINUOUS
 62
3
100
AcDbLine
 10
156.0233538358013
 20
483.7383802096177
 30
0.0000000000000000
 11
155.0233538364998
 21
485.4704310159796
 31
0.0000000000000000
  0
LINE
  5
297
100
AcDbEntity
  8
MAIN0
  6
CONTINUOUS
 62
3
100
AcDbLine
 10
154.0233538372183
 20
483.7383802096551
 30
0.0000000000000000
 11
155.0233538365000
 21
485.4704310159784
 31
0.0000000000000000
  0
LINE
  5
298
100
AcDbEntity
  8
MAIN0
  6
CONTINUOUS
 62
3
100
AcDbLine
 10
162.0233538372182
 20
483.7383802096513
 30
0.0000000000000000
 11
163.0233538364998
 21
485.4704310159746
 31
0.0000000000000000
  0
LINE
  5
299
100
AcDbEntity
  8
MAIN0
  6
CONTINUOUS
 62
3
100
AcDbLine
 10
164.0233538358013
 20
483.7383802096138
 30
0.0000000000000000
 11
163.0233538365000
 21
485.4704310159757
 31
0.0000000000000000
  0
LINE
  5
29A
100
AcDbEntity
  8
MAIN0
  6
CONTINUOUS
 62
3
100
AcDbLine
 10
172.0233538358015
 20
483.7383802096099
 30
0.0000000000000000
 11
171.0233538365000
 21
485.4704310159717
 31
0.0000000000000000
  0
LINE
  5
29B
100
AcDbEntity
  8
MAIN0
  6
CONTINUOUS
 62
3
100
AcDbLine
 10
170.0233538372183
 20
483.7383802096474
 30
0.0000000000000000
 11
171.0233538364998
 21
485.4704310159706
 31
0.0000000000000000
  0
LINE
  5
29C
100
AcDbEntity
  8
MAIN0
  6
CONTINUOUS
 62
3
100
AcDbLine
 10
178.0233538372183
 20
483.7383802096434
 30
0.0000000000000000
 11
179.0233538364998
 21
485.4704310159666
 31
0.0000000000000000
  0
LINE
  5
29D
100
AcDbEntity
  8
MAIN0
  6
CONTINUOUS
 62
3
100
AcDbLine
 10
180.0233538358013
 20
483.7383802096059
 30
0.0000000000000000
 11
179.0233538364998
 21
485.4704310159677
 31
0.0000000000000000
  0
LINE
  5
29E
100
AcDbEntity
  8
MAIN0
  6
CONTINUOUS
 62
3
100
AcDbLine
 10
188.0233538358015
 20
483.7383802096019
 30
0.0000000000000000
 11
187.0233538365000
 21
485.4704310159638
 31
0.0000000000000000
  0
LINE
  5
29F
100
AcDbEntity
  8
MAIN0
  6
CONTINUOUS
 62
3
100
AcDbLine
 10
186.0233538372183
 20
483.7383802096394
 30
0.0000000000000000
 11
187.0233538364999
 21
485.4704310159627
 31
0.0000000000000000
  0
LINE
  5
2A0
100
AcDbEntity
  8
MAIN0
  6
CONTINUOUS
 62
3
100
AcDbLine
 10
194.0233538372183
 20
483.7383802096355
 30
0.0000000000000000
 11
195.0233538364998
 21
485.4704310159588
 31
0.0000000000000000
  0
LINE
  5
2A1
100
AcDbEntity
  8
MAIN0
  6
CONTINUOUS
 62
3
100
AcDbLine
 10
196.0233538358015
 20
483.7383802095981
 30
0.0000000000000000
 11
195.0233538365000
 21
485.4704310159599
 31
0.0000000000000000
  0
LINE
  5
2A2
100
AcDbEntity
  8
MAIN0
  6
CONTINUOUS
 62
3
100
AcDbLine
 10
204.0233538358013
 20
483.7383802095941
 30
0.0000000000000000
 11
203.0233538364999
 21
485.4704310159559
 31
0.0000000000000000
  0
LINE
  5
2A3
100
AcDbEntity
  8
MAIN0
  6
CONTINUOUS
 62
3
100
AcDbLine
 10
202.0233538372183
 20
483.7383802096316
 30
0.0000000000000000
 11
203.0233538364998
 21
485.4704310159548
 31
0.0000000000000000
  0
LINE
  5
2A4
100
AcDbEntity
  8
MAIN0
  6
CONTINUOUS
 62
3
100
AcDbLine
 10
210.0233538372182
 20
483.7383802096277
 30
0.0000000000000000
 11
211.0233538364998
 21
485.4704310159509
 31
0.0000000000000000
  0
LINE
  5
2A5
100
AcDbEntity
  8
MAIN0
  6
CONTINUOUS
 62
3
100
AcDbLine
 10
212.0233538358014
 20
483.7383802095902
 30
0.0000000000000000
 11
211.0233538365000
 21
485.4704310159520
 31
0.0000000000000000
  0
LINE
  5
2A6
100
AcDbEntity
  8
MAIN0
  6
CONTINUOUS
 62
3
100
AcDbLine
 10
220.0233538358015
 20
483.7383802095863
 30
0.0000000000000000
 11
219.0233538365000
 21
485.4704310159482
 31
0.0000000000000000
  0
LINE
  5
2A7
100
AcDbEntity
  8
MAIN0
  6
CONTINUOUS
 62
3
100
AcDbLine
 10
218.0233538372183
 20
483.7383802096237
 30
0.0000000000000000
 11
219.0233538364998
 21
485.4704310159469
 31
0.0000000000000000
  0
LINE
  5
2A8
100
AcDbEntity
  8
MAIN0
  6
CONTINUOUS
 62
3
100
AcDbLine
 10
226.0233538372183
 20
483.7383802096198
 30
0.0000000000000000
 11
227.0233538364998
 21
485.4704310159430
 31
0.0000000000000000
  0
LINE
  5
2A9
100
AcDbEntity
  8
MAIN0
  6
CONTINUOUS
 62
3
100
AcDbLine
 10
228.0233538358013
 20
483.7383802095823
 30
0.0000000000000000
 11
227.0233538364998
 21
485.4704310159441
 31
0.0000000000000000
  0
LINE
  5
2AA
100
AcDbEntity
  8
MAIN0
  6
CONTINUOUS
 62
3
100
AcDbLine
 10
228.0233538358013
 20
483.7383802095804
 30
0.0000000000000000
 11
309.0233538358148
 21
483.7383802095406
 31
0.0000000000000000
  0
LINE
  5
2AB
100
AcDbEntity
  8
MAIN0
  6
CONTINUOUS
 62
3
100
AcDbLine
 10
220.0233538358015
 20
483.7383802095844
 30
0.0000000000000000
 11
226.0233538371962
 21
483.7383802095815
 31
0.0000000000000000
  0
LINE
  5
2AC
100
AcDbEntity
  8
MAIN0
  6
CONTINUOUS
 62
3
100
AcDbLine
 10
189.0233538355660
 20
574.7383802096534
 30
0.0000000000000000
 11
189.0233538355857
 21
605.7383802092683
 31
0.0000000000000000
  0
LINE
  5
2AD
100
AcDbEntity
  8
MAIN0
  6
CONTINUOUS
 62
3
100
AcDbLine
 10
142.2233538355347
 20
525.7383802096634
 30
0.0000000000000000
 11
148.0233538350747
 21
525.7383802096572
 31
0.0000000000000000
  0
LINE
  5
2AE
100
AcDbEntity
  8
MAIN0
  6
CONTINUOUS
 62
3
100
AcDbLine
 10
150.0233538359278
 20
525.7383802096550
 30
0.0000000000000000
 11
155.0233538350747
 21
525.7383802096497
 31
0.0000000000000000
  0
LINE
  5
2AF
100
AcDbEntity
  8
MAIN0
  6
CONTINUOUS
 62
3
100
AcDbLine
 10
157.0233538359278
 20
525.7383802096475
 30
0.0000000000000000
 11
162.0233538355385
 21
525.7383802096421
 31
0.0000000000000000
  0
LINE
  5
2B0
100
AcDbEntity
  8
MAIN0
  6
CONTINUOUS
 62
3
100
AcDbLine
 10
142.2233538355347
 20
525.7383802096636
 30
0.0000000000000000
 11
141.0233538355338
 21
524.5383802096649
 31
0.0000000000000000
  0
LINE
  5
2B1
100
AcDbEntity
  8
MAIN0
  6
CONTINUOUS
 62
3
100
AcDbLine
 10
186.0233538355612
 20
571.7383802096583
 30
0.0000000000000000
 11
187.9443359625307
 21
570.7383802096551
 31
0.0000000000000000
  0
LINE
  5
2B2
100
AcDbEntity
  8
MAIN0
  6
CONTINUOUS
 62
3
100
AcDbLine
 10
187.9443359625307
 20
570.7383802096551
 30
0.0000000000000000
 11
188.4233538355595
 21
570.7383802096543
 31
0.0000000000000000
  0
LINE
  5
2B3
100
AcDbEntity
  8
MAIN0
  6
CONTINUOUS
 62
3
100
AcDbLine
 10
190.0233538355622
 20
572.3383802096516
 30
0.0000000000000000
 11
190.0233538355630
 21
572.8173980826805
 31
0.0000000000000000
  0
LINE
  5
2B4
100
AcDbEntity
  8
MAIN0
  6
CONTINUOUS
 62
3
100
AcDbLine
 10
190.0233538355629
 20
572.8173980826805
 30
0.0000000000000000
 11
189.0233538355660
 21
574.7383802096533
 31
0.0000000000000000
  0
ARC
  5
2B5
100
AcDbEntity
  8
MAIN0
  6
CONTINUOUS
 62
3
100
AcDbCircle
 10
188.4233538355621
 20
572.3383802096544
 30
0.0000000000000000
 40
1.600000000000000
100
AcDbArc
 50
269.9999999999045
 51
359.9999999999046
  0
LINE
  5
2B6
100
AcDbEntity
  8
MAIN0
  6
CONTINUOUS
 62
3
100
AcDbLine
 10
180.0233538355162
 20
570.0063294013455
 30
0.0000000000000000
 11
181.0233538359504
 21
571.7383802096550
 31
0.0000000000000000
  0
LINE
  5
2B7
100
AcDbEntity
  8
MAIN0
  6
CONTINUOUS
 62
3
100
AcDbLine
 10
180.0233538355163
 20
570.0063294013453
 30
0.0000000000000000
 11
179.0233538350974
 21
571.7383802096585
 31
0.0000000000000000
  0
LINE
  5
2B8
100
AcDbEntity
  8
MAIN0
  6
CENTER
 62
3
100
AcDbLine
 10
180.0233538355064
 20
567.2704621351800
 30
0.0000000000000000
 11
180.0233538355284
 21
576.4412554717433
 31
0.0000000000000000
  0
LINE
  5
2B9
100
AcDbEntity
  8
MAIN0
  6
CONTINUOUS
 62
3
100
AcDbLine
 10
173.0233538355166
 20
570.0063294013571
 30
0.0000000000000000
 11
174.0233538359505
 21
571.7383802096665
 31
0.0000000000000000
  0
LINE
  5
2BA
100
AcDbEntity
  8
MAIN0
  6
CONTINUOUS
 62
3
100
AcDbLine
 10
173.0233538355166
 20
570.0063294013571
 30
0.0000000000000000
 11
172.0233538350976
 21
571.7383802096705
 31
0.0000000000000000
  0
LINE
  5
2BB
100
AcDbEntity
  8
MAIN0
  6
CENTER
 62
3
100
AcDbLine
 10
173.0233538355064
 20
567.2704621351916
 30
0.0000000000000000
 11
173.0233538355284
 21
576.4412554717549
 31
0.0000000000000000
  0
LINE
  5
2BC
100
AcDbEntity
  8
MAIN0
  6
CONTINUOUS
 62
3
100
AcDbLine
 10
167.2233538355641
 20
571.7383802096506
 30
0.0000000000000000
 11
172.0233538350975
 21
571.7383802096454
 31
0.0000000000000000
  0
LINE
  5
2BD
100
AcDbEntity
  8
MAIN0
  6
CONTINUOUS
 62
3
100
AcDbLine
 10
174.0233538359504
 20
571.7383802096433
 30
0.0000000000000000
 11
179.0233538350973
 21
571.7383802096379
 31
0.0000000000000000
  0
LINE
  5
2BE
100
AcDbEntity
  8
MAIN0
  6
CONTINUOUS
 62
3
100
AcDbLine
 10
181.0233538359505
 20
571.7383802096357
 30
0.0000000000000000
 11
186.0233538355612
 21
571.7383802096304
 31
0.0000000000000000
  0
LINE
  5
2BF
100
AcDbEntity
  8
MAIN0
  6
CONTINUOUS
 62
3
100
AcDbLine
 10
166.0233538355559
 20
558.7383802097226
 30
0.0000000000000000
 11
166.0233538355633
 21
570.5383802096524
 31
0.0000000000000000
  0
LINE
  5
2C0
100
AcDbEntity
  8
MAIN0
  6
CONTINUOUS
 62
3
100
AcDbLine
 10
165.0233538355544
 20
557.7383802097240
 30
0.0000000000000000
 11
166.0233538355552
 21
558.7383802097226
 31
0.0000000000000000
  0
LINE
  5
2C1
100
AcDbEntity
  8
MAIN0
  6
CONTINUOUS
 62
3
100
AcDbLine
 10
166.0233538355633
 20
570.5383802096518
 30
0.0000000000000000
 11
167.2233538355640
 21
571.7383802096506
 31
0.0000000000000000
  0
LINE
  5
2C2
100
AcDbEntity
  8
MAIN0
  6
CONTINUOUS
 62
3
100
AcDbLine
 10
190.0233538355863
 20
606.7383802092628
 30
0.0000000000000000
 11
190.0233538356027
 21
632.5383802095992
 31
0.0000000000000000
  0
LINE
  5
2C3
100
AcDbEntity
  8
MAIN0
  6
CONTINUOUS
 62
3
100
AcDbLine
 10
189.0233538355848
 20
605.7383802092683
 30
0.0000000000000000
 11
190.0233538355856
 21
606.7383802092628
 31
0.0000000000000000
  0
LINE
  5
2C4
100
AcDbEntity
  8
MAIN0
  6
CONTINUOUS
 62
3
100
AcDbLine
 10
191.2233538356034
 20
633.7383802095986
 30
0.0000000000000000
 11
190.0233538356026
 21
632.5383802095993
 31
0.0000000000000000
  0
LINE
  5
2C5
100
AcDbEntity
  8
MAIN0
  6
CONTINUOUS
 62
3
100
AcDbLine
 10
203.0233538372925
 20
633.7383802095586
 30
0.0000000000000000
 11
204.0233538365724
 21
632.0063294032344
 31
0.0000000000000000
  0
LINE
  5
2C6
100
AcDbEntity
  8
MAIN0
  6
CONTINUOUS
 62
3
100
AcDbLine
 10
205.0233538358750
 20
633.7383802095940
 30
0.0000000000000000
 11
204.0233538365719
 21
632.0063294032332
 31
0.0000000000000000
  0
LINE
  5
2C7
100
AcDbEntity
  8
MAIN0
  6
CONTINUOUS
 62
3
100
AcDbLine
 10
211.0233538372926
 20
633.7383802095548
 30
0.0000000000000000
 11
212.0233538365724
 21
632.0063294032304
 31
0.0000000000000000
  0
LINE
  5
2C8
100
AcDbEntity
  8
MAIN0
  6
CONTINUOUS
 62
3
100
AcDbLine
 10
213.0233538358751
 20
633.7383802095900
 30
0.0000000000000000
 11
212.0233538365719
 21
632.0063294032291
 31
0.0000000000000000
  0
LINE
  5
2C9
100
AcDbEntity
  8
MAIN0
  6
CONTINUOUS
 62
3
100
AcDbLine
 10
219.0233538372926
 20
633.7383802095508
 30
0.0000000000000000
 11
220.0233538365724
 21
632.0063294032266
 31
0.0000000000000000
  0
LINE
  5
2CA
100
AcDbEntity
  8
MAIN0
  6
CONTINUOUS
 62
3
100
AcDbLine
 10
221.0233538358749
 20
633.7383802095861
 30
0.0000000000000000
 11
220.0233538365717
 21
632.0063294032253
 31
0.0000000000000000
  0
LINE
  5
2CB
100
AcDbEntity
  8
MAIN0
  6
CONTINUOUS
 62
3
100
AcDbLine
 10
227.0233538372925
 20
633.7383802095468
 30
0.0000000000000000
 11
228.0233538365724
 21
632.0063294032226
 31
0.0000000000000000
  0
LINE
  5
2CC
100
AcDbEntity
  8
MAIN0
  6
CONTINUOUS
 62
3
100
AcDbLine
 10
229.0233538358750
 20
633.7383802095822
 30
0.0000000000000000
 11
228.0233538365718
 21
632.0063294032213
 31
0.0000000000000000
  0
LINE
  5
2CD
100
AcDbEntity
  8
MAIN0
  6
CONTINUOUS
 62
3
100
AcDbLine
 10
191.2233538356034
 20
633.7383802095985
 30
0.0000000000000000
 11
203.0233538372925
 21
633.7383802095928
 31
0.0000000000000000
  0
LINE
  5
2CE
100
AcDbEntity
  8
MAIN0
  6
CONTINUOUS
 62
3
100
AcDbLine
 10
213.0233538358738
 20
633.7383802095878
 30
0.0000000000000000
 11
219.0233538372926
 21
633.7383802095849
 31
0.0000000000000000
  0
LINE
  5
2CF
100
AcDbEntity
  8
MAIN0
  6
CONTINUOUS
 62
3
100
AcDbLine
 10
221.0233538358735
 20
633.7383802095840
 30
0.0000000000000000
 11
227.0233538372925
 21
633.7383802095809
 31
0.0000000000000000
  0
LINE
  5
2D0
100
AcDbEntity
  8
MAIN0
  6
CONTINUOUS
 62
3
100
AcDbLine
 10
229.0233538358737
 20
633.7383802095800
 30
0.0000000000000000
 11
320.0233538358039
 21
633.7383802095352
 31
0.0000000000000000
  0
LINE
  5
2D1
100
AcDbEntity
  8
MAIN0
  6
CENTER
 62
3
100
AcDbLine
 10
228.0233538367304
 20
628.0959797720706
 30
0.0000000000000000
 11
228.0233538367232
 21
639.7383802095825
 31
0.0000000000000000
  0
LINE
  5
2D2
100
AcDbEntity
  8
MAIN0
  6
CENTER
 62
3
100
AcDbLine
 10
220.0233538367304
 20
628.0959797720685
 30
0.0000000000000000
 11
220.0233538367232
 21
639.7383802095864
 31
0.0000000000000000
  0
LINE
  5
2D3
100
AcDbEntity
  8
MAIN0
  6
CENTER
 62
3
100
AcDbLine
 10
212.0233538362654
 20
628.0959797720666
 30
0.0000000000000000
 11
212.0233538362840
 21
639.7383802095903
 31
0.0000000000000000
  0
LINE
  5
2D4
100
AcDbEntity
  8
MAIN0
  6
CENTER
 62
3
100
AcDbLine
 10
204.0233538362654
 20
628.0959797720645
 30
0.0000000000000000
 11
204.0233538362840
 21
639.7383802095942
 31
0.0000000000000000
  0
LINE
  5
2D5
100
AcDbEntity
  8
MAIN0
  6
CONTINUOUS
 62
3
100
AcDbLine
 10
140.2233538235867
 20
483.7383802096651
 30
0.0000000000000000
 11
109.1111777732544
 21
483.7383802096805
 31
0.0000000000000000
  0
LINE
  5
2D6
100
AcDbEntity
  8
MAIN0
  6
CONTINUOUS
 62
3
100
AcDbLine
 10
111.1111777732544
 20
483.7383802096795
 30
0.0000000000000000
 11
111.1111777732751
 21
525.7383802096788
 31
0.0000000000000000
  0
LINE
  5
2D7
100
AcDbEntity
  8
MAIN0
  6
CONTINUOUS
 62
3
100
AcDbLine
 10
109.9111777255727
 20
487.7383802096800
 30
0.0000000000000000
 11
111.1111777732544
 21
483.7383802096795
 31
0.0000000000000000
  0
LINE
  5
2D8
100
AcDbEntity
  8
MAIN0
  6
CONTINUOUS
 62
3
100
AcDbLine
 10
111.1111777732544
 20
483.7383802096795
 30
0.0000000000000000
 11
112.3111778209401
 21
487.7383802096789
 31
0.0000000000000000
  0
LINE
  5
2D9
100
AcDbEntity
  8
MAIN0
  6
CONTINUOUS
 62
3
100
AcDbLine
 10
109.9111777255894
 20
521.7383802096794
 30
0.0000000000000000
 11
111.1111777732751
 21
525.7383802096788
 31
0.0000000000000000
  0
LINE
  5
2DA
100
AcDbEntity
  8
MAIN0
  6
CONTINUOUS
 62
3
100
AcDbLine
 10
111.1111777732751
 20
525.7383802096788
 30
0.0000000000000000
 11
112.3111778209569
 21
521.7383802096782
 31
0.0000000000000000
  0
MTEXT
  5
2DB
100
AcDbEntity
  8
MAIN0
  6
CONTINUOUS
 62
3
100
AcDbMText
 10
110.1111777732648
 20
504.7383802096796
 30
0.0000000000000000
 40
6.199999809265137
 41
0.0000000000000000
 71
     8
 72
     1
  1
{\H0.69x;{21}}
 11
6.123233995736766e-017
 21
1.000000000000000
 31
0.0000000000000000
  7
STANDARD
  0
LINE
  5
2DC
100
AcDbEntity
  8
MAIN0
  6
CONTINUOUS
 62
3
100
AcDbLine
 10
141.4233538236138
 20
525.7383802096639
 30
0.0000000000000000
 11
109.1111777732751
 21
525.7383802096797
 31
0.0000000000000000
  0
LINE
  5
2DD
100
AcDbEntity
  8
MAIN0
  6
CONTINUOUS
 62
3
100
AcDbLine
 10
166.4233538236431
 20
571.7383802096510
 30
0.0000000000000000
 11
109.1111777733042
 21
571.7383802096874
 31
0.0000000000000000
  0
LINE
  5
2DE
100
AcDbEntity
  8
MAIN0
  6
CONTINUOUS
 62
3
100
AcDbLine
 10
111.1111777733045
 20
571.7383802096862
 30
0.0000000000000000
 11
111.1111777732752
 21
525.7383802096832
 31
0.0000000000000000
  0
LINE
  5
2DF
100
AcDbEntity
  8
MAIN0
  6
CONTINUOUS
 62
3
100
AcDbLine
 10
112.3111778209856
 20
567.7383802096854
 30
0.0000000000000000
 11
111.1111777733045
 21
571.7383802096862
 31
0.0000000000000000
  0
LINE
  5
2E0
100
AcDbEntity
  8
MAIN0
  6
CONTINUOUS
 62
3
100
AcDbLine
 10
111.1111777733045
 20
571.7383802096862
 30
0.0000000000000000
 11
109.9111777256182
 21
567.7383802096870
 31
0.0000000000000000
  0
LINE
  5
2E1
100
AcDbEntity
  8
MAIN0
  6
CONTINUOUS
 62
3
100
AcDbLine
 10
112.3111778209615
 20
529.7383802096824
 30
0.0000000000000000
 11
111.1111777732752
 21
525.7383802096832
 31
0.0000000000000000
  0
LINE
  5
2E2
100
AcDbEntity
  8
MAIN0
  6
CONTINUOUS
 62
3
100
AcDbLine
 10
111.1111777732752
 20
525.7383802096832
 30
0.0000000000000000
 11
109.9111777255941
 21
529.7383802096840
 31
0.0000000000000000
  0
MTEXT
  5
2E3
100
AcDbEntity
  8
MAIN0
  6
CONTINUOUS
 62
3
100
AcDbMText
 10
110.1111777732901
 20
548.7383802096854
 30
0.0000000000000000
 40
6.199999809265137
 41
0.0000000000000000
 71
     8
 72
     1
  1
{\H0.69x;{23}}
 11
6.123233995736766e-017
 21
1.000000000000000
 31
0.0000000000000000
  7
STANDARD
  0
LINE
  5
2E4
100
AcDbEntity
  8
MAIN0
  6
CONTINUOUS
 62
3
100
AcDbLine
 10
141.4233538236139
 20
525.7383802096640
 30
0.0000000000000000
 11
109.1111777732752
 21
525.7383802096845
 31
0.0000000000000000
  0
LINE
  5
2E5
100
AcDbEntity
  8
MAIN0
  6
CONTINUOUS
 62
3
100
AcDbLine
 10
166.4233538236432
 20
571.7383802096510
 30
0.0000000000000000
 11
109.1111777733044
 21
571.7383802096792
 31
0.0000000000000000
  0
LINE
  5
2E6
100
AcDbEntity
  8
MAIN0
  6
CONTINUOUS
 62
3
100
AcDbLine
 10
111.1111777733044
 20
571.7383802096782
 30
0.0000000000000000
 11
111.1111777733349
 21
633.7383802096380
 31
0.0000000000000000
  0
LINE
  5
2E7
100
AcDbEntity
  8
MAIN0
  6
CONTINUOUS
 62
3
100
AcDbLine
 10
109.9111777256226
 20
575.7383802096788
 30
0.0000000000000000
 11
111.1111777733044
 21
571.7383802096782
 31
0.0000000000000000
  0
LINE
  5
2E8
100
AcDbEntity
  8
MAIN0
  6
CONTINUOUS
 62
3
100
AcDbLine
 10
111.1111777733044
 20
571.7383802096782
 30
0.0000000000000000
 11
112.3111778209900
 21
575.7383802096776
 31
0.0000000000000000
  0
LINE
  5
2E9
100
AcDbEntity
  8
MAIN0
  6
CONTINUOUS
 62
3
100
AcDbLine
 10
109.9111777256492
 20
629.7383802096385
 30
0.0000000000000000
 11
111.1111777733349
 21
633.7383802096380
 31
0.0000000000000000
  0
LINE
  5
2EA
100
AcDbEntity
  8
MAIN0
  6
CONTINUOUS
 62
3
100
AcDbLine
 10
111.1111777733349
 20
633.7383802096380
 30
0.0000000000000000
 11
112.3111778210167
 21
629.7383802096374
 31
0.0000000000000000
  0
MTEXT
  5
2EB
100
AcDbEntity
  8
MAIN0
  6
CONTINUOUS
 62
3
100
AcDbMText
 10
110.1111777733196
 20
602.7383802096585
 30
0.0000000000000000
 40
6.199999809265137
 41
0.0000000000000000
 71
     8
 72
     1
  1
{\H0.69x;{31}}
 11
6.123233995736766e-017
 21
1.000000000000000
 31
0.0000000000000000
  7
STANDARD
  0
LINE
  5
2EC
100
AcDbEntity
  8
MAIN0
  6
CONTINUOUS
 62
3
100
AcDbLine
 10
190.4233538236824
 20
633.7383802095990
 30
0.0000000000000000
 11
109.1111777733349
 21
633.7383802096390
 31
0.0000000000000000
  0
LINE
  5
2ED
100
AcDbEntity
  8
MAIN0
  6
CONTINUOUS
 62
3
100
AcDbLine
 10
190.4233538236824
 20
633.7383802095990
 30
0.0000000000000000
 11
88.50930178173348
 21
633.7383802096491
 31
0.0000000000000000
  0
LINE
  5
2EE
100
AcDbEntity
  8
MAIN0
  6
CONTINUOUS
 62
3
100
AcDbLine
 10
90.50930178173348
 20
633.7383802096481
 30
0.0000000000000000
 11
90.50930178165959
 21
483.7383802096896
 31
0.0000000000000000
  0
LINE
  5
2EF
100
AcDbEntity
  8
MAIN0
  6
CONTINUOUS
 62
3
100
AcDbLine
 10
91.70930182941522
 20
629.7383802096475
 30
0.0000000000000000
 11
90.50930178173348
 21
633.7383802096481
 31
0.0000000000000000
  0
LINE
  5
2F0
100
AcDbEntity
  8
MAIN0
  6
CONTINUOUS
 62
3
100
AcDbLine
 10
90.50930178173348
 20
633.7383802096481
 30
0.0000000000000000
 11
89.30930173404779
 21
629.7383802096487
 31
0.0000000000000000
  0
LINE
  5
2F1
100
AcDbEntity
  8
MAIN0
  6
CONTINUOUS
 62
3
100
AcDbLine
 10
91.70930182934528
 20
487.7383802096891
 30
0.0000000000000000
 11
90.50930178165959
 21
483.7383802096896
 31
0.0000000000000000
  0
LINE
  5
2F2
100
AcDbEntity
  8
MAIN0
  6
CONTINUOUS
 62
3
100
AcDbLine
 10
90.50930178165959
 20
483.7383802096896
 30
0.0000000000000000
 11
89.30930173397785
 21
487.7383802096902
 31
0.0000000000000000
  0
MTEXT
  5
2F3
100
AcDbEntity
  8
MAIN0
  6
CONTINUOUS
 62
3
100
AcDbMText
 10
89.50930178169654
 20
558.7383802096693
 30
0.0000000000000000
 40
6.199999809265137
 41
0.0000000000000000
 71
     8
 72
     1
  1
{\H0.69x;{75}}
 11
6.123233995736766e-017
 21
1.000000000000000
 31
0.0000000000000000
  7
STANDARD
  0
LINE
  5
2F4
100
AcDbEntity
  8
MAIN0
  6
CONTINUOUS
 62
3
100
AcDbLine
 10
140.2233538235867
 20
483.7383802096651
 30
0.0000000000000000
 11
88.50930178165959
 21
483.7383802096906
 31
0.0000000000000000
  0
INSERT
  5
2FA
100
AcDbEntity
  8
MAIN0
  6
CONTINUOUS
 62
3
100
AcDbBlockReference
  2
$$BALLOON$$9
 10
193.4275668818177
 20
626.1282365499000
 30
0.0000000000000000
 50
0.0000000000000000
  0
LINE
  5
2FB
100
AcDbEntity
  8
MAIN0
  6
CONTINUOUS
 62
3
100
AcDbLine
 10
141.0233538355341
 20
525.3383802215857
 30
0.0000000000000000
 11
141.0233538355423
 21
554.8523528426999
 31
0.0000000000000000
  0
LINE
  5
2FC
100
AcDbEntity
  8
MAIN0
  6
CONTINUOUS
 62
3
100
AcDbLine
 10
141.0233538355418
 20
552.8523528426999
 30
0.0000000000000000
 11
165.0233538355486
 21
552.8523528426881
 31
0.0000000000000000
  0
LINE
  5
2FD
100
AcDbEntity
  8
MAIN0
  6
CONTINUOUS
 62
3
100
AcDbLine
 10
145.0233538355424
 20
554.0523528903817
 30
0.0000000000000000
 11
141.0233538355418
 21
552.8523528426999
 31
0.0000000000000000
  0
LINE
  5
2FE
100
AcDbEntity
  8
MAIN0
  6
CONTINUOUS
 62
3
100
AcDbLine
 10
141.0233538355418
 20
552.8523528426999
 30
0.0000000000000000
 11
145.0233538355412
 21
551.6523527950143
 31
0.0000000000000000
  0
LINE
  5
2FF
100
AcDbEntity
  8
MAIN0
  6
CONTINUOUS
 62
3
100
AcDbLine
 10
161.0233538355492
 20
554.0523528903738
 30
0.0000000000000000
 11
165.0233538355486
 21
552.8523528426881
 31
0.0000000000000000
  0
LINE
  5
300
100
AcDbEntity
  8
MAIN0
  6
CONTINUOUS
 62
3
100
AcDbLine
 10
165.0233538355486
 20
552.8523528426881
 30
0.0000000000000000
 11
161.0233538355480
 21
551.6523527950063
 31
0.0000000000000000
  0
MTEXT
  5
301
100
AcDbEntity
  8
MAIN0
  6
CONTINUOUS
 62
3
100
AcDbMText
 10
153.0233538355458
 20
553.8523528426940
 30
0.0000000000000000
 40
6.199999809265137
 41
0.0000000000000000
 71
     8
 72
     1
  1
{\H0.69x;{12}}
 11
1.000000000000000
 21
0.0000000000000000
 31
0.0000000000000000
  7
STANDARD
  0
LINE
  5
302
100
AcDbEntity
  8
MAIN0
  6
CONTINUOUS
 62
3
100
AcDbLine
 10
189.0233538355739
 20
590.9211800262165
 30
0.0000000000000000
 11
165.0233538355674
 21
590.9211800262283
 31
0.0000000000000000
  0
LINE
  5
303
100
AcDbEntity
  8
MAIN0
  6
CONTINUOUS
 62
3
100
AcDbLine
 10
185.0233538355733
 20
589.7211799785347
 30
0.0000000000000000
 11
189.0233538355739
 21
590.9211800262165
 31
0.0000000000000000
  0
LINE
  5
304
100
AcDbEntity
  8
MAIN0
  6
CONTINUOUS
 62
3
100
AcDbLine
 10
189.0233538355739
 20
590.9211800262165
 30
0.0000000000000000
 11
185.0233538355745
 21
592.1211800739021
 31
0.0000000000000000
  0
LINE
  5
305
100
AcDbEntity
  8
MAIN0
  6
CONTINUOUS
 62
3
100
AcDbLine
 10
169.0233538355668
 20
589.7211799785426
 30
0.0000000000000000
 11
165.0233538355674
 21
590.9211800262283
 31
0.0000000000000000
  0
LINE
  5
306
100
AcDbEntity
  8
MAIN0
  6
CONTINUOUS
 62
3
100
AcDbLine
 10
165.0233538355674
 20
590.9211800262283
 30
0.0000000000000000
 11
169.0233538355680
 21
592.1211800739101
 31
0.0000000000000000
  0
MTEXT
  5
307
100
AcDbEntity
  8
MAIN0
  6
CONTINUOUS
 62
3
100
AcDbMText
 10
177.0233538355712
 20
591.9211800262225
 30
0.0000000000000000
 40
6.199999809265137
 41
0.0000000000000000
 71
     8
 72
     1
  1
{\H0.69x;{12}}
 11
1.000000000000000
 21
0.0000000000000000
 31
0.0000000000000000
  7
STANDARD
  0
LINE
  5
308
100
AcDbEntity
  8
MAIN0
  6
CONTINUOUS
 62
3
100
AcDbLine
 10
165.0233538355548
 20
557.3383802216449
 30
0.0000000000000000
 11
165.0233538355682
 21
592.9211800262283
 31
0.0000000000000000
  0
ARC
  5
309
100
AcDbEntity
  8
MAIN0
  6
CONTINUOUS
 62
3
100
AcDbCircle
 10
375.4642069820590
 20
433.7383802097244
 30
0.0000000000000000
 40
168.0000000000000
100
AcDbArc
 50
349.7134393884070
 51
370.2865606113568
  0
ARC
  5
30A
100
AcDbEntity
  8
MAIN0
  6
CONTINUOUS
 62
3
100
AcDbCircle
 10
375.4642069820590
 20
433.7383802097244
 30
0.0000000000000000
 40
202.0000000000000
100
AcDbArc
 50
351.4591301670586
 51
368.5408698327613
  0
ARC
  5
30B
100
AcDbEntity
  8
MAIN0
  6
CONTINUOUS
 62
3
100
AcDbCircle
 10
375.4642069820590
 20
433.7383802097244
 30
0.0000000000000000
 40
248.0000000000000
100
AcDbArc
 50
353.0520430062273
 51
366.9479569935966
  0
ARC
  5
30C
100
AcDbEntity
  8
MAIN0
  6
CONTINUOUS
 62
3
100
AcDbCircle
 10
375.4642069820590
 20
433.7383802097244
 30
0.0000000000000000
 40
216.0000000000000
100
AcDbArc
 50
352.0164438543390
 51
367.9835561454822
  0
ARC
  5
30D
100
AcDbEntity
  8
MAIN0
  6
CONTINUOUS
 62
3
100
AcDbCircle
 10
375.4642069820590
 20
433.7383802097244
 30
0.0000000000000000
 40
199.0000000000000
100
AcDbArc
 50
351.3293889187220
 51
368.6706110811358
  0
ARC
  5
30E
100
AcDbEntity
  8
MAIN0
  6
CONTINUOUS
 62
3
100
AcDbCircle
 10
375.4642069820590
 20
433.7383802097244
 30
0.0000000000000000
 40
245.0000000000000
100
AcDbArc
 50
352.9665386845205
 51
367.0334613153031
  0
ARC
  5
30F
100
AcDbEntity
  8
MAIN0
  6
CONTINUOUS
 62
3
100
AcDbCircle
 10
715.4642069824688
 20
773.7383802092240
 30
0.0000000000000000
 40
248.0000000000000
100
AcDbArc
 50
263.0520430062273
 51
269.9999999999366
  0
ARC
  5
310
100
AcDbEntity
  8
MAIN0
  6
CONTINUOUS
 62
3
100
AcDbCircle
 10
715.4642069824688
 20
773.7383802092240
 30
0.0000000000000000
 40
245.0000000000000
100
AcDbArc
 50
263.0520430062273
 51
269.9999999999366
  0
ARC
  5
311
100
AcDbEntity
  8
MAIN0
  6
CONTINUOUS
 62
3
100
AcDbCircle
 10
715.4642069824688
 20
773.7383802092240
 30
0.0000000000000000
 40
216.0000000000000
100
AcDbArc
 50
262.0164438543391
 51
269.9999999999366
  0
ARC
  5
312
100
AcDbEntity
  8
MAIN0
  6
CONTINUOUS
 62
3
100
AcDbCircle
 10
715.4642069824688
 20
773.7383802092240
 30
0.0000000000000000
 40
202.0000000000000
100
AcDbArc
 50
261.4591301670586
 51
269.9999999999366
  0
ARC
  5
313
100
AcDbEntity
  8
MAIN0
  6
CONTINUOUS
 62
3
100
AcDbCircle
 10
715.4642069824688
 20
773.7383802092240
 30
0.0000000000000000
 40
199.0000000000000
100
AcDbArc
 50
261.4591301670586
 51
269.9999999999366
  0
ARC
  5
314
100
AcDbEntity
  8
MAIN0
  6
CONTINUOUS
 62
3
100
AcDbCircle
 10
715.4642069824688
 20
773.7383802092240
 30
0.0000000000000000
 40
168.0000000000000
100
AcDbArc
 50
259.7134393884071
 51
269.9999999999366
  0
ARC
  5
315
100
AcDbEntity
  8
MAIN0
  6
CONTINUOUS
 62
3
100
AcDbCircle
 10
715.4642069817163
 20
93.73838020990343
 30
0.0000000000000000
 40
248.0000000000000
100
AcDbArc
 50
89.99999999993658
 51
96.94795699359642
  0
ARC
  5
316
100
AcDbEntity
  8
MAIN0
  6
CONTINUOUS
 62
3
100
AcDbCircle
 10
715.4642069817163
 20
93.73838020990343
 30
0.0000000000000000
 40
245.0000000000000
100
AcDbArc
 50
89.99999999993658
 51
97.01617219787823
  0
ARC
  5
317
100
AcDbEntity
  8
MAIN0
  6
CONTINUOUS
 62
3
100
AcDbCircle
 10
715.4642069817163
 20
93.73838020990343
 30
0.0000000000000000
 40
216.0000000000000
100
AcDbArc
 50
89.99999999993658
 51
97.98355614548215
  0
ARC
  5
318
100
AcDbEntity
  8
MAIN0
  6
CONTINUOUS
 62
3
100
AcDbCircle
 10
715.4642069817163
 20
93.73838020990343
 30
0.0000000000000000
 40
202.0000000000000
100
AcDbArc
 50
89.99999999993658
 51
98.54086983276115
  0
ARC
  5
319
100
AcDbEntity
  8
MAIN0
  6
CONTINUOUS
 62
3
100
AcDbCircle
 10
715.4642069817163
 20
93.73838020990343
 30
0.0000000000000000
 40
199.0000000000000
100
AcDbArc
 50
89.99999999993658
 51
98.67061108110528
  0
ARC
  5
31A
100
AcDbEntity
  8
MAIN0
  6
CONTINUOUS
 62
3
100
AcDbCircle
 10
715.4642069817163
 20
93.73838020990343
 30
0.0000000000000000
 40
168.0000000000000
100
AcDbArc
 50
89.99999999993658
 51
100.2865606113567
  0
LINE
  5
31B
100
AcDbEntity
  8
MAIN0
  6
CONTINUOUS
 62
3
100
AcDbLine
 10
697.4642069820409
 20
387.0907650504481
 30
0.0000000000000000
 11
697.4642069820284
 21
375.7383802092262
 31
0.0000000000000000
  0
LINE
  5
31C
100
AcDbEntity
  8
MAIN0
  6
CONTINUOUS
 62
3
100
AcDbLine
 10
697.4642069818790
 20
240.6790794203449
 30
0.0000000000000000
 11
697.4642069818722
 21
234.5500271360451
 31
0.0000000000000000
  0
LINE
  5
31D
100
AcDbEntity
  8
MAIN0
  6
CONTINUOUS
 62
3
100
AcDbLine
 10
516.2758539089051
 20
415.7383802094302
 30
0.0000000000000000
 11
522.4049061931873
 21
415.7383802094234
 31
0.0000000000000000
  0
LINE
  5
31E
100
AcDbEntity
  8
MAIN0
  6
CONTINUOUS
 62
3
100
AcDbLine
 10
658.3982103363318
 20
415.7383802092752
 30
0.0000000000000000
 11
668.8165918233018
 21
415.7383802092638
 31
0.0000000000000000
  0
LINE
  5
31F
100
AcDbEntity
  8
MAIN0
  6
CONTINUOUS
 62
3
100
AcDbLine
 10
516.2758539089452
 20
451.7383802093916
 30
0.0000000000000000
 11
522.4049061932262
 21
451.7383802093847
 31
0.0000000000000000
  0
LINE
  5
320
100
AcDbEntity
  8
MAIN0
  6
CONTINUOUS
 62
3
100
AcDbLine
 10
658.3982103363721
 20
451.7383802092322
 30
0.0000000000000000
 11
668.8165918233417
 21
451.7383802092205
 31
0.0000000000000000
  0
LINE
  5
321
100
AcDbEntity
  8
MAIN0
  6
CONTINUOUS
 62
3
100
AcDbLine
 10
697.4642069823060
 20
626.7976809980767
 30
0.0000000000000000
 11
697.4642069823128
 21
632.9267332823758
 31
0.0000000000000000
  0
LINE
  5
322
100
AcDbEntity
  8
MAIN0
  6
CONTINUOUS
 62
3
100
AcDbLine
 10
697.4642069821441
 20
480.3859953679729
 30
0.0000000000000000
 11
697.4642069821556
 21
490.8043768549727
 31
0.0000000000000000
  0
LINE
  5
323
100
AcDbEntity
  8
MAIN0
  6
CONTINUOUS
 62
3
100
AcDbLine
 10
973.5104596196090
 20
692.7746331170163
 30
0.0000000000000000
 11
947.9211210474790
 21
692.7746331170163
 31
0.0000000000000000
  0
LINE
  5
324
100
AcDbEntity
  8
MAIN0
  6
CONTINUOUS
 62
3
100
AcDbLine
 10
949.9211210474790
 20
699.1135913804135
 30
0.0000000000000000
 11
949.9211210474790
 21
668.7746331170339
 31
0.0000000000000000
  0
LINE
  5
325
100
AcDbEntity
  8
MAIN0
  6
CONTINUOUS
 62
3
100
AcDbLine
 10
951.1211210951627
 20
688.7746331170163
 30
0.0000000000000000
 11
949.9211210474790
 21
692.7746331170163
 31
0.0000000000000000
  0
LINE
  5
326
100
AcDbEntity
  8
MAIN0
  6
CONTINUOUS
 62
3
100
AcDbLine
 10
949.9211210474790
 20
692.7746331170163
 30
0.0000000000000000
 11
948.7211209997953
 21
688.7746331170163
 31
0.0000000000000000
  0
LINE
  5
327
100
AcDbEntity
  8
MAIN0
  6
CONTINUOUS
 62
3
100
AcDbLine
 10
951.1211210951627
 20
672.7746331170339
 30
0.0000000000000000
 11
949.9211210474790
 21
668.7746331170339
 31
0.0000000000000000
  0
LINE
  5
328
100
AcDbEntity
  8
MAIN0
  6
CONTINUOUS
 62
3
100
AcDbLine
 10
949.9211210474790
 20
668.7746331170339
 30
0.0000000000000000
 11
948.7211209997953
 21
672.7746331170339
 31
0.0000000000000000
  0
MTEXT
  5
329
100
AcDbEntity
  8
MAIN0
  6
CONTINUOUS
 62
3
100
AcDbMText
 10
948.9211210474790
 20
701.2525492643208
 30
0.0000000000000000
 40
6.199999809265137
 41
0.0000000000000000
 71
     8
 72
     1
  1
{\H0.69x;{12}}
 11
6.123233995736766e-017
 21
1.000000000000000
 31
0.0000000000000000
  7
STANDARD
  0
LINE
  5
32A
100
AcDbEntity
  8
MAIN0
  6
CENTER
 62
3
100
AcDbLine
 10
715.4642069821035
 20
443.7383802091906
 30
0.0000000000000000
 11
715.4642069823460
 21
662.9703644139643
 31
0.0000000000000000
  0
POINT
  5
32B
100
AcDbEntity
  8
MAIN0
  6
CONTINUOUS
 62
3
100
AcDbPoint
 10
715.4642069820925
 20
433.7383802091906
 30
0.0000000000000000
  0
LINE
  5
32C
100
AcDbEntity
  8
MAIN0
  6
CENTER
 62
3
100
AcDbLine
 10
715.4642069818623
 20
225.5327525840182
 30
0.0000000000000000
 11
715.4642069820925
 21
433.7383802091906
 31
0.0000000000000000
  0
LINE
  5
32D
100
AcDbEntity
  8
MAIN0
  6
CONTINUOUS
 62
3
100
AcDbLine
 10
715.4642069820925
 20
433.7383802091906
 30
0.0000000000000000
 11
715.4642069821035
 21
443.7383802091906
 31
0.0000000000000000
  0
LINE
  5
32E
100
AcDbEntity
  8
MAIN0
  6
CONTINUOUS
 62
3
100
AcDbLine
 10
715.4642069820925
 20
433.7383802091906
 30
0.0000000000000000
 11
720.4642069820924
 21
425.0781261713461
 31
0.0000000000000000
  0
INSERT
  5
335
100
AcDbEntity
  8
MAIN0
  6
CONTINUOUS
 62
2
100
AcDbBlockReference
  2
M10
 10
0.0000000000000000
 20
0.0000000000000000
 30
0.0000000000000000
 50
0.0000000000000000
  0
MTEXT
  5
336
100
AcDbEntity
  8
MAIN0
  6
CONTINUOUS
 62
3
100
AcDbMText
 10
726.2130149393616
 20
675.4895380235271
 30
0.0000000000000000
 40
10.00000000000000
 41
0.0000000000000000
 71
     1
 72
     1
  1
{\H0.82x;{C}}
 11
1.000000000000000
 21
-1.108691597145586e-012
 31
0.0000000000000000
  7
STANDARD
  0
MTEXT
  5
337
100
AcDbEntity
  8
MAIN0
  6
CONTINUOUS
 62
3
100
AcDbMText
 10
700.5290153087072
 20
427.0282174298404
 30
0.0000000000000000
 40
10.00000000000000
 41
0.0000000000000000
 71
     1
 72
     1
  1
{\H0.82x;{O}}
 11
1.000000000000000
 21
-1.108691597145586e-012
 31
0.0000000000000000
  7
STANDARD
  0
MTEXT
  5
338
100
AcDbEntity
  8
MAIN0
  6
CONTINUOUS
 62
3
100
AcDbMText
 10
238.9027997258732
 20
211.1302504235975
 30
0.0000000000000000
 40
10.00000000000000
 41
0.0000000000000000
 71
     1
 72
     1
  1
{\H0.93x;{断面Ｃ－Ｏ－Ｄ}}
 11
1.000000000000000
 21
-1.108691597145586e-012
 31
0.0000000000000000
  7
KNJYOKO
  0
LINE
  5
339
100
AcDbEntity
  8
MAIN0
  6
CONTINUOUS
 62
3
100
AcDbLine
 10
319.8678871373478
 20
199.5051962696853
 30
0.0000000000000000
 11
236.0376255968809
 21
199.5051962697454
 31
0.0000000000000000
  0
ARC
  5
33A
100
AcDbEntity
  8
MAIN0
  6
CONTINUOUS
 62
3
100
AcDbCircle
 10
955.3104596315017
 20
630.7746331170238
 30
0.0000000000000000
 40
20.00000000000000
100
AcDbArc
 50
0.0000000000000000
 51
36.86989764581826
  0
ARC
  5
33B
100
AcDbEntity
  8
MAIN0
  6
CONTINUOUS
 62
3
100
AcDbCircle
 10
1025.310459631502
 20
630.7746331169918
 30
0.0000000000000000
 40
20.00000000000000
100
AcDbArc
 50
143.1301023541294
 51
179.9999999999477
  0
ARC
  5
33C
100
AcDbEntity
  8
MAIN0
  6
CONTINUOUS
 62
3
100
AcDbCircle
 10
715.4642069820925
 20
433.7383802091906
 30
0.0000000000000000
 40
50.00000000000000
100
AcDbArc
 50
356.2947841619064
 51
702.2313753416503
  0
LINE
  5
33D
100
AcDbEntity
  8
MAIN0
  6
CENTER
 62
3
100
AcDbLine
 10
264.0233538357965
 20
701.9535173452935
 30
0.0000000000000000
 11
264.0233538357948
 21
722.9736312576968
 31
0.0000000000000000
  0
LINE
  5
33E
100
AcDbEntity
  8
MAIN0
  6
CENTER
 62
3
100
AcDbLine
 10
264.0233538357939
 20
732.8704251792649
 30
0.0000000000000000
 11
264.0233538357929
 21
744.3757435708537
 31
0.0000000000000000
  0
LINE
  5
33F
100
AcDbEntity
  8
MAIN0
  6
CENTER
 62
3
100
AcDbLine
 10
264.0233538358227
 20
389.7361301826948
 30
0.0000000000000000
 11
264.0233538358012
 21
644.7088017659601
 31
0.0000000000000000
  0
LINE
  5
340
100
AcDbEntity
  8
MAIN0
  6
CENTER
 62
3
100
AcDbLine
 10
264.0233538358003
 20
656.9088015752252
 30
0.0000000000000000
 11
264.0233538357996
 21
664.3268444484247
 31
0.0000000000000000
  0
LINE
  5
341
100
AcDbEntity
  8
MAIN0
  6
CENTER
 62
3
100
AcDbLine
 10
990.3104596313567
 20
313.5371298175880
 30
0.0000000000000000
 11
990.3104596314694
 21
560.0050809333976
 31
0.0000000000000000
  0
LINE
  5
342
100
AcDbEntity
  8
MAIN0
  6
CENTER
 62
3
100
AcDbLine
 10
990.3104596314749
 20
572.2050807426627
 30
0.0000000000000000
 11
990.3104596315352
 21
704.0121382579648
 31
0.0000000000000000
  0
ARC
  5
343
100
AcDbEntity
  8
MAIN0
  6
CONTINUOUS
 62
3
100
AcDbCircle
 10
715.4642069820925
 20
433.7383802091906
 30
0.0000000000000000
 40
100.0000000000000
100
AcDbArc
 50
107.4576031236587
 51
136.8586845413288
  0
ARC
  5
344
100
AcDbEntity
  8
MAIN0
  6
CONTINUOUS
 62
3
100
AcDbCircle
 10
715.4642069820925
 20
433.7383802091906
 30
0.0000000000000000
 40
100.0000000000000
100
AcDbArc
 50
155.1413154586712
 51
162.5423968762145
  0
ARC
  5
345
100
AcDbEntity
  8
MAIN0
  6
CONTINUOUS
 62
3
100
AcDbCircle
 10
715.4642069820925
 20
433.7383802091906
 30
0.0000000000000000
 40
100.0000000000000
100
AcDbArc
 50
197.4576031236587
 51
226.8586845413289
  0
ARC
  5
346
100
AcDbEntity
  8
MAIN0
  6
CONTINUOUS
 62
3
100
AcDbCircle
 10
715.4642069820925
 20
433.7383802091906
 30
0.0000000000000000
 40
100.0000000000000
100
AcDbArc
 50
245.1413154586709
 51
252.5423968762145
  0
ARC
  5
347
100
AcDbEntity
  8
MAIN0
  6
CONTINUOUS
 62
3
100
AcDbCircle
 10
715.4642069820925
 20
433.7383802091906
 30
0.0000000000000000
 40
120.0000000000000
100
AcDbArc
 50
104.4775121858666
 51
142.1296685856092
  0
ARC
  5
348
100
AcDbEntity
  8
MAIN0
  6
CONTINUOUS
 62
3
100
AcDbCircle
 10
715.4642069820925
 20
433.7383802091906
 30
0.0000000000000000
 40
120.0000000000000
100
AcDbArc
 50
149.8703314143908
 51
165.5224878140067
  0
ARC
  5
349
100
AcDbEntity
  8
MAIN0
  6
CONTINUOUS
 62
3
100
AcDbCircle
 10
715.4642069820925
 20
433.7383802091906
 30
0.0000000000000000
 40
120.0000000000000
100
AcDbArc
 50
194.4775121858666
 51
232.1296685856082
  0
ARC
  5
34A
100
AcDbEntity
  8
MAIN0
  6
CONTINUOUS
 62
3
100
AcDbCircle
 10
715.4642069820925
 20
433.7383802091906
 30
0.0000000000000000
 40
120.0000000000000
100
AcDbArc
 50
239.8703314143916
 51
255.5224878140067
  0
ARC
  5
34B
100
AcDbEntity
  8
MAIN0
  6
CONTINUOUS
 62
3
100
AcDbCircle
 10
715.4642069820925
 20
433.7383802091906
 30
0.0000000000000000
 40
200.0000000000000
100
AcDbArc
 50
93.26290313066340
 51
176.7370968692096
  0
ARC
  5
34C
100
AcDbEntity
  8
MAIN0
  6
CONTINUOUS
 62
3
100
AcDbCircle
 10
715.4642069820925
 20
433.7383802091906
 30
0.0000000000000000
 40
200.0000000000000
100
AcDbArc
 50
183.2629031306633
 51
266.7370968692101
  0
POINT
  5
34D
100
AcDbEntity
  8
MAIN0
  6
CONTINUOUS
 62
3
100
AcDbPoint
 10
201.0233538358279
 20
328.9583802091907
 30
0.0000000000000000
  0
POINT
  5
34E
100
AcDbEntity
  8
MAIN0
  6
CONTINUOUS
 62
3
100
AcDbPoint
 10
225.0233538358279
 20
328.9583802091907
 30
0.0000000000000000
  0
LINE
  5
34F
100
AcDbEntity
  8
MAIN0
  6
CONTINUOUS
 62
3
100
AcDbLine
 10
201.0233538358280
 20
347.1583802091907
 30
0.0000000000000000
 11
202.2233538358279
 21
345.9583802091907
 31
0.0000000000000000
  0
LINE
  5
350
100
AcDbEntity
  8
MAIN0
  6
CONTINUOUS
 62
3
100
AcDbLine
 10
202.2233538358279
 20
345.9583802091907
 30
0.0000000000000000
 11
225.0233538358279
 21
345.9583802091907
 31
0.0000000000000000
  0
LINE
  5
351
100
AcDbEntity
  8
MAIN0
  6
CONTINUOUS
 62
3
100
AcDbLine
 10
225.0233538358279
 20
345.9583802091907
 30
0.0000000000000000
 11
225.0233538358279
 21
311.9583802091907
 31
0.0000000000000000
  0
LINE
  5
352
100
AcDbEntity
  8
MAIN0
  6
CONTINUOUS
 62
3
100
AcDbLine
 10
225.0233538358279
 20
311.9583802091907
 30
0.0000000000000000
 11
202.2233538358279
 21
311.9583802091907
 31
0.0000000000000000
  0
LINE
  5
353
100
AcDbEntity
  8
MAIN0
  6
CONTINUOUS
 62
3
100
AcDbLine
 10
202.2233538358279
 20
311.9583802091907
 30
0.0000000000000000
 11
201.0233538358280
 21
310.7583802091907
 31
0.0000000000000000
  0
LINE
  5
354
100
AcDbEntity
  8
MAIN0
  6
CONTINUOUS
 62
3
100
AcDbLine
 10
225.0233538358279
 20
340.9583802091907
 30
0.0000000000000000
 11
340.2233538358279
 21
340.9583802091907
 31
0.0000000000000000
  0
LINE
  5
355
100
AcDbEntity
  8
MAIN0
  6
CONTINUOUS
 62
3
100
AcDbLine
 10
340.2233538358279
 20
340.9583802091908
 30
0.0000000000000000
 11
341.0233538358279
 21
341.7583802091907
 31
0.0000000000000000
  0
LINE
  5
356
100
AcDbEntity
  8
MAIN0
  6
CONTINUOUS
 62
3
100
AcDbLine
 10
225.0233538358279
 20
316.9583802091907
 30
0.0000000000000000
 11
340.2233538358279
 21
316.9583802091907
 31
0.0000000000000000
  0
LINE
  5
357
100
AcDbEntity
  8
MAIN0
  6
CONTINUOUS
 62
3
100
AcDbLine
 10
340.2233538358279
 20
316.9583802091906
 30
0.0000000000000000
 11
341.0233538358279
 21
316.1583802091907
 31
0.0000000000000000
  0
POINT
  5
358
100
AcDbEntity
  8
MAIN0
  6
CONTINUOUS
 62
3
100
AcDbPoint
 10
628.5976501297752
 20
492.3306126348554
 30
0.0000000000000000
  0
CIRCLE
  5
359
100
AcDbEntity
  8
MAIN0
  6
CONTINUOUS
 62
3
100
AcDbCircle
 10
628.5976501297752
 20
492.3306126348554
 30
0.0000000000000000
 40
17.00000000000000
  0
POINT
  5
35A
100
AcDbEntity
  8
MAIN0
  6
CONTINUOUS
 62
3
100
AcDbPoint
 10
656.8719745564271
 20
346.8718233568727
 30
0.0000000000000000
  0
CIRCLE
  5
35B
100
AcDbEntity
  8
MAIN0
  6
CONTINUOUS
 62
3
100
AcDbCircle
 10
656.8719745564271
 20
346.8718233568727
 30
0.0000000000000000
 40
17.00000000000000
  0
CIRCLE
  5
35C
100
AcDbEntity
  8
MAIN0
  6
CONTINUOUS
 62
3
100
AcDbCircle
 10
656.8719745564271
 20
346.8718233568727
 30
0.0000000000000000
 40
11.00000000000000
  0
LINE
  5
35D
100
AcDbEntity
  8
MAIN0
  6
CENTER
 62
3
100
AcDbLine
 10
352.9469145528432
 20
543.7383802095206
 30
0.0000000000000000
 11
239.2385216654629
 21
543.7383802095210
 31
0.0000000000000000
  0
LINE
  5
35E
100
AcDbEntity
  8
MAIN0
  6
HIDDEN
 62
3
100
AcDbLine
 10
254.0233538357996
 20
555.7383802095210
 30
0.0000000000000000
 11
254.0233538358135
 21
531.7383802095210
 31
0.0000000000000000
  0
LINE
  5
35F
100
AcDbEntity
  8
MAIN0
  6
CONTINUOUS
 62
3
100
AcDbLine
 10
339.0233538357938
 20
565.7383802095208
 30
0.0000000000000000
 11
339.0233538358193
 21
521.7383802095208
 31
0.0000000000000000
  0
LINE
  5
360
100
AcDbEntity
  8
MAIN0
  6
CONTINUOUS
 62
3
100
AcDbLine
 10
339.0233538358193
 20
521.7383802095208
 30
0.0000000000000000
 11
288.0233538358192
 21
521.7383802095209
 31
0.0000000000000000
  0
LINE
  5
361
100
AcDbEntity
  8
MAIN0
  6
CONTINUOUS
 62
3
100
AcDbLine
 10
339.0233538357938
 20
565.7383802095208
 30
0.0000000000000000
 11
288.0233538357938
 21
565.7383802095209
 31
0.0000000000000000
  0
LINE
  5
362
100
AcDbEntity
  8
MAIN0
  6
CONTINUOUS
 62
3
100
AcDbLine
 10
287.2233538358140
 20
531.7383802095209
 30
0.0000000000000000
 11
254.0233538358136
 21
531.7383802095210
 31
0.0000000000000000
  0
LINE
  5
363
100
AcDbEntity
  8
MAIN0
  6
CONTINUOUS
 62
3
100
AcDbLine
 10
286.9798778678959
 20
555.7383802095209
 30
0.0000000000000000
 11
254.0233538357996
 21
555.7383802095210
 31
0.0000000000000000
  0
ARC
  5
364
100
AcDbEntity
  8
MAIN0
  6
CONTINUOUS
 62
3
100
AcDbCircle
 10
287.2233538358140
 20
530.9383802095209
 30
0.0000000000000000
 40
0.8000000000000000
100
AcDbArc
 50
359.9999999999999
 51
449.9999999999998
  0
ARC
  5
365
100
AcDbEntity
  8
MAIN0
  6
CONTINUOUS
 62
3
100
AcDbCircle
 10
287.2233538357991
 20
556.5383802095208
 30
0.0000000000000000
 40
0.8000000000000000
100
AcDbArc
 50
269.9999999999998
 51
359.9999999999999
  0
LINE
  5
366
100
AcDbEntity
  8
MAIN0
  6
CONTINUOUS
 62
3
100
AcDbLine
 10
288.0233538357939
 20
565.7383802095405
 30
0.0000000000000000
 11
288.0233538357992
 21
556.5383802095208
 31
0.0000000000000000
  0
LINE
  5
367
100
AcDbEntity
  8
MAIN0
  6
CONTINUOUS
 62
3
100
AcDbLine
 10
288.0233538358140
 20
530.9383802095208
 30
0.0000000000000000
 11
288.0233538358193
 21
521.7383802095205
 31
0.0000000000000000
  0
LINE
  5
368
100
AcDbEntity
  8
MAIN0
  6
HIDDEN
 62
3
100
AcDbLine
 10
275.5233538357996
 20
555.7383802095334
 30
0.0000000000000000
 11
275.5233538358135
 21
531.7383802095334
 31
0.0000000000000000
  0
LINE
  5
369
100
AcDbEntity
  8
MAIN0
  6
CONTINUOUS
 62
3
100
AcDbLine
 10
281.0233538358065
 20
487.7383802095619
 30
0.0000000000000000
 11
247.0233538358063
 21
487.7383802095638
 31
0.0000000000000000
  0
LINE
  5
36A
100
AcDbEntity
  8
MAIN0
  6
CONTINUOUS
 62
3
100
AcDbLine
 10
275.7848374066532
 20
598.7383802095620
 30
0.0000000000000000
 11
252.2618702649601
 21
598.7383802095634
 31
0.0000000000000000
  0
LINE
  5
36B
100
AcDbEntity
  8
MAIN0
  6
CONTINUOUS
 62
3
100
AcDbLine
 10
274.0233538358067
 20
586.7383802095623
 30
0.0000000000000000
 11
254.0233538358067
 21
586.7383802095634
 31
0.0000000000000000
  0
LINE
  5
36C
100
AcDbEntity
  8
MAIN0
  6
CONTINUOUS
 62
3
100
AcDbLine
 10
252.2618702649539
 20
598.7383802095634
 30
0.0000000000000000
 11
252.2618702649068
 21
628.8686218763296
 31
0.0000000000000000
  0
LINE
  5
36D
100
AcDbEntity
  8
MAIN0
  6
CONTINUOUS
 62
3
100
AcDbLine
 10
261.6427017822330
 20
598.7383802095590
 30
0.0000000000000000
 11
261.6427017821854
 21
629.1558378062271
 31
0.0000000000000000
  0
LINE
  5
36E
100
AcDbEntity
  8
MAIN0
  6
CONTINUOUS
 62
3
100
AcDbLine
 10
251.2618702649036
 20
630.6006726838971
 30
0.0000000000000000
 11
251.0233538338637
 21
630.7383802095635
 31
0.0000000000000000
  0
LINE
  5
36F
100
AcDbEntity
  8
MAIN0
  6
CONTINUOUS
 62
3
100
AcDbLine
 10
286.0233538358065
 20
490.7383802095615
 30
0.0000000000000000
 11
242.0233538358065
 21
490.7383802095640
 31
0.0000000000000000
  0
LINE
  5
370
100
AcDbEntity
  8
MAIN0
  6
CONTINUOUS
 62
3
100
AcDbLine
 10
253.0233538358066
 20
531.7383802095634
 30
0.0000000000000000
 11
253.0233538358066
 21
555.7383802095634
 31
0.0000000000000000
  0
LINE
  5
371
100
AcDbEntity
  8
MAIN0
  6
CONTINUOUS
 62
3
100
AcDbLine
 10
275.0233538358066
 20
531.7383802095621
 30
0.0000000000000000
 11
275.0233538358066
 21
555.7383802095623
 31
0.0000000000000000
  0
LINE
  5
372
100
AcDbEntity
  8
MAIN0
  6
CONTINUOUS
 62
3
100
AcDbLine
 10
286.0233538358065
 20
490.7383802095615
 30
0.0000000000000000
 11
286.0233538358066
 21
528.7383802095615
 31
0.0000000000000000
  0
LINE
  5
373
100
AcDbEntity
  8
MAIN0
  6
CONTINUOUS
 62
3
100
AcDbLine
 10
281.0233538358065
 20
487.7383802095619
 30
0.0000000000000000
 11
281.0233538358066
 21
531.7383802095618
 31
0.0000000000000000
  0
LINE
  5
374
100
AcDbEntity
  8
MAIN0
  6
CONTINUOUS
 62
3
100
AcDbLine
 10
254.0233538358067
 20
586.7383802110918
 30
0.0000000000000000
 11
254.0233538358067
 21
598.7383802095633
 31
0.0000000000000000
  0
LINE
  5
375
100
AcDbEntity
  8
MAIN0
  6
CONTINUOUS
 62
3
100
AcDbLine
 10
274.0233538358067
 20
586.7383802110919
 30
0.0000000000000000
 11
274.0233538358067
 21
598.7383802095621
 31
0.0000000000000000
  0
LINE
  5
376
100
AcDbEntity
  8
MAIN0
  6
CONTINUOUS
 62
3
100
AcDbLine
 10
264.0233538358069
 20
580.9648775192085
 30
0.0000000000000000
 11
254.0233538358066
 21
586.7383802110918
 31
0.0000000000000000
  0
LINE
  5
377
100
AcDbEntity
  8
MAIN0
  6
CONTINUOUS
 62
3
100
AcDbLine
 10
264.0233538358066
 20
580.9648775192085
 30
0.0000000000000000
 11
274.0233538358069
 21
586.7383802110919
 31
0.0000000000000000
  0
POINT
  5
378
100
AcDbEntity
  8
MAIN0
  6
CONTINUOUS
 62
3
100
AcDbPoint
 10
264.0233538358066
 20
543.7383802095628
 30
0.0000000000000000
  0
ARC
  5
379
100
AcDbEntity
  8
MAIN0
  6
CONTINUOUS
 62
3
100
AcDbCircle
 10
250.2618702649066
 20
628.8686218763264
 30
0.0000000000000000
 40
2.000000000000000
100
AcDbArc
 50
359.9999999999999
 51
420.0000000001014
  0
LINE
  5
37A
100
AcDbEntity
  8
MAIN0
  6
CONTINUOUS
 62
3
100
AcDbLine
 10
275.7848374066600
 20
599.1053412909539
 30
0.0000000000000000
 11
275.7848374067067
 21
628.8686218763294
 31
0.0000000000000000
  0
LINE
  5
37B
100
AcDbEntity
  8
MAIN0
  6
CONTINUOUS
 62
3
100
AcDbLine
 10
266.4040058893803
 20
598.7383802095626
 30
0.0000000000000000
 11
266.4040058894280
 21
629.1558378062268
 31
0.0000000000000000
  0
LINE
  5
37C
100
AcDbEntity
  8
MAIN0
  6
CONTINUOUS
 62
3
100
AcDbLine
 10
276.7848374067099
 20
630.6006726838970
 30
0.0000000000000000
 11
277.0233538377498
 21
630.7383802095635
 31
0.0000000000000000
  0
ARC
  5
37D
100
AcDbEntity
  8
MAIN0
  6
CONTINUOUS
 62
3
100
AcDbCircle
 10
277.7848374067067
 20
628.8686218763264
 30
0.0000000000000000
 40
2.000000000000000
100
AcDbArc
 50
119.9999999998985
 51
179.9999999999999
  0
LINE
  5
37E
100
AcDbEntity
  8
MAIN0
  6
HIDDEN
 62
3
100
AcDbLine
 10
247.0233538358011
 20
531.7383802095638
 30
0.0000000000000000
 11
252.0233538355385
 21
531.7383802095635
 31
0.0000000000000000
  0
LINE
  5
37F
100
AcDbEntity
  8
MAIN0
  6
CONTINUOUS
 62
3
100
AcDbLine
 10
252.0233538355385
 20
531.7383802095635
 30
0.0000000000000000
 11
281.0233538358066
 21
531.7383802095619
 31
0.0000000000000000
  0
LINE
  5
380
100
AcDbEntity
  8
MAIN0
  6
HIDDEN
 62
3
100
AcDbLine
 10
242.0233538358066
 20
528.7383802095641
 30
0.0000000000000000
 11
252.0233538355366
 21
528.7383802095635
 31
0.0000000000000000
  0
LINE
  5
381
100
AcDbEntity
  8
MAIN0
  6
CONTINUOUS
 62
3
100
AcDbLine
 10
252.0233538355366
 20
528.7383802095635
 30
0.0000000000000000
 11
286.0233538358064
 21
528.7383802095615
 31
0.0000000000000000
  0
LINE
  5
382
100
AcDbEntity
  8
MAIN0
  6
CONTINUOUS
 62
3
100
AcDbLine
 10
242.0233538358065
 20
490.7383802095641
 30
0.0000000000000000
 11
242.0233538358065
 21
493.5363391818484
 31
0.0000000000000000
  0
LINE
  5
383
100
AcDbEntity
  8
MAIN0
  6
HIDDEN
 62
3
100
AcDbLine
 10
242.0233538358065
 20
493.5363391818484
 30
0.0000000000000000
 11
242.0233538358066
 21
528.7383802095641
 31
0.0000000000000000
  0
LINE
  5
384
100
AcDbEntity
  8
MAIN0
  6
HIDDEN
 62
3
100
AcDbLine
 10
242.0233538358067
 20
558.7383802095641
 30
0.0000000000000000
 11
252.0233538355558
 21
558.7383802095635
 31
0.0000000000000000
  0
LINE
  5
385
100
AcDbEntity
  8
MAIN0
  6
CONTINUOUS
 62
3
100
AcDbLine
 10
252.0233538355558
 20
558.7383802095636
 30
0.0000000000000000
 11
286.0233538358067
 21
558.7383802095617
 31
0.0000000000000000
  0
LINE
  5
386
100
AcDbEntity
  8
MAIN0
  6
HIDDEN
 62
3
100
AcDbLine
 10
247.0233538358024
 20
555.7383802095638
 30
0.0000000000000000
 11
252.0233538355539
 21
555.7383802095635
 31
0.0000000000000000
  0
LINE
  5
387
100
AcDbEntity
  8
MAIN0
  6
CONTINUOUS
 62
3
100
AcDbLine
 10
252.0233538355539
 20
555.7383802095635
 30
0.0000000000000000
 11
281.0233538358065
 21
555.7383802095619
 31
0.0000000000000000
  0
LINE
  5
388
100
AcDbEntity
  8
MAIN0
  6
CONTINUOUS
 62
3
100
AcDbLine
 10
247.0233538358065
 20
487.7383802095637
 30
0.0000000000000000
 11
247.0233538358065
 21
496.8150770409299
 31
0.0000000000000000
  0
LINE
  5
389
100
AcDbEntity
  8
MAIN0
  6
HIDDEN
 62
3
100
AcDbLine
 10
247.0233538358065
 20
496.8150770409299
 30
0.0000000000000000
 11
247.0233538358066
 21
531.7383802095637
 31
0.0000000000000000
  0
LINE
  5
38A
100
AcDbEntity
  8
MAIN0
  6
CONTINUOUS
 62
3
100
AcDbLine
 10
286.0233538358067
 20
558.7383802095615
 30
0.0000000000000000
 11
286.0233538358067
 21
626.7383802095616
 31
0.0000000000000000
  0
LINE
  5
38B
100
AcDbEntity
  8
MAIN0
  6
CONTINUOUS
 62
3
100
AcDbLine
 10
247.0233538383663
 20
630.7383802095637
 30
0.0000000000000000
 11
281.0233538358067
 21
630.7383802095617
 31
0.0000000000000000
  0
LINE
  5
38C
100
AcDbEntity
  8
MAIN0
  6
HIDDEN
 62
3
100
AcDbLine
 10
247.0233538358066
 20
555.7383802095637
 30
0.0000000000000000
 11
247.0233538380224
 21
620.6616833772215
 31
0.0000000000000000
  0
LINE
  5
38D
100
AcDbEntity
  8
MAIN0
  6
CONTINUOUS
 62
3
100
AcDbLine
 10
247.0233538380224
 20
620.6616833772215
 30
0.0000000000000000
 11
247.0233538383663
 21
630.7383802095637
 31
0.0000000000000000
  0
LINE
  5
38E
100
AcDbEntity
  8
MAIN0
  6
HIDDEN
 62
3
100
AcDbLine
 10
242.0233538358067
 20
558.7383802095641
 30
0.0000000000000000
 11
242.0233791062177
 21
624.1444775741464
 31
0.0000000000000000
  0
LINE
  5
38F
100
AcDbEntity
  8
MAIN0
  6
CONTINUOUS
 62
3
100
AcDbLine
 10
242.0233791062176
 20
624.1444775741466
 30
0.0000000000000000
 11
242.0233801084023
 21
626.7383802095640
 31
0.0000000000000000
  0
LINE
  5
390
100
AcDbEntity
  8
MAIN0
  6
CONTINUOUS
 62
3
100
AcDbLine
 10
281.0233538358067
 20
626.7383802095618
 30
0.0000000000000000
 11
286.0233538358064
 21
626.7383802095615
 31
0.0000000000000000
  0
LINE
  5
391
100
AcDbEntity
  8
MAIN0
  6
CONTINUOUS
 62
3
100
AcDbLine
 10
242.0233801084023
 20
626.7383802095640
 30
0.0000000000000000
 11
247.0233538382298
 21
626.7383802095637
 31
0.0000000000000000
  0
LINE
  5
392
100
AcDbEntity
  8
MAIN0
  6
CONTINUOUS
 62
3
100
AcDbLine
 10
252.2826009528663
 20
629.1558378062276
 30
0.0000000000000000
 11
275.8055680946596
 21
629.1558378062263
 31
0.0000000000000000
  0
LINE
  5
393
100
AcDbEntity
  8
MAIN0
  6
CONTINUOUS
 62
3
100
AcDbLine
 10
281.0233538358066
 20
555.7383802095617
 30
0.0000000000000000
 11
281.0233538358067
 21
630.7383802095617
 31
0.0000000000000000
  0
LINE
  5
394
100
AcDbEntity
  8
MAIN0
  6
CONTINUOUS
 62
3
100
AcDbLine
 10
266.4040058894280
 20
629.1558378062268
 30
0.0000000000000000
 11
275.7848374066532
 21
598.7383802095620
 31
0.0000000000000000
  0
LINE
  5
395
100
AcDbEntity
  8
MAIN0
  6
CONTINUOUS
 62
3
100
AcDbLine
 10
275.8055680946595
 20
629.1558378062263
 30
0.0000000000000000
 11
266.4040058893802
 21
598.7383802095626
 31
0.0000000000000000
  0
LINE
  5
396
100
AcDbEntity
  8
MAIN0
  6
CONTINUOUS
 62
3
100
AcDbLine
 10
261.6427017822330
 20
598.7383802095590
 30
0.0000000000000000
 11
252.2826009528662
 21
629.1558378062276
 31
0.0000000000000000
  0
LINE
  5
397
100
AcDbEntity
  8
MAIN0
  6
CONTINUOUS
 62
3
100
AcDbLine
 10
261.6427017821854
 20
629.1558378062271
 30
0.0000000000000000
 11
252.2618702649539
 21
598.7383802095634
 31
0.0000000000000000
  0
LINE
  5
398
100
AcDbEntity
  8
MAIN0
  6
CONTINUOUS
 62
3
100
AcDbLine
 10
211.4233538357614
 20
417.7383802097674
 30
0.0000000000000000
 11
232.0233538357614
 21
417.7383802096873
 31
0.0000000000000000
  0
LINE
  5
399
100
AcDbEntity
  8
MAIN0
  6
CONTINUOUS
 62
3
100
AcDbLine
 10
232.0233538357110
 20
403.7383802096871
 30
0.0000000000000000
 11
252.0233538357110
 21
403.7383802096093
 31
0.0000000000000000
  0
LINE
  5
39A
100
AcDbEntity
  8
MAIN0
  6
CONTINUOUS
 62
3
100
AcDbLine
 10
142.2233538357111
 20
403.7383802100366
 30
0.0000000000000000
 11
211.4233538357111
 21
403.7383802097673
 31
0.0000000000000000
  0
LINE
  5
39B
100
AcDbEntity
  8
MAIN0
  6
CONTINUOUS
 62
3
100
AcDbLine
 10
232.0233538359269
 20
463.7383802096871
 30
0.0000000000000000
 11
252.0233538359269
 21
463.7383802096093
 31
0.0000000000000000
  0
LINE
  5
39C
100
AcDbEntity
  8
MAIN0
  6
CONTINUOUS
 62
3
100
AcDbLine
 10
142.2233538359269
 20
463.7383802100366
 30
0.0000000000000000
 11
211.4233538359268
 21
463.7383802097673
 31
0.0000000000000000
  0
LINE
  5
39D
100
AcDbEntity
  8
MAIN0
  6
CONTINUOUS
 62
3
100
AcDbLine
 10
211.4233538357613
 20
417.7383802097673
 30
0.0000000000000000
 11
211.4233538357109
 21
403.7383802097673
 31
0.0000000000000000
  0
LINE
  5
39E
100
AcDbEntity
  8
MAIN0
  6
CONTINUOUS
 62
3
100
AcDbLine
 10
232.0233538359267
 20
463.7383802096871
 30
0.0000000000000000
 11
232.0233538358764
 21
449.7383802096871
 31
0.0000000000000000
  0
LINE
  5
39F
100
AcDbEntity
  8
MAIN0
  6
CONTINUOUS
 62
3
100
AcDbLine
 10
232.0233538357613
 20
417.7383802096871
 30
0.0000000000000000
 11
232.0233538357110
 21
403.7383802096871
 31
0.0000000000000000
  0
LINE
  5
3A0
100
AcDbEntity
  8
MAIN0
  6
CONTINUOUS
 62
3
100
AcDbLine
 10
252.0233538359269
 20
463.7383802096093
 30
0.0000000000000000
 11
252.0233538358854
 21
452.1774691241917
 31
0.0000000000000000
  0
LINE
  5
3A1
100
AcDbEntity
  8
MAIN0
  6
CONTINUOUS
 62
3
100
AcDbLine
 10
252.0233538357526
 20
415.2992912950202
 30
0.0000000000000000
 11
252.0233538357111
 21
403.7383802096093
 31
0.0000000000000000
  0
LINE
  5
3A2
100
AcDbEntity
  8
MAIN0
  6
CONTINUOUS
 62
3
100
AcDbLine
 10
141.0233538359225
 20
462.5383802100412
 30
0.0000000000000000
 11
141.0233538357154
 21
404.9383802100413
 31
0.0000000000000000
  0
LINE
  5
3A3
100
AcDbEntity
  8
MAIN0
  6
CONTINUOUS
 62
3
100
AcDbLine
 10
142.2233538359271
 20
463.7383802100366
 30
0.0000000000000000
 11
141.0233538359228
 21
462.5383802100412
 31
0.0000000000000000
  0
LINE
  5
3A4
100
AcDbEntity
  8
MAIN0
  6
CONTINUOUS
 62
3
100
AcDbLine
 10
141.0233538357156
 20
404.9383802100414
 30
0.0000000000000000
 11
142.2233538357112
 21
403.7383802100367
 31
0.0000000000000000
  0
LINE
  5
3A5
100
AcDbEntity
  8
MAIN0
  6
CONTINUOUS
 62
3
100
AcDbLine
 10
141.0233538358550
 20
443.7383802100412
 30
0.0000000000000000
 11
244.4274358935924
 21
443.7383802096388
 31
0.0000000000000000
  0
LINE
  5
3A6
100
AcDbEntity
  8
MAIN0
  6
CONTINUOUS
 62
3
100
AcDbLine
 10
141.0233538357832
 20
423.7383802100412
 30
0.0000000000000000
 11
244.4274358935148
 21
423.7383802096388
 31
0.0000000000000000
  0
LINE
  5
3A7
100
AcDbEntity
  8
MAIN0
  6
CONTINUOUS
 62
3
100
AcDbLine
 10
211.4233538355114
 20
489.3807806473030
 30
0.0000000000000000
 11
211.4233538356004
 21
628.0959797720673
 31
0.0000000000000000
  0
LINE
  5
3A8
100
AcDbEntity
  8
MAIN0
  6
CONTINUOUS
 62
3
100
AcDbLine
 10
232.0233538355113
 20
489.3807806473120
 30
0.0000000000000000
 11
232.0233538356005
 21
628.0959797720725
 31
0.0000000000000000
  0
LINE
  5
3A9
100
AcDbEntity
  8
MAIN0
  6
CONTINUOUS
 62
3
100
AcDbLine
 10
252.0233538355166
 20
497.7383802101504
 30
0.0000000000000000
 11
252.0233538355663
 21
574.9227573824019
 31
0.0000000000000000
  0
LINE
  5
3AA
100
AcDbEntity
  8
MAIN0
  6
CONTINUOUS
 62
3
100
AcDbLine
 10
141.0233538355077
 20
483.7383802096647
 30
0.0000000000000000
 11
141.0233538355338
 21
524.5383802096648
 31
0.0000000000000000
  0
ARC
  5
3AB
100
AcDbEntity
  8
MAIN0
  6
CONTINUOUS
 62
3
100
AcDbCircle
 10
252.0233538355078
 20
483.7383802095450
 30
0.0000000000000000
 40
14.00000000060589
100
AcDbArc
 50
89.99999999997181
 51
179.9999999999718
  0
LINE
  5
3AC
100
AcDbEntity
  8
MAIN0
  6
CONTINUOUS
 62
3
100
AcDbLine
 10
211.4233538356004
 20
628.0959797720673
 30
0.0000000000000000
 11
232.0233538356006
 21
628.0959797720725
 31
0.0000000000000000
  0
LINE
  5
3AD
100
AcDbEntity
  8
MAIN0
  6
CONTINUOUS
 62
3
100
AcDbLine
 10
211.4233538355113
 20
489.3807806473030
 30
0.0000000000000000
 11
232.0233538355113
 21
489.3807806473120
 31
0.0000000000000000
  0
LINE
  5
3AE
100
AcDbEntity
  8
MAIN0
  6
CONTINUOUS
 62
3
100
AcDbLine
 10
156.0233538354936
 20
524.0063294013572
 30
0.0000000000000000
 11
157.0233538359278
 21
525.7383802096667
 31
0.0000000000000000
  0
LINE
  5
3AF
100
AcDbEntity
  8
MAIN0
  6
CONTINUOUS
 62
3
100
AcDbLine
 10
156.0233538354937
 20
524.0063294013571
 30
0.0000000000000000
 11
155.0233538350748
 21
525.7383802096704
 31
0.0000000000000000
  0
LINE
  5
3B0
100
AcDbEntity
  8
MAIN0
  6
CENTER
 62
3
100
AcDbLine
 10
156.0233538354838
 20
521.2704621351917
 30
0.0000000000000000
 11
156.0233538355057
 21
530.4412554717550
 31
0.0000000000000000
  0
LINE
  5
3B1
100
AcDbEntity
  8
MAIN0
  6
CONTINUOUS
 62
3
100
AcDbLine
 10
149.0233538354939
 20
524.0063294013689
 30
0.0000000000000000
 11
150.0233538359279
 21
525.7383802096783
 31
0.0000000000000000
  0
LINE
  5
3B2
100
AcDbEntity
  8
MAIN0
  6
CONTINUOUS
 62
3
100
AcDbLine
 10
149.0233538354938
 20
524.0063294013690
 30
0.0000000000000000
 11
148.0233538350750
 21
525.7383802096823
 31
0.0000000000000000
  0
LINE
  5
3B3
100
AcDbEntity
  8
MAIN0
  6
CENTER
 62
3
100
AcDbLine
 10
149.0233538354838
 20
521.2704621352034
 30
0.0000000000000000
 11
149.0233538355057
 21
530.4412554717667
 31
0.0000000000000000
  0
LINE
  5
3B4
100
AcDbEntity
  8
MAIN0
  6
CONTINUOUS
 62
3
100
AcDbLine
 10
232.0233538355204
 20
503.3807806471407
 30
0.0000000000000000
 11
252.0233538355205
 21
503.3807806471422
 31
0.0000000000000000
  0
LINE
  5
3B5
100
AcDbEntity
  8
MAIN0
  6
CONTINUOUS
 62
3
100
AcDbLine
 10
141.0233538355204
 20
503.3807806471339
 30
0.0000000000000000
 11
211.4233538355204
 21
503.3807806471392
 31
0.0000000000000000
  0
LINE
  5
3B6
100
AcDbEntity
  8
MAIN0
  6
CONTINUOUS
 62
3
100
AcDbLine
 10
141.0233538355077
 20
483.7383802096648
 30
0.0000000000000000
 11
154.0233538372183
 21
483.7383802096508
 31
0.0000000000000000
  0
LINE
  5
3B7
100
AcDbEntity
  8
MAIN0
  6
CONTINUOUS
 62
3
100
AcDbLine
 10
156.0233538358013
 20
483.7383802096486
 30
0.0000000000000000
 11
162.0233538372182
 21
483.7383802096421
 31
0.0000000000000000
  0
LINE
  5
3B8
100
AcDbEntity
  8
MAIN0
  6
CONTINUOUS
 62
3
100
AcDbLine
 10
164.0233538358013
 20
483.7383802096400
 30
0.0000000000000000
 11
170.0233538372183
 21
483.7383802096335
 31
0.0000000000000000
  0
LINE
  5
3B9
100
AcDbEntity
  8
MAIN0
  6
CONTINUOUS
 62
3
100
AcDbLine
 10
172.0233538358015
 20
483.7383802096313
 30
0.0000000000000000
 11
178.0233538372183
 21
483.7383802096248
 31
0.0000000000000000
  0
LINE
  5
3BA
100
AcDbEntity
  8
MAIN0
  6
CONTINUOUS
 62
3
100
AcDbLine
 10
180.0233538358013
 20
483.7383802096227
 30
0.0000000000000000
 11
186.0233538372183
 21
483.7383802096162
 31
0.0000000000000000
  0
LINE
  5
3BB
100
AcDbEntity
  8
MAIN0
  6
CONTINUOUS
 62
3
100
AcDbLine
 10
188.0233538358015
 20
483.7383802096140
 30
0.0000000000000000
 11
194.0233538372183
 21
483.7383802096076
 31
0.0000000000000000
  0
LINE
  5
3BC
100
AcDbEntity
  8
MAIN0
  6
CONTINUOUS
 62
3
100
AcDbLine
 10
196.0233538358015
 20
483.7383802096054
 30
0.0000000000000000
 11
202.0233538371995
 21
483.7383802095989
 31
0.0000000000000000
  0
LINE
  5
3BD
100
AcDbEntity
  8
MAIN0
  6
CONTINUOUS
 62
3
100
AcDbLine
 10
204.0233538357998
 20
483.7383802095968
 30
0.0000000000000000
 11
210.0233538372182
 21
483.7383802095903
 31
0.0000000000000000
  0
LINE
  5
3BE
100
AcDbEntity
  8
MAIN0
  6
CONTINUOUS
 62
3
100
AcDbLine
 10
212.0233538358014
 20
483.7383802095882
 30
0.0000000000000000
 11
218.0233538372183
 21
483.7383802095817
 31
0.0000000000000000
  0
LINE
  5
3BF
100
AcDbEntity
  8
MAIN0
  6
CONTINUOUS
 62
3
100
AcDbLine
 10
165.0233538355368
 20
528.7383802096653
 30
0.0000000000000000
 11
165.0233538355552
 21
557.7383802097247
 31
0.0000000000000000
  0
LINE
  5
3C0
100
AcDbEntity
  8
MAIN0
  6
CONTINUOUS
 62
3
100
AcDbLine
 10
205.0233538358760
 20
633.7383802095957
 30
0.0000000000000000
 11
211.0233538372926
 21
633.7383802095892
 31
0.0000000000000000
  0
LINE
  5
3C1
100
AcDbEntity
  8
MAIN0
  6
CONTINUOUS
 62
3
100
AcDbLine
 10
645.8218065446415
 20
463.7383802093574
 30
0.0000000000000000
 11
535.1066074195805
 21
463.7383802095421
 31
0.0000000000000000
  0
LINE
  5
3C2
100
AcDbEntity
  8
MAIN0
  6
CONTINUOUS
 62
3
100
AcDbLine
 10
645.8218065445415
 20
403.7383802093575
 30
0.0000000000000000
 11
535.1066074194805
 21
403.7383802095422
 31
0.0000000000000000
  0
LINE
  5
3C3
100
AcDbEntity
  8
MAIN0
  6
CONTINUOUS
 62
3
100
AcDbLine
 10
685.4642069822594
 20
503.3807806467415
 30
0.0000000000000000
 11
685.4642069824441
 21
614.0959797718026
 31
0.0000000000000000
  0
LINE
  5
3C4
100
AcDbEntity
  8
MAIN0
  6
CONTINUOUS
 62
3
100
AcDbLine
 10
705.4642069821467
 20
482.8043768549797
 30
0.0000000000000000
 11
685.4642069821689
 21
502.8043768549622
 31
0.0000000000000000
  0
LINE
  5
3C5
100
AcDbEntity
  8
MAIN0
  6
CONTINUOUS
 62
3
100
AcDbLine
 10
685.4642069821053
 20
364.0959797717060
 30
0.0000000000000000
 11
685.4642069820452
 21
253.3807806466449
 31
0.0000000000000000
  0
LINE
  5
3C6
100
AcDbEntity
  8
MAIN0
  6
CONTINUOUS
 62
3
100
AcDbLine
 10
162.0233538355386
 20
525.7383802096701
 30
0.0000000000000000
 11
163.9443359625080
 21
524.7383802096670
 31
0.0000000000000000
  0
LINE
  5
3C7
100
AcDbEntity
  8
MAIN0
  6
CONTINUOUS
 62
3
100
AcDbLine
 10
163.9443359625079
 20
524.7383802096670
 30
0.0000000000000000
 11
164.4233538355368
 21
524.7383802096662
 31
0.0000000000000000
  0
LINE
  5
3C8
100
AcDbEntity
  8
MAIN0
  6
CONTINUOUS
 62
3
100
AcDbLine
 10
166.0233538355396
 20
526.3383802096635
 30
0.0000000000000000
 11
166.0233538355404
 21
526.8173980826923
 31
0.0000000000000000
  0
LINE
  5
3C9
100
AcDbEntity
  8
MAIN0
  6
CONTINUOUS
 62
3
100
AcDbLine
 10
166.0233538355403
 20
526.8173980826923
 30
0.0000000000000000
 11
165.0233538355435
 21
528.7383802096651
 31
0.0000000000000000
  0
ARC
  5
3CA
100
AcDbEntity
  8
MAIN0
  6
CONTINUOUS
 62
3
100
AcDbCircle
 10
164.4233538355395
 20
526.3383802096662
 30
0.0000000000000000
 40
1.600000000000000
100
AcDbArc
 50
269.9999999999045
 51
359.9999999999046
  0
LINE
  5
3CB
100
AcDbEntity
  8
WAKU0
  6
CONTINUOUS
 62
3
100
AcDbLine
 10
824.0000000000000
 20
102.0000000000000
 30
0.0000000000000000
 11
1164.000000000000
 21
102.0000000000000
 31
0.0000000000000000
  0
LINE
  5
3CC
100
AcDbEntity
  8
WAKU0
  6
CONTINUOUS
 62
3
100
AcDbLine
 10
824.0000000000000
 20
102.0000000000000
 30
0.0000000000000000
 11
824.0000000000000
 21
24.00000000000000
 31
0.0000000000000000
  0
LINE
  5
3CD
100
AcDbEntity
  8
WAKU0
  6
CONTINUOUS
 62
3
100
AcDbLine
 10
968.0000000000000
 20
102.0000000000000
 30
0.0000000000000000
 11
968.0000000000000
 21
24.00000000000000
 31
0.0000000000000000
  0
LINE
  5
3CE
100
AcDbEntity
  8
WAKU0
  6
CONTINUOUS
 62
3
100
AcDbLine
 10
1008.000000000000
 20
102.0000000000000
 30
0.0000000000000000
 11
1008.000000000000
 21
24.00000000000000
 31
0.0000000000000000
  0
LINE
  5
3CF
100
AcDbEntity
  8
WAKU0
  6
CONTINUOUS
 62
3
100
AcDbLine
 10
1032.000000000000
 20
102.0000000000000
 30
0.0000000000000000
 11
1032.000000000000
 21
24.00000000000000
 31
0.0000000000000000
  0
LINE
  5
3D0
100
AcDbEntity
  8
WAKU0
  6
CONTINUOUS
 62
3
100
AcDbLine
 10
1032.000000000000
 20
74.00000000000000
 30
0.0000000000000000
 11
1164.000000000000
 21
74.00000000000000
 31
0.0000000000000000
  0
LINE
  5
3D1
100
AcDbEntity
  8
WAKU0
  6
CONTINUOUS
 62
3
100
AcDbLine
 10
1008.000000000000
 20
46.00000000000000
 30
0.0000000000000000
 11
1164.000000000000
 21
46.00000000000000
 31
0.0000000000000000
  0
LINE
  5
3D2
100
AcDbEntity
  8
WAKU0
  6
CONTINUOUS
 62
3
100
AcDbLine
 10
1094.000000000000
 20
102.0000000000000
 30
0.0000000000000000
 11
1094.000000000000
 21
88.00000000000000
 31
0.0000000000000000
  0
LINE
  5
3D3
100
AcDbEntity
  8
WAKU0
  6
CONTINUOUS
 62
3
100
AcDbLine
 10
1118.000000000000
 20
102.0000000000000
 30
0.0000000000000000
 11
1118.000000000000
 21
88.00000000000000
 31
0.0000000000000000
  0
LINE
  5
3D4
100
AcDbEntity
  8
WAKU0
  6
CONTINUOUS
 62
3
100
AcDbLine
 10
968.0000000000000
 20
63.00000000000000
 30
0.0000000000000000
 11
1008.000000000000
 21
63.00000000000000
 31
0.0000000000000000
  0
LINE
  5
3D5
100
AcDbEntity
  8
WAKU0
  6
CONTINUOUS
 62
3
100
AcDbLine
 10
1008.000000000000
 20
88.00000000000000
 30
0.0000000000000000
 11
1164.000000000000
 21
88.00000000000000
 31
0.0000000000000000
  0
LINE
  5
3D6
100
AcDbEntity
  8
WAKU0
  6
CONTINUOUS
 62
3
100
AcDbLine
 10
824.0000000000000
 20
74.00000000000000
 30
0.0000000000000000
 11
968.0000000000000
 21
74.00000000000000
 31
0.0000000000000000
  0
LINE
  5
3D7
100
AcDbEntity
  8
WAKU0
  6
CONTINUOUS
 62
3
100
AcDbLine
 10
824.0000000000000
 20
46.00000000000000
 30
0.0000000000000000
 11
968.0000000000000
 21
46.00000000000000
 31
0.0000000000000000
  0
LINE
  5
3D8
100
AcDbEntity
  8
WAKU0
  6
CONTINUOUS
 62
3
100
AcDbLine
 10
920.0000000000000
 20
74.00000000000000
 30
0.0000000000000000
 11
920.0000000000000
 21
24.00000000000000
 31
0.0000000000000000
  0
LINE
  5
3D9
100
AcDbEntity
  8
WAKU0
  6
CONTINUOUS
 62
3
100
AcDbLine
 10
872.0000000000000
 20
74.00000000000000
 30
0.0000000000000000
 11
872.0000000000000
 21
46.00000000000000
 31
0.0000000000000000
  0
LINE
  5
3DA
100
AcDbEntity
  8
WAKU0
  6
CONTINUOUS
 62
3
100
AcDbLine
 10
944.0000000000000
 20
52.00000000000000
 30
0.0000000000000000
 11
944.0000000000000
 21
46.00000000000000
 31
0.0000000000000000
  0
LINE
  5
3DB
100
AcDbEntity
  8
WAKU0
  6
CONTINUOUS
 62
3
100
AcDbLine
 10
896.0000000000000
 20
52.00000000000000
 30
0.0000000000000000
 11
896.0000000000000
 21
46.00000000000000
 31
0.0000000000000000
  0
LINE
  5
3DC
100
AcDbEntity
  8
WAKU0
  6
CONTINUOUS
 62
3
100
AcDbLine
 10
848.0000000000000
 20
52.00000000000000
 30
0.0000000000000000
 11
848.0000000000000
 21
46.00000000000000
 31
0.0000000000000000
  0
LINE
  5
3DD
100
AcDbEntity
  8
WAKU0
  6
CONTINUOUS
 62
3
100
AcDbLine
 10
860.0000000000000
 20
102.0000000000000
 30
0.0000000000000000
 11
860.0000000000000
 21
74.00000000000000
 31
0.0000000000000000
  0
LINE
  5
3DE
100
AcDbEntity
  8
WAKU0
  6
CONTINUOUS
 62
3
100
AcDbLine
 10
824.0000000000000
 20
90.00000000000000
 30
0.0000000000000000
 11
968.0000000000000
 21
90.00000000000000
 31
0.0000000000000000
  0
LINE
  5
3DF
100
AcDbEntity
  8
WAKU0
  6
HIDDEN
 62
3
100
AcDbLine
 10
1065.000000000000
 20
46.00000000000000
 30
0.0000000000000000
 11
1065.000000000000
 21
24.00000000000000
 31
0.0000000000000000
  0
LINE
  5
3E0
100
AcDbEntity
  8
WAKU0
  6
HIDDEN
 62
3
100
AcDbLine
 10
1089.800000000000
 20
46.00000000000000
 30
0.0000000000000000
 11
1089.800000000000
 21
24.00000000000000
 31
0.0000000000000000
  0
MTEXT
  5
3E1
100
AcDbEntity
  8
WAKU0
  6
CONTINUOUS
 62
3
100
AcDbMText
 10
1144.000000095367
 20
40.30000019073486
 30
0.0000000000000000
 40
10.60000038146973
 41
0.0000000000000000
 71
     1
 72
     1
  1
{\H0.81x;{3}}
 11
1.000000000000000
 21
0.0000000000000000
 31
0.0000000000000000
  7
STANDARD
  0
MTEXT
  5
3E2
100
AcDbEntity
  8
WAKU0
  6
CONTINUOUS
 62
3
100
AcDbMText
 10
1092.800000309944
 20
40.30000019073486
 30
0.0000000000000000
 40
10.60000038146973
 41
0.0000000000000000
 71
     1
 72
     1
  1
{\H0.90x;{6246}}
 11
1.000000000000000
 21
0.0000000000000000
 31
0.0000000000000000
  7
STANDARD
  0
MTEXT
  5
3E3
100
AcDbEntity
  8
WAKU0
  6
CONTINUOUS
 62
3
100
AcDbMText
 10
1068.600000166893
 20
40.30000019073486
 30
0.0000000000000000
 40
10.60000038146973
 41
0.0000000000000000
 71
     1
 72
     1
  1
{\H0.87x;{20}}
 11
1.000000000000000
 21
0.0000000000000000
 31
0.0000000000000000
  7
STANDARD
  0
MTEXT
  5
3E4
100
AcDbEntity
  8
WAKU0
  6
CONTINUOUS
 62
3
100
AcDbMText
 10
1035.000000238419
 20
40.30000019073486
 30
0.0000000000000000
 40
10.60000038146973
 41
0.0000000000000000
 71
     1
 72
     1
  1
{\H0.89x;{61T}}
 11
1.000000000000000
 21
0.0000000000000000
 31
0.0000000000000000
  7
STANDARD
  0
MTEXT
  5
3E5
100
AcDbEntity
  8
WAKU0
  6
CONTINUOUS
 62
3
100
AcDbMText
 10
1032.964000048697
 20
98.09999990463257
 30
0.0000000000000000
 40
6.199999809265137
 41
0.0000000000000000
 71
     1
 72
     1
  1
{\H0.93x;{IA5-200-0}}
 11
1.000000000000000
 21
0.0000000000000000
 31
0.0000000000000000
  7
STANDARD
  0
MTEXT
  5
3E6
100
AcDbEntity
  8
WAKU0
  6
CONTINUOUS
 62
3
100
AcDbMText
 10
980.0099997520447
 20
78.59999990463257
 30
0.0000000000000000
 40
6.199999809265137
 41
0.0000000000000000
 71
     1
 72
     1
  1
{\H0.90x;{1:1}}
 11
1.000000000000000
 21
0.0000000000000000
 31
0.0000000000000000
  7
STANDARD
  0
MTEXT
  5
3E7
100
AcDbEntity
  8
WAKU0
  6
CONTINUOUS
 62
3
100
AcDbMText
 10
1049.659998893738
 20
68.46666653951009
 30
0.0000000000000000
 40
6.199999809265137
 41
0.0000000000000000
 71
     1
 72
     1
  1
{\H0.94x;{ＩＡ５－２００－０　クミタテ\PＩＡ５－２００－０　ＡＳＳＹ}}
 11
1.000000000000000
 21
0.0000000000000000
 31
0.0000000000000000
  7
KNJYOKO
  0
MTEXT
  5
3E8
100
AcDbEntity
  8
WAKU0
  6
CONTINUOUS
 62
3
100
AcDbMText
 10
1041.300000965595
 20
87.00000000000000
 30
0.0000000000000000
 40
6.000000000000000
 41
0.0000000000000000
 71
     1
 72
     1
  1
{\H0.59x;{四ツヅメ単動チャック　２００\P４－ＪＡＷ　ＩＮＤＥＰＥＮＤＥＮＴ　ＣＨＵＣＫ　２００}}
 11
1.000000000000000
 21
0.0000000000000000
 31
0.0000000000000000
  7
KNJYOKO
  0
MTEXT
  5
3E9
100
AcDbEntity
  8
WAKU0
  6
CONTINUOUS
 62
3
100
AcDbMText
 10
1144.000000163913
 20
89.69999980926514
 30
0.0000000000000000
 40
10.60000038146973
 41
0.0000000000000000
 71
     7
 72
     1
  1
{\H0.81x;{ }}
 11
1.000000000000000
 21
0.0000000000000000
 31
0.0000000000000000
  7
STANDARD
  0
MTEXT
  5
3EA
100
AcDbEntity
  8
WAKU0
  6
CONTINUOUS
 62
3
100
AcDbMText
 10
922.7700005769730
 20
66.00000000000000
 30
0.0000000000000000
 40
6.000000000000000
 41
0.0000000000000000
 71
     7
 72
     1
  1
{\H0.93x;{DRAWN BY}}
 11
1.000000000000000
 21
0.0000000000000000
 31
0.0000000000000000
  7
STANDARD
  0
MTEXT
  5
3EB
100
AcDbEntity
  8
WAKU0
  6
CONTINUOUS
 62
3
100
AcDbMText
 10
882.4299995899200
 20
65.90000009536743
 30
0.0000000000000000
 40
6.199999809265137
 41
0.0000000000000000
 71
     7
 72
     1
  1
{\H0.92x;{CHIEF}}
 11
1.000000000000000
 21
0.0000000000000000
 31
0.0000000000000000
  7
STANDARD
  0
MTEXT
  5
3EC
100
AcDbEntity
  8
WAKU0
  6
CONTINUOUS
 62
3
100
AcDbMText
 10
828.8499994277954
 20
65.90000009536743
 30
0.0000000000000000
 40
6.199999809265137
 41
0.0000000000000000
 71
     7
 72
     1
  1
{\H0.92x;{MANAGER}}
 11
1.000000000000000
 21
0.0000000000000000
 31
0.0000000000000000
  7
STANDARD
  0
MTEXT
  5
3ED
100
AcDbEntity
  8
WAKU0
  6
CONTINUOUS
 62
3
100
AcDbMText
 10
833.3199988603592
 20
36.26666673024496
 30
0.0000000000000000
 40
6.199999809265137
 41
0.0000000000000000
 71
     7
 72
     1
  1
{\H0.93x;{KITAGAWA IRON\PWORKS CO.,LTD.}}
 11
1.000000000000000
 21
0.0000000000000000
 31
0.0000000000000000
  7
STANDARD
  0
MTEXT
  5
3EE
100
AcDbEntity
  8
WAKU0
  6
CONTINUOUS
 62
3
100
AcDbMText
 10
826.1700004339218
 20
93.00000000000000
 30
0.0000000000000000
 40
6.000000000000000
 41
0.0000000000000000
 71
     7
 72
     1
  1
{\H0.92x;{CAREER}}
 11
1.000000000000000
 21
0.0000000000000000
 31
0.0000000000000000
  7
STANDARD
  0
MTEXT
  5
3EF
100
AcDbEntity
  8
WAKU0
  6
CONTINUOUS
 62
3
100
AcDbMText
 10
933.2199996709824
 20
37.90000009536743
 30
0.0000000000000000
 40
6.199999809265137
 41
0.0000000000000000
 71
     7
 72
     1
  1
{\H0.91x;{DATE}}
 11
1.000000000000000
 21
0.0000000000000000
 31
0.0000000000000000
  7
STANDARD
  0
MTEXT
  5
3F0
100
AcDbEntity
  8
WAKU0
  6
CONTINUOUS
 62
3
100
AcDbMText
 10
971.8000004291534
 20
53.00000000000000
 30
0.0000000000000000
 40
6.000000000000000
 41
0.0000000000000000
 71
     7
 72
     1
  1
{\H0.63x;{3RD ANGLE}}
 11
1.000000000000000
 21
0.0000000000000000
 31
0.0000000000000000
  7
STANDARD
  0
MTEXT
  5
3F1
100
AcDbEntity
  8
WAKU0
  6
CONTINUOUS
 62
3
100
AcDbMText
 10
974.4299995899200
 20
91.90000009536743
 30
0.0000000000000000
 40
6.199999809265137
 41
0.0000000000000000
 71
     7
 72
     1
  1
{\H0.92x;{SCALE}}
 11
1.000000000000000
 21
0.0000000000000000
 31
0.0000000000000000
  7
STANDARD
  0
MTEXT
  5
3F2
100
AcDbEntity
  8
WAKU0
  6
CONTINUOUS
 62
3
100
AcDbMText
 10
1155.400000095367
 20
92.00000000000000
 30
0.0000000000000000
 40
6.000000000000000
 41
0.0000000000000000
 71
     7
 72
     1
  1
{\H0.63x;{kg}}
 11
1.000000000000000
 21
0.0000000000000000
 31
0.0000000000000000
  7
STANDARD
  0
MTEXT
  5
3F3
100
AcDbEntity
  8
WAKU0
  6
CONTINUOUS
 62
3
100
AcDbMText
 10
1095.200000286102
 20
92.00000000000000
 30
0.0000000000000000
 40
6.000000000000000
 41
0.0000000000000000
 71
     7
 72
     1
  1
{\H0.63x;{WEIGHT}}
 11
1.000000000000000
 21
0.0000000000000000
 31
0.0000000000000000
  7
STANDARD
  0
MTEXT
  5
3F4
100
AcDbEntity
  8
WAKU0
  6
CONTINUOUS
 62
3
100
AcDbMText
 10
1012.009999752045
 20
36.26666673024496
 30
0.0000000000000000
 40
6.199999809265137
 41
0.0000000000000000
 71
     7
 72
     1
  1
{\H0.90x;{DRW\PNO.}}
 11
1.000000000000000
 21
0.0000000000000000
 31
0.0000000000000000
  7
STANDARD
  0
MTEXT
  5
3F5
100
AcDbEntity
  8
WAKU0
  6
CONTINUOUS
 62
3
100
AcDbMText
 10
1009.219999670982
 20
63.90000009536743
 30
0.0000000000000000
 40
6.199999809265137
 41
0.0000000000000000
 71
     7
 72
     1
  1
{\H0.91x;{NAME}}
 11
1.000000000000000
 21
0.0000000000000000
 31
0.0000000000000000
  7
STANDARD
  0
MTEXT
  5
3F6
100
AcDbEntity
  8
WAKU0
  6
CONTINUOUS
 62
3
100
AcDbMText
 10
1009.219999670982
 20
91.90000009536743
 30
0.0000000000000000
 40
6.199999809265137
 41
0.0000000000000000
 71
     7
 72
     1
  1
{\H0.91x;{TYPE}}
 11
1.000000000000000
 21
0.0000000000000000
 31
0.0000000000000000
  7
STANDARD
  0
LINE
  5
3F7
100
AcDbEntity
  8
WAKU0
  6
HIDDEN
 62
3
100
AcDbLine
 10
1158.319912948777
 20
27.69999980926514
 30
0.0000000000000000
 11
1137.880087241958
 21
27.69999980926514
 31
0.0000000000000000
  0
LINE
  5
3F8
100
AcDbEntity
  8
WAKU0
  6
HIDDEN
 62
3
100
AcDbLine
 10
1158.319912948777
 20
27.69999980926500
 30
0.0000000000000000
 11
1148.100000095370
 21
45.40140812029802
 31
0.0000000000000000
  0
LINE
  5
3F9
100
AcDbEntity
  8
WAKU0
  6
HIDDEN
 62
3
100
AcDbLine
 10
1148.100000095370
 20
45.40140812029803
 30
0.0000000000000000
 11
1137.880087241958
 21
27.69999980926497
 31
0.0000000000000000
  0
POINT
  5
3FA
100
AcDbEntity
  8
WAKU0
  6
CONTINUOUS
 62
3
100
AcDbPoint
 10
884.0000000000000
 20
102.0000000000000
 30
0.0000000000000000
  0
INSERT
  5
44A
100
AcDbEntity
  8
WAKU0
  6
CONTINUOUS
 62
3
100
AcDbBlockReference
  2
M11
 10
0.0000000000000000
 20
0.0000000000000000
 30
0.0000000000000000
 50
0.0000000000000000
  0
LINE
  5
44B
100
AcDbEntity
  8
WAKU0
  6
CONTINUOUS
 62
3
100
AcDbLine
 10
1004.942775550760
 20
31.56082842525625
 30
0.0000000000000000
 11
1004.942775550760
 21
43.56082842525629
 31
0.0000000000000000
  0
LINE
  5
44C
100
AcDbEntity
  8
WAKU0
  6
CONTINUOUS
 62
3
100
AcDbLine
 10
991.8673882456450
 20
34.56082842525622
 30
0.0000000000000000
 11
991.8673882456450
 21
40.56082842525649
 31
0.0000000000000000
  0
LINE
  5
44D
100
AcDbEntity
  8
WAKU0
  6
CENTER
 62
12
100
AcDbLine
 10
970.8643611029991
 20
37.56082842525626
 30
0.0000000000000000
 11
1006.553157792939
 21
37.56082842525626
 31
0.0000000000000000
  0
LINE
  5
44E
100
AcDbEntity
  8
WAKU0
  6
CENTER
 62
12
100
AcDbLine
 10
978.8949131715972
 20
29.11843325836897
 30
0.0000000000000000
 11
978.8949131715972
 21
45.79730204299887
 31
0.0000000000000000
  0
LINE
  5
44F
100
AcDbEntity
  8
WAKU0
  6
CONTINUOUS
 62
3
100
AcDbLine
 10
991.8673882456451
 20
40.56082842525595
 30
0.0000000000000000
 11
1004.942775550760
 21
43.56082842525589
 31
0.0000000000000000
  0
LINE
  5
450
100
AcDbEntity
  8
WAKU0
  6
CONTINUOUS
 62
3
100
AcDbLine
 10
991.8673882456451
 20
34.56082842525623
 30
0.0000000000000000
 11
1004.942775550760
 21
31.56082842525624
 31
0.0000000000000000
  0
CIRCLE
  5
451
100
AcDbEntity
  8
WAKU0
  6
CONTINUOUS
 62
3
100
AcDbCircle
 10
978.8949131715972
 20
37.56082842525627
 30
0.0000000000000000
 40
2.999999999999943
  0
CIRCLE
  5
452
100
AcDbEntity
  8
WAKU0
  6
CONTINUOUS
 62
3
100
AcDbCircle
 10
978.8949131715972
 20
37.56082842525627
 30
0.0000000000000000
 40
5.999999999999957
  0
LINE
  5
453
100
AcDbEntity
  8
BM0
  6
CONTINUOUS
 62
3
100
AcDbLine
 10
884.0000000000000
 20
118.0000000000000
 30
0.0000000000000000
 11
1164.000000000000
 21
118.0000000000000
 31
0.0000000000000000
  0
LINE
  5
454
100
AcDbEntity
  8
BM0
  6
CONTINUOUS
 62
3
100
AcDbLine
 10
884.0000000000000
 20
102.0000000000000
 30
0.0000000000000000
 11
1164.000000000000
 21
102.0000000000000
 31
0.0000000000000000
  0
LINE
  5
455
100
AcDbEntity
  8
BM0
  6
CONTINUOUS
 62
3
100
AcDbLine
 10
884.0000000000000
 20
118.0000000000000
 30
0.0000000000000000
 11
884.0000000000000
 21
102.0000000000000
 31
0.0000000000000000
  0
LINE
  5
456
100
AcDbEntity
  8
BM0
  6
CONTINUOUS
 62
3
100
AcDbLine
 10
1164.000000000000
 20
118.0000000000000
 30
0.0000000000000000
 11
1164.000000000000
 21
102.0000000000000
 31
0.0000000000000000
  0
LINE
  5
457
100
AcDbEntity
  8
BM0
  6
CONTINUOUS
 62
3
100
AcDbLine
 10
900.0000000000000
 20
118.0000000000000
 30
0.0000000000000000
 11
900.0000000000000
 21
102.0000000000000
 31
0.0000000000000000
  0
LINE
  5
458
100
AcDbEntity
  8
BM0
  6
CONTINUOUS
 62
3
100
AcDbLine
 10
1000.000000000000
 20
118.0000000000000
 30
0.0000000000000000
 11
1000.000000000000
 21
102.0000000000000
 31
0.0000000000000000
  0
LINE
  5
459
100
AcDbEntity
  8
BM0
  6
CONTINUOUS
 62
3
100
AcDbLine
 10
1034.000000000000
 20
118.0000000000000
 30
0.0000000000000000
 11
1034.000000000000
 21
102.0000000000000
 31
0.0000000000000000
  0
LINE
  5
45A
100
AcDbEntity
  8
BM0
  6
CONTINUOUS
 62
3
100
AcDbLine
 10
1060.000000000000
 20
118.0000000000000
 30
0.0000000000000000
 11
1060.000000000000
 21
102.0000000000000
 31
0.0000000000000000
  0
LINE
  5
45B
100
AcDbEntity
  8
BM0
  6
CONTINUOUS
 62
3
100
AcDbLine
 10
1092.000000000000
 20
118.0000000000000
 30
0.0000000000000000
 11
1092.000000000000
 21
102.0000000000000
 31
0.0000000000000000
  0
MTEXT
  5
45C
100
AcDbEntity
  8
BM0
  6
CONTINUOUS
 62
3
100
AcDbMText
 10
1061.600000381470
 20
103.0000000000000
 30
0.0000000000000000
 40
6.000000000000000
 41
0.0000000000000000
 71
     7
 72
     1
  1
{\H0.63x;{WEIGHTkg}}
 11
1.000000000000000
 21
0.0000000000000000
 31
0.0000000000000000
  7
STANDARD
  0
MTEXT
  5
45D
100
AcDbEntity
  8
BM0
  6
CONTINUOUS
 62
3
100
AcDbMText
 10
1039.270000219345
 20
103.0000000000000
 30
0.0000000000000000
 40
6.000000000000000
 41
0.0000000000000000
 71
     7
 72
     1
  1
{\H0.90x;{NO.}}
 11
1.000000000000000
 21
0.0000000000000000
 31
0.0000000000000000
  7
STANDARD
  0
MTEXT
  5
45E
100
AcDbEntity
  8
BM0
  6
CONTINUOUS
 62
3
100
AcDbMText
 10
1109.470000505447
 20
103.0000000000000
 30
0.0000000000000000
 40
6.000000000000000
 41
0.0000000000000000
 71
     7
 72
     1
  1
{\H0.92x;{REMARKS}}
 11
1.000000000000000
 21
0.0000000000000000
 31
0.0000000000000000
  7
STANDARD
  0
MTEXT
  5
45F
100
AcDbEntity
  8
BM0
  6
CONTINUOUS
 62
3
100
AcDbMText
 10
1002.600000381470
 20
103.0000000000000
 30
0.0000000000000000
 40
6.000000000000000
 41
0.0000000000000000
 71
     7
 72
     1
  1
{\H0.63x;{MATERIAL}}
 11
1.000000000000000
 21
0.0000000000000000
 31
0.0000000000000000
  7
STANDARD
  0
MTEXT
  5
460
100
AcDbEntity
  8
BM0
  6
CONTINUOUS
 62
3
100
AcDbMText
 10
917.5799990892410
 20
103.2000000476837
 30
0.0000000000000000
 40
5.599999904632568
 41
0.0000000000000000
 71
     7
 72
     1
  1
{\H0.93x;{NAME     SIZE}}
 11
1.000000000000000
 21
0.0000000000000000
 31
0.0000000000000000
  7
STANDARD
  0
MTEXT
  5
461
100
AcDbEntity
  8
BM0
  6
CONTINUOUS
 62
3
100
AcDbMText
 10
884.8000001907349
 20
103.0000000000000
 30
0.0000000000000000
 40
6.000000000000000
 41
0.0000000000000000
 71
     7
 72
     1
  1
{\H0.63x;{MARK}}
 11
1.000000000000000
 21
0.0000000000000000
 31
0.0000000000000000
  7
STANDARD
  0
MTEXT
  5
462
100
AcDbEntity
  8
BM0
  6
CONTINUOUS
 62
3
100
AcDbMText
 10
1106.359999477863
 20
111.2000000476837
 30
0.0000000000000000
 40
5.599999904632568
 41
0.0000000000000000
 71
     7
 72
     1
  1
{\H0.93x;{記　　　　　事}}
 11
1.000000000000000
 21
0.0000000000000000
 31
0.0000000000000000
  7
KNJYOKO
  0
MTEXT
  5
463
100
AcDbEntity
  8
BM0
  6
CONTINUOUS
 62
3
100
AcDbMText
 10
1063.779999703169
 20
111.2000000476837
 30
0.0000000000000000
 40
5.599999904632568
 41
0.0000000000000000
 71
     7
 72
     1
  1
{\H0.92x;{１個重量}}
 11
1.000000000000000
 21
0.0000000000000000
 31
0.0000000000000000
  7
KNJYOKO
  0
MTEXT
  5
464
100
AcDbEntity
  8
BM0
  6
CONTINUOUS
 62
3
100
AcDbMText
 10
1036.500000178814
 20
111.0000000000000
 30
0.0000000000000000
 40
6.000000000000000
 41
0.0000000000000000
 71
     7
 72
     1
  1
{\H0.59x;{１組分個数}}
 11
1.000000000000000
 21
0.0000000000000000
 31
0.0000000000000000
  7
KNJYOKO
  0
MTEXT
  5
465
100
AcDbEntity
  8
BM0
  6
CONTINUOUS
 62
3
100
AcDbMText
 10
1004.779999703169
 20
111.2000000476837
 30
0.0000000000000000
 40
5.599999904632568
 41
0.0000000000000000
 71
     7
 72
     1
  1
{\H0.92x;{材　　質}}
 11
1.000000000000000
 21
0.0000000000000000
 31
0.0000000000000000
  7
KNJYOKO
  0
MTEXT
  5
466
100
AcDbEntity
  8
BM0
  6
CONTINUOUS
 62
3
100
AcDbMText
 10
915.7999991774559
 20
111.2000000476837
 30
0.0000000000000000
 40
5.599999904632568
 41
0.0000000000000000
 71
     7
 72
     1
  1
{\H0.94x;{品　　名　・　規　　格}}
 11
1.000000000000000
 21
0.0000000000000000
 31
0.0000000000000000
  7
KNJYOKO
  0
MTEXT
  5
467
100
AcDbEntity
  8
BM0
  6
CONTINUOUS
 62
3
100
AcDbMText
 10
885.6300001144409
 20
111.0000000000000
 30
0.0000000000000000
 40
6.000000000000000
 41
0.0000000000000000
 71
     7
 72
     1
  1
{\H0.90x;{符号}}
 11
1.000000000000000
 21
0.0000000000000000
 31
0.0000000000000000
  7
KNJYOKO
  0
LINE
  5
468
100
AcDbEntity
  8
BM0
  6
CONTINUOUS
 62
3
100
AcDbLine
 10
884.0000000000000
 20
130.0000000000000
 30
0.0000000000000000
 11
1164.000000000000
 21
130.0000000000000
 31
0.0000000000000000
  0
LINE
  5
469
100
AcDbEntity
  8
BM0
  6
CONTINUOUS
 62
3
100
AcDbLine
 10
900.0000000000000
 20
124.0000000000000
 30
0.0000000000000000
 11
1034.000000000000
 21
124.0000000000000
 31
0.0000000000000000
  0
LINE
  5
46A
100
AcDbEntity
  8
BM0
  6
CONTINUOUS
 62
3
100
AcDbLine
 10
1092.000000000000
 20
124.0000000000000
 30
0.0000000000000000
 11
1164.000000000000
 21
124.0000000000000
 31
0.0000000000000000
  0
LINE
  5
46B
100
AcDbEntity
  8
BM0
  6
CONTINUOUS
 62
3
100
AcDbLine
 10
884.0000000000000
 20
118.0000000000000
 30
0.0000000000000000
 11
884.0000000000000
 21
130.0000000000000
 31
0.0000000000000000
  0
LINE
  5
46C
100
AcDbEntity
  8
BM0
  6
CONTINUOUS
 62
3
100
AcDbLine
 10
900.0000000000000
 20
118.0000000000000
 30
0.0000000000000000
 11
900.0000000000000
 21
130.0000000000000
 31
0.0000000000000000
  0
LINE
  5
46D
100
AcDbEntity
  8
BM0
  6
CONTINUOUS
 62
3
100
AcDbLine
 10
1000.000000000000
 20
118.0000000000000
 30
0.0000000000000000
 11
1000.000000000000
 21
130.0000000000000
 31
0.0000000000000000
  0
LINE
  5
46E
100
AcDbEntity
  8
BM0
  6
CONTINUOUS
 62
3
100
AcDbLine
 10
1034.000000000000
 20
118.0000000000000
 30
0.0000000000000000
 11
1034.000000000000
 21
130.0000000000000
 31
0.0000000000000000
  0
LINE
  5
46F
100
AcDbEntity
  8
BM0
  6
CONTINUOUS
 62
3
100
AcDbLine
 10
1060.000000000000
 20
118.0000000000000
 30
0.0000000000000000
 11
1060.000000000000
 21
130.0000000000000
 31
0.0000000000000000
  0
LINE
  5
470
100
AcDbEntity
  8
BM0
  6
CONTINUOUS
 62
3
100
AcDbLine
 10
1092.000000000000
 20
118.0000000000000
 30
0.0000000000000000
 11
1092.000000000000
 21
130.0000000000000
 31
0.0000000000000000
  0
LINE
  5
471
100
AcDbEntity
  8
BM0
  6
CONTINUOUS
 62
3
100
AcDbLine
 10
1164.000000000000
 20
118.0000000000000
 30
0.0000000000000000
 11
1164.000000000000
 21
130.0000000000000
 31
0.0000000000000000
  0
LINE
  5
472
100
AcDbEntity
  8
BM0
  6
CONTINUOUS
 62
3
100
AcDbLine
 10
884.0000000000000
 20
142.0000000000000
 30
0.0000000000000000
 11
1164.000000000000
 21
142.0000000000000
 31
0.0000000000000000
  0
LINE
  5
473
100
AcDbEntity
  8
BM0
  6
CONTINUOUS
 62
3
100
AcDbLine
 10
900.0000000000000
 20
136.0000000000000
 30
0.0000000000000000
 11
1034.000000000000
 21
136.0000000000000
 31
0.0000000000000000
  0
LINE
  5
474
100
AcDbEntity
  8
BM0
  6
CONTINUOUS
 62
3
100
AcDbLine
 10
1092.000000000000
 20
136.0000000000000
 30
0.0000000000000000
 11
1164.000000000000
 21
136.0000000000000
 31
0.0000000000000000
  0
LINE
  5
475
100
AcDbEntity
  8
BM0
  6
CONTINUOUS
 62
3
100
AcDbLine
 10
884.0000000000000
 20
130.0000000000000
 30
0.0000000000000000
 11
884.0000000000000
 21
142.0000000000000
 31
0.0000000000000000
  0
LINE
  5
476
100
AcDbEntity
  8
BM0
  6
CONTINUOUS
 62
3
100
AcDbLine
 10
900.0000000000000
 20
130.0000000000000
 30
0.0000000000000000
 11
900.0000000000000
 21
142.0000000000000
 31
0.0000000000000000
  0
LINE
  5
477
100
AcDbEntity
  8
BM0
  6
CONTINUOUS
 62
3
100
AcDbLine
 10
1000.000000000000
 20
130.0000000000000
 30
0.0000000000000000
 11
1000.000000000000
 21
142.0000000000000
 31
0.0000000000000000
  0
LINE
  5
478
100
AcDbEntity
  8
BM0
  6
CONTINUOUS
 62
3
100
AcDbLine
 10
1034.000000000000
 20
130.0000000000000
 30
0.0000000000000000
 11
1034.000000000000
 21
142.0000000000000
 31
0.0000000000000000
  0
LINE
  5
479
100
AcDbEntity
  8
BM0
  6
CONTINUOUS
 62
3
100
AcDbLine
 10
1060.000000000000
 20
130.0000000000000
 30
0.0000000000000000
 11
1060.000000000000
 21
142.0000000000000
 31
0.0000000000000000
  0
LINE
  5
47A
100
AcDbEntity
  8
BM0
  6
CONTINUOUS
 62
3
100
AcDbLine
 10
1092.000000000000
 20
130.0000000000000
 30
0.0000000000000000
 11
1092.000000000000
 21
142.0000000000000
 31
0.0000000000000000
  0
LINE
  5
47B
100
AcDbEntity
  8
BM0
  6
CONTINUOUS
 62
3
100
AcDbLine
 10
1164.000000000000
 20
130.0000000000000
 30
0.0000000000000000
 11
1164.000000000000
 21
142.0000000000000
 31
0.0000000000000000
  0
MTEXT
  5
47C
100
AcDbEntity
  8
BM0
  6
CONTINUOUS
 62
3
100
AcDbMText
 10
889.5899999141693
 20
187.0999999046326
 30
0.0000000000000000
 40
6.199999809265137
 41
0.0000000000000000
 71
     1
 72
     1
  1
{\H0.81x;{ }}
 11
1.000000000000000
 21
0.0000000000000000
 31
0.0000000000000000
  7
STANDARD
  0
MTEXT
  5
47D
100
AcDbEntity
  8
BM0
  6
CONTINUOUS
 62
3
100
AcDbMText
 10
905.0000000745058
 20
189.0000000000000
 30
0.0000000000000000
 40
4.000000000000000
 41
0.0000000000000000
 71
     1
 72
     1
  1
{\H0.82x;{ }}
 11
1.000000000000000
 21
0.0000000000000000
 31
0.0000000000000000
  7
STANDARD
  0
MTEXT
  5
47E
100
AcDbEntity
  8
BM0
  6
CONTINUOUS
 62
3
100
AcDbMText
 10
905.0000000745058
 20
183.0000000000000
 30
0.0000000000000000
 40
4.000000000000000
 41
0.0000000000000000
 71
     1
 72
     1
  1
{\H0.82x;{ }}
 11
1.000000000000000
 21
0.0000000000000000
 31
0.0000000000000000
  7
STANDARD
  0
MTEXT
  5
47F
100
AcDbEntity
  8
BM0
  6
CONTINUOUS
 62
3
100
AcDbMText
 10
1001.700000025332
 20
189.0000000000000
 30
0.0000000000000000
 40
4.000000000000000
 41
0.0000000000000000
 71
     1
 72
     1
  1
{\H0.82x;{ }}
 11
1.000000000000000
 21
0.0000000000000000
 31
0.0000000000000000
  7
STANDARD
  0
MTEXT
  5
480
100
AcDbEntity
  8
BM0
  6
CONTINUOUS
 62
3
100
AcDbMText
 10
1001.700000025332
 20
183.0000000000000
 30
0.0000000000000000
 40
4.000000000000000
 41
0.0000000000000000
 71
     1
 72
     1
  1
{\H0.82x;{ }}
 11
1.000000000000000
 21
0.0000000000000000
 31
0.0000000000000000
  7
STANDARD
  0
MTEXT
  5
481
100
AcDbEntity
  8
BM0
  6
CONTINUOUS
 62
3
100
AcDbMText
 10
1053.879999808967
 20
187.0999999046326
 30
0.0000000000000000
 40
6.199999809265137
 41
0.0000000000000000
 71
     1
 72
     1
  1
{\H0.81x;{ }}
 11
1.000000000000000
 21
0.0000000000000000
 31
0.0000000000000000
  7
STANDARD
  0
MTEXT
  5
482
100
AcDbEntity
  8
BM0
  6
CONTINUOUS
 62
3
100
AcDbMText
 10
1085.579999804497
 20
187.0999999046326
 30
0.0000000000000000
 40
6.199999809265137
 41
0.0000000000000000
 71
     1
 72
     1
  1
{\H0.81x;{ }}
 11
1.000000000000000
 21
0.0000000000000000
 31
0.0000000000000000
  7
STANDARD
  0
MTEXT
  5
483
100
AcDbEntity
  8
BM0
  6
CONTINUOUS
 62
3
100
AcDbMText
 10
1095.600000053644
 20
189.0000000000000
 30
0.0000000000000000
 40
4.000000000000000
 41
0.0000000000000000
 71
     1
 72
     1
  1
{\H0.82x;{ }}
 11
1.000000000000000
 21
0.0000000000000000
 31
0.0000000000000000
  7
STANDARD
  0
MTEXT
  5
484
100
AcDbEntity
  8
BM0
  6
CONTINUOUS
 62
3
100
AcDbMText
 10
1095.600000053644
 20
183.0000000000000
 30
0.0000000000000000
 40
4.000000000000000
 41
0.0000000000000000
 71
     1
 72
     1
  1
{\H0.82x;{ }}
 11
1.000000000000000
 21
0.0000000000000000
 31
0.0000000000000000
  7
STANDARD
  0
LINE
  5
485
100
AcDbEntity
  8
BM0
  6
CONTINUOUS
 62
3
100
AcDbLine
 10
884.0000000000000
 20
154.0000000000000
 30
0.0000000000000000
 11
1164.000000000000
 21
154.0000000000000
 31
0.0000000000000000
  0
LINE
  5
486
100
AcDbEntity
  8
BM0
  6
CONTINUOUS
 62
3
100
AcDbLine
 10
900.0000000000000
 20
148.0000000000000
 30
0.0000000000000000
 11
1034.000000000000
 21
148.0000000000000
 31
0.0000000000000000
  0
LINE
  5
487
100
AcDbEntity
  8
BM0
  6
CONTINUOUS
 62
3
100
AcDbLine
 10
1092.000000000000
 20
148.0000000000000
 30
0.0000000000000000
 11
1164.000000000000
 21
148.0000000000000
 31
0.0000000000000000
  0
LINE
  5
488
100
AcDbEntity
  8
BM0
  6
CONTINUOUS
 62
3
100
AcDbLine
 10
884.0000000000000
 20
142.0000000000000
 30
0.0000000000000000
 11
884.0000000000000
 21
154.0000000000000
 31
0.0000000000000000
  0
LINE
  5
489
100
AcDbEntity
  8
BM0
  6
CONTINUOUS
 62
3
100
AcDbLine
 10
900.0000000000000
 20
142.0000000000000
 30
0.0000000000000000
 11
900.0000000000000
 21
154.0000000000000
 31
0.0000000000000000
  0
LINE
  5
48A
100
AcDbEntity
  8
BM0
  6
CONTINUOUS
 62
3
100
AcDbLine
 10
1000.000000000000
 20
142.0000000000000
 30
0.0000000000000000
 11
1000.000000000000
 21
154.0000000000000
 31
0.0000000000000000
  0
LINE
  5
48B
100
AcDbEntity
  8
BM0
  6
CONTINUOUS
 62
3
100
AcDbLine
 10
1034.000000000000
 20
142.0000000000000
 30
0.0000000000000000
 11
1034.000000000000
 21
154.0000000000000
 31
0.0000000000000000
  0
LINE
  5
48C
100
AcDbEntity
  8
BM0
  6
CONTINUOUS
 62
3
100
AcDbLine
 10
1060.000000000000
 20
142.0000000000000
 30
0.0000000000000000
 11
1060.000000000000
 21
154.0000000000000
 31
0.0000000000000000
  0
LINE
  5
48D
100
AcDbEntity
  8
BM0
  6
CONTINUOUS
 62
3
100
AcDbLine
 10
1092.000000000000
 20
142.0000000000000
 30
0.0000000000000000
 11
1092.000000000000
 21
154.0000000000000
 31
0.0000000000000000
  0
LINE
  5
48E
100
AcDbEntity
  8
BM0
  6
CONTINUOUS
 62
3
100
AcDbLine
 10
1164.000000000000
 20
142.0000000000000
 30
0.0000000000000000
 11
1164.000000000000
 21
154.0000000000000
 31
0.0000000000000000
  0
MTEXT
  5
48F
100
AcDbEntity
  8
BM0
  6
CONTINUOUS
 62
3
100
AcDbMText
 10
886.7999998331070
 20
175.0999999046326
 30
0.0000000000000000
 40
6.199999809265137
 41
0.0000000000000000
 71
     1
 72
     1
  1
{\H0.88x;{ E}}
 11
1.000000000000000
 21
0.0000000000000000
 31
0.0000000000000000
  7
STANDARD
  0
MTEXT
  5
490
100
AcDbEntity
  8
BM0
  6
CONTINUOUS
 62
3
100
AcDbMText
 10
905.0000000745058
 20
177.0000000000000
 30
0.0000000000000000
 40
4.000000000000000
 41
0.0000000000000000
 71
     1
 72
     1
  1
{\H0.92x;{ハンドル}}
 11
1.000000000000000
 21
0.0000000000000000
 31
0.0000000000000000
  7
KNJYOKO
  0
MTEXT
  5
491
100
AcDbEntity
  8
BM0
  6
CONTINUOUS
 62
3
100
AcDbMText
 10
905.0000000745058
 20
171.0000000000000
 30
0.0000000000000000
 40
4.000000000000000
 41
0.0000000000000000
 71
     1
 72
     1
  1
{\H0.92x;{HANDLE}}
 11
1.000000000000000
 21
0.0000000000000000
 31
0.0000000000000000
  7
STANDARD
  0
MTEXT
  5
492
100
AcDbEntity
  8
BM0
  6
CONTINUOUS
 62
3
100
AcDbMText
 10
1001.700000025332
 20
177.0000000000000
 30
0.0000000000000000
 40
4.000000000000000
 41
0.0000000000000000
 71
     1
 72
     1
  1
{\H0.82x;{ }}
 11
1.000000000000000
 21
0.0000000000000000
 31
0.0000000000000000
  7
STANDARD
  0
MTEXT
  5
493
100
AcDbEntity
  8
BM0
  6
CONTINUOUS
 62
3
100
AcDbMText
 10
1001.700000025332
 20
171.0000000000000
 30
0.0000000000000000
 40
4.000000000000000
 41
0.0000000000000000
 71
     1
 72
     1
  1
{\H0.82x;{ }}
 11
1.000000000000000
 21
0.0000000000000000
 31
0.0000000000000000
  7
STANDARD
  0
MTEXT
  5
494
100
AcDbEntity
  8
BM0
  6
CONTINUOUS
 62
3
100
AcDbMText
 10
1053.879999808967
 20
175.0999999046326
 30
0.0000000000000000
 40
6.199999809265137
 41
0.0000000000000000
 71
     1
 72
     1
  1
{\H0.81x;{1}}
 11
1.000000000000000
 21
0.0000000000000000
 31
0.0000000000000000
  7
STANDARD
  0
MTEXT
  5
495
100
AcDbEntity
  8
BM0
  6
CONTINUOUS
 62
3
100
AcDbMText
 10
1085.579999804497
 20
175.0999999046326
 30
0.0000000000000000
 40
6.199999809265137
 41
0.0000000000000000
 71
     1
 72
     1
  1
{\H0.81x;{ }}
 11
1.000000000000000
 21
0.0000000000000000
 31
0.0000000000000000
  7
STANDARD
  0
MTEXT
  5
496
100
AcDbEntity
  8
BM0
  6
CONTINUOUS
 62
3
100
AcDbMText
 10
1095.600000053644
 20
177.0000000000000
 30
0.0000000000000000
 40
4.000000000000000
 41
0.0000000000000000
 71
     1
 72
     1
  1
{\H0.82x;{ }}
 11
1.000000000000000
 21
0.0000000000000000
 31
0.0000000000000000
  7
STANDARD
  0
MTEXT
  5
497
100
AcDbEntity
  8
BM0
  6
CONTINUOUS
 62
3
100
AcDbMText
 10
1095.600000053644
 20
171.0000000000000
 30
0.0000000000000000
 40
4.000000000000000
 41
0.0000000000000000
 71
     1
 72
     1
  1
{\H0.82x;{ }}
 11
1.000000000000000
 21
0.0000000000000000
 31
0.0000000000000000
  7
STANDARD
  0
LINE
  5
498
100
AcDbEntity
  8
BM0
  6
CONTINUOUS
 62
3
100
AcDbLine
 10
884.0000000000000
 20
166.0000000000000
 30
0.0000000000000000
 11
1164.000000000000
 21
166.0000000000000
 31
0.0000000000000000
  0
LINE
  5
499
100
AcDbEntity
  8
BM0
  6
CONTINUOUS
 62
3
100
AcDbLine
 10
900.0000000000000
 20
160.0000000000000
 30
0.0000000000000000
 11
1034.000000000000
 21
160.0000000000000
 31
0.0000000000000000
  0
LINE
  5
49A
100
AcDbEntity
  8
BM0
  6
CONTINUOUS
 62
3
100
AcDbLine
 10
1092.000000000000
 20
160.0000000000000
 30
0.0000000000000000
 11
1164.000000000000
 21
160.0000000000000
 31
0.0000000000000000
  0
LINE
  5
49B
100
AcDbEntity
  8
BM0
  6
CONTINUOUS
 62
3
100
AcDbLine
 10
884.0000000000000
 20
154.0000000000000
 30
0.0000000000000000
 11
884.0000000000000
 21
166.0000000000000
 31
0.0000000000000000
  0
LINE
  5
49C
100
AcDbEntity
  8
BM0
  6
CONTINUOUS
 62
3
100
AcDbLine
 10
900.0000000000000
 20
154.0000000000000
 30
0.0000000000000000
 11
900.0000000000000
 21
166.0000000000000
 31
0.0000000000000000
  0
LINE
  5
49D
100
AcDbEntity
  8
BM0
  6
CONTINUOUS
 62
3
100
AcDbLine
 10
1000.000000000000
 20
154.0000000000000
 30
0.0000000000000000
 11
1000.000000000000
 21
166.0000000000000
 31
0.0000000000000000
  0
LINE
  5
49E
100
AcDbEntity
  8
BM0
  6
CONTINUOUS
 62
3
100
AcDbLine
 10
1034.000000000000
 20
154.0000000000000
 30
0.0000000000000000
 11
1034.000000000000
 21
166.0000000000000
 31
0.0000000000000000
  0
LINE
  5
49F
100
AcDbEntity
  8
BM0
  6
CONTINUOUS
 62
3
100
AcDbLine
 10
1060.000000000000
 20
154.0000000000000
 30
0.0000000000000000
 11
1060.000000000000
 21
166.0000000000000
 31
0.0000000000000000
  0
LINE
  5
4A0
100
AcDbEntity
  8
BM0
  6
CONTINUOUS
 62
3
100
AcDbLine
 10
1092.000000000000
 20
154.0000000000000
 30
0.0000000000000000
 11
1092.000000000000
 21
166.0000000000000
 31
0.0000000000000000
  0
LINE
  5
4A1
100
AcDbEntity
  8
BM0
  6
CONTINUOUS
 62
3
100
AcDbLine
 10
1164.000000000000
 20
154.0000000000000
 30
0.0000000000000000
 11
1164.000000000000
 21
166.0000000000000
 31
0.0000000000000000
  0
MTEXT
  5
4A2
100
AcDbEntity
  8
BM0
  6
CONTINUOUS
 62
3
100
AcDbMText
 10
886.7999998331070
 20
163.0999999046326
 30
0.0000000000000000
 40
6.199999809265137
 41
0.0000000000000000
 71
     1
 72
     1
  1
{\H0.88x;{ D}}
 11
1.000000000000000
 21
0.0000000000000000
 31
0.0000000000000000
  7
STANDARD
  0
MTEXT
  5
4A3
100
AcDbEntity
  8
BM0
  6
CONTINUOUS
 62
3
100
AcDbMText
 10
905.0000000745058
 20
165.0000000000000
 30
0.0000000000000000
 40
4.000000000000000
 41
0.0000000000000000
 71
     1
 72
     1
  1
{\H0.92x;{ストッパー}}
 11
1.000000000000000
 21
0.0000000000000000
 31
0.0000000000000000
  7
KNJYOKO
  0
MTEXT
  5
4A4
100
AcDbEntity
  8
BM0
  6
CONTINUOUS
 62
3
100
AcDbMText
 10
905.0000000745058
 20
159.0000000000000
 30
0.0000000000000000
 40
4.000000000000000
 41
0.0000000000000000
 71
     1
 72
     1
  1
{\H0.92x;{STOPPER}}
 11
1.000000000000000
 21
0.0000000000000000
 31
0.0000000000000000
  7
STANDARD
  0
MTEXT
  5
4A5
100
AcDbEntity
  8
BM0
  6
CONTINUOUS
 62
3
100
AcDbMText
 10
1001.700000025332
 20
165.0000000000000
 30
0.0000000000000000
 40
4.000000000000000
 41
0.0000000000000000
 71
     1
 72
     1
  1
{\H0.82x;{ }}
 11
1.000000000000000
 21
0.0000000000000000
 31
0.0000000000000000
  7
STANDARD
  0
MTEXT
  5
4A6
100
AcDbEntity
  8
BM0
  6
CONTINUOUS
 62
3
100
AcDbMText
 10
1001.700000025332
 20
159.0000000000000
 30
0.0000000000000000
 40
4.000000000000000
 41
0.0000000000000000
 71
     1
 72
     1
  1
{\H0.82x;{ }}
 11
1.000000000000000
 21
0.0000000000000000
 31
0.0000000000000000
  7
STANDARD
  0
MTEXT
  5
4A7
100
AcDbEntity
  8
BM0
  6
CONTINUOUS
 62
3
100
AcDbMText
 10
1053.879999808967
 20
163.0999999046326
 30
0.0000000000000000
 40
6.199999809265137
 41
0.0000000000000000
 71
     1
 72
     1
  1
{\H0.81x;{4}}
 11
1.000000000000000
 21
0.0000000000000000
 31
0.0000000000000000
  7
STANDARD
  0
MTEXT
  5
4A8
100
AcDbEntity
  8
BM0
  6
CONTINUOUS
 62
3
100
AcDbMText
 10
1085.579999804497
 20
163.0999999046326
 30
0.0000000000000000
 40
6.199999809265137
 41
0.0000000000000000
 71
     1
 72
     1
  1
{\H0.81x;{ }}
 11
1.000000000000000
 21
0.0000000000000000
 31
0.0000000000000000
  7
STANDARD
  0
MTEXT
  5
4A9
100
AcDbEntity
  8
BM0
  6
CONTINUOUS
 62
3
100
AcDbMText
 10
1095.600000053644
 20
165.0000000000000
 30
0.0000000000000000
 40
4.000000000000000
 41
0.0000000000000000
 71
     1
 72
     1
  1
{\H0.82x;{ }}
 11
1.000000000000000
 21
0.0000000000000000
 31
0.0000000000000000
  7
STANDARD
  0
MTEXT
  5
4AA
100
AcDbEntity
  8
BM0
  6
CONTINUOUS
 62
3
100
AcDbMText
 10
1095.600000053644
 20
159.0000000000000
 30
0.0000000000000000
 40
4.000000000000000
 41
0.0000000000000000
 71
     1
 72
     1
  1
{\H0.82x;{ }}
 11
1.000000000000000
 21
0.0000000000000000
 31
0.0000000000000000
  7
STANDARD
  0
LINE
  5
4AB
100
AcDbEntity
  8
BM0
  6
CONTINUOUS
 62
3
100
AcDbLine
 10
884.0000000000000
 20
178.0000000000000
 30
0.0000000000000000
 11
1164.000000000000
 21
178.0000000000000
 31
0.0000000000000000
  0
LINE
  5
4AC
100
AcDbEntity
  8
BM0
  6
CONTINUOUS
 62
3
100
AcDbLine
 10
900.0000000000000
 20
172.0000000000000
 30
0.0000000000000000
 11
1034.000000000000
 21
172.0000000000000
 31
0.0000000000000000
  0
LINE
  5
4AD
100
AcDbEntity
  8
BM0
  6
CONTINUOUS
 62
3
100
AcDbLine
 10
1092.000000000000
 20
172.0000000000000
 30
0.0000000000000000
 11
1164.000000000000
 21
172.0000000000000
 31
0.0000000000000000
  0
LINE
  5
4AE
100
AcDbEntity
  8
BM0
  6
CONTINUOUS
 62
3
100
AcDbLine
 10
884.0000000000000
 20
166.0000000000000
 30
0.0000000000000000
 11
884.0000000000000
 21
178.0000000000000
 31
0.0000000000000000
  0
LINE
  5
4AF
100
AcDbEntity
  8
BM0
  6
CONTINUOUS
 62
3
100
AcDbLine
 10
900.0000000000000
 20
166.0000000000000
 30
0.0000000000000000
 11
900.0000000000000
 21
178.0000000000000
 31
0.0000000000000000
  0
LINE
  5
4B0
100
AcDbEntity
  8
BM0
  6
CONTINUOUS
 62
3
100
AcDbLine
 10
1000.000000000000
 20
166.0000000000000
 30
0.0000000000000000
 11
1000.000000000000
 21
178.0000000000000
 31
0.0000000000000000
  0
LINE
  5
4B1
100
AcDbEntity
  8
BM0
  6
CONTINUOUS
 62
3
100
AcDbLine
 10
1034.000000000000
 20
166.0000000000000
 30
0.0000000000000000
 11
1034.000000000000
 21
178.0000000000000
 31
0.0000000000000000
  0
LINE
  5
4B2
100
AcDbEntity
  8
BM0
  6
CONTINUOUS
 62
3
100
AcDbLine
 10
1060.000000000000
 20
166.0000000000000
 30
0.0000000000000000
 11
1060.000000000000
 21
178.0000000000000
 31
0.0000000000000000
  0
LINE
  5
4B3
100
AcDbEntity
  8
BM0
  6
CONTINUOUS
 62
3
100
AcDbLine
 10
1092.000000000000
 20
166.0000000000000
 30
0.0000000000000000
 11
1092.000000000000
 21
178.0000000000000
 31
0.0000000000000000
  0
LINE
  5
4B4
100
AcDbEntity
  8
BM0
  6
CONTINUOUS
 62
3
100
AcDbLine
 10
1164.000000000000
 20
166.0000000000000
 30
0.0000000000000000
 11
1164.000000000000
 21
178.0000000000000
 31
0.0000000000000000
  0
MTEXT
  5
4B5
100
AcDbEntity
  8
BM0
  6
CONTINUOUS
 62
3
100
AcDbMText
 10
886.7999998331070
 20
151.0999999046326
 30
0.0000000000000000
 40
6.199999809265137
 41
0.0000000000000000
 71
     1
 72
     1
  1
{\H0.88x;{ C}}
 11
1.000000000000000
 21
0.0000000000000000
 31
0.0000000000000000
  7
STANDARD
  0
MTEXT
  5
4B6
100
AcDbEntity
  8
BM0
  6
CONTINUOUS
 62
3
100
AcDbMText
 10
905.0000000745058
 20
153.0000000000000
 30
0.0000000000000000
 40
4.000000000000000
 41
0.0000000000000000
 71
     1
 72
     1
  1
{\H0.92x;{ネジボウ}}
 11
1.000000000000000
 21
0.0000000000000000
 31
0.0000000000000000
  7
KNJYOKO
  0
MTEXT
  5
4B7
100
AcDbEntity
  8
BM0
  6
CONTINUOUS
 62
3
100
AcDbMText
 10
905.0000000745058
 20
147.0000000000000
 30
0.0000000000000000
 40
4.000000000000000
 41
0.0000000000000000
 71
     1
 72
     1
  1
{\H0.93x;{OPERATING　SCREW}}
 11
1.000000000000000
 21
0.0000000000000000
 31
0.0000000000000000
  7
KNJYOKO
  0
MTEXT
  5
4B8
100
AcDbEntity
  8
BM0
  6
CONTINUOUS
 62
3
100
AcDbMText
 10
1001.700000025332
 20
153.0000000000000
 30
0.0000000000000000
 40
4.000000000000000
 41
0.0000000000000000
 71
     1
 72
     1
  1
{\H0.82x;{ }}
 11
1.000000000000000
 21
0.0000000000000000
 31
0.0000000000000000
  7
STANDARD
  0
MTEXT
  5
4B9
100
AcDbEntity
  8
BM0
  6
CONTINUOUS
 62
3
100
AcDbMText
 10
1001.700000025332
 20
147.0000000000000
 30
0.0000000000000000
 40
4.000000000000000
 41
0.0000000000000000
 71
     1
 72
     1
  1
{\H0.82x;{ }}
 11
1.000000000000000
 21
0.0000000000000000
 31
0.0000000000000000
  7
STANDARD
  0
MTEXT
  5
4BA
100
AcDbEntity
  8
BM0
  6
CONTINUOUS
 62
3
100
AcDbMText
 10
1053.879999808967
 20
151.0999999046326
 30
0.0000000000000000
 40
6.199999809265137
 41
0.0000000000000000
 71
     1
 72
     1
  1
{\H0.81x;{4}}
 11
1.000000000000000
 21
0.0000000000000000
 31
0.0000000000000000
  7
STANDARD
  0
MTEXT
  5
4BB
100
AcDbEntity
  8
BM0
  6
CONTINUOUS
 62
3
100
AcDbMText
 10
1085.579999804497
 20
151.0999999046326
 30
0.0000000000000000
 40
6.199999809265137
 41
0.0000000000000000
 71
     1
 72
     1
  1
{\H0.81x;{ }}
 11
1.000000000000000
 21
0.0000000000000000
 31
0.0000000000000000
  7
STANDARD
  0
MTEXT
  5
4BC
100
AcDbEntity
  8
BM0
  6
CONTINUOUS
 62
3
100
AcDbMText
 10
1095.600000053644
 20
153.0000000000000
 30
0.0000000000000000
 40
4.000000000000000
 41
0.0000000000000000
 71
     1
 72
     1
  1
{\H0.82x;{ }}
 11
1.000000000000000
 21
0.0000000000000000
 31
0.0000000000000000
  7
STANDARD
  0
MTEXT
  5
4BD
100
AcDbEntity
  8
BM0
  6
CONTINUOUS
 62
3
100
AcDbMText
 10
1095.600000053644
 20
147.0000000000000
 30
0.0000000000000000
 40
4.000000000000000
 41
0.0000000000000000
 71
     1
 72
     1
  1
{\H0.82x;{ }}
 11
1.000000000000000
 21
0.0000000000000000
 31
0.0000000000000000
  7
STANDARD
  0
LINE
  5
4BE
100
AcDbEntity
  8
BM0
  6
CONTINUOUS
 62
3
100
AcDbLine
 10
884.0000000000000
 20
190.0000000000000
 30
0.0000000000000000
 11
1164.000000000000
 21
190.0000000000000
 31
0.0000000000000000
  0
LINE
  5
4BF
100
AcDbEntity
  8
BM0
  6
CONTINUOUS
 62
3
100
AcDbLine
 10
900.0000000000000
 20
184.0000000000000
 30
0.0000000000000000
 11
1034.000000000000
 21
184.0000000000000
 31
0.0000000000000000
  0
LINE
  5
4C0
100
AcDbEntity
  8
BM0
  6
CONTINUOUS
 62
3
100
AcDbLine
 10
1092.000000000000
 20
184.0000000000000
 30
0.0000000000000000
 11
1164.000000000000
 21
184.0000000000000
 31
0.0000000000000000
  0
LINE
  5
4C1
100
AcDbEntity
  8
BM0
  6
CONTINUOUS
 62
3
100
AcDbLine
 10
884.0000000000000
 20
178.0000000000000
 30
0.0000000000000000
 11
884.0000000000000
 21
190.0000000000000
 31
0.0000000000000000
  0
LINE
  5
4C2
100
AcDbEntity
  8
BM0
  6
CONTINUOUS
 62
3
100
AcDbLine
 10
900.0000000000000
 20
178.0000000000000
 30
0.0000000000000000
 11
900.0000000000000
 21
190.0000000000000
 31
0.0000000000000000
  0
LINE
  5
4C3
100
AcDbEntity
  8
BM0
  6
CONTINUOUS
 62
3
100
AcDbLine
 10
1000.000000000000
 20
178.0000000000000
 30
0.0000000000000000
 11
1000.000000000000
 21
190.0000000000000
 31
0.0000000000000000
  0
LINE
  5
4C4
100
AcDbEntity
  8
BM0
  6
CONTINUOUS
 62
3
100
AcDbLine
 10
1034.000000000000
 20
178.0000000000000
 30
0.0000000000000000
 11
1034.000000000000
 21
190.0000000000000
 31
0.0000000000000000
  0
LINE
  5
4C5
100
AcDbEntity
  8
BM0
  6
CONTINUOUS
 62
3
100
AcDbLine
 10
1060.000000000000
 20
178.0000000000000
 30
0.0000000000000000
 11
1060.000000000000
 21
190.0000000000000
 31
0.0000000000000000
  0
LINE
  5
4C6
100
AcDbEntity
  8
BM0
  6
CONTINUOUS
 62
3
100
AcDbLine
 10
1092.000000000000
 20
178.0000000000000
 30
0.0000000000000000
 11
1092.000000000000
 21
190.0000000000000
 31
0.0000000000000000
  0
LINE
  5
4C7
100
AcDbEntity
  8
BM0
  6
CONTINUOUS
 62
3
100
AcDbLine
 10
1164.000000000000
 20
178.0000000000000
 30
0.0000000000000000
 11
1164.000000000000
 21
190.0000000000000
 31
0.0000000000000000
  0
MTEXT
  5
4C8
100
AcDbEntity
  8
BM0
  6
CONTINUOUS
 62
3
100
AcDbMText
 10
886.7999998331070
 20
139.0999999046326
 30
0.0000000000000000
 40
6.199999809265137
 41
0.0000000000000000
 71
     1
 72
     1
  1
{\H0.88x;{ B}}
 11
1.000000000000000
 21
0.0000000000000000
 31
0.0000000000000000
  7
STANDARD
  0
MTEXT
  5
4C9
100
AcDbEntity
  8
BM0
  6
CONTINUOUS
 62
3
100
AcDbMText
 10
905.0000000745058
 20
141.0000000000000
 30
0.0000000000000000
 40
4.000000000000000
 41
0.0000000000000000
 71
     1
 72
     1
  1
{\H0.89x;{ツメ}}
 11
1.000000000000000
 21
0.0000000000000000
 31
0.0000000000000000
  7
KNJYOKO
  0
MTEXT
  5
4CA
100
AcDbEntity
  8
BM0
  6
CONTINUOUS
 62
3
100
AcDbMText
 10
905.0000000745058
 20
135.0000000000000
 30
0.0000000000000000
 40
4.000000000000000
 41
0.0000000000000000
 71
     1
 72
     1
  1
{\H0.90x;{JAW}}
 11
1.000000000000000
 21
0.0000000000000000
 31
0.0000000000000000
  7
STANDARD
  0
MTEXT
  5
4CB
100
AcDbEntity
  8
BM0
  6
CONTINUOUS
 62
3
100
AcDbMText
 10
1001.700000025332
 20
141.0000000000000
 30
0.0000000000000000
 40
4.000000000000000
 41
0.0000000000000000
 71
     1
 72
     1
  1
{\H0.82x;{ }}
 11
1.000000000000000
 21
0.0000000000000000
 31
0.0000000000000000
  7
STANDARD
  0
MTEXT
  5
4CC
100
AcDbEntity
  8
BM0
  6
CONTINUOUS
 62
3
100
AcDbMText
 10
1001.700000025332
 20
135.0000000000000
 30
0.0000000000000000
 40
4.000000000000000
 41
0.0000000000000000
 71
     1
 72
     1
  1
{\H0.82x;{ }}
 11
1.000000000000000
 21
0.0000000000000000
 31
0.0000000000000000
  7
STANDARD
  0
MTEXT
  5
4CD
100
AcDbEntity
  8
BM0
  6
CONTINUOUS
 62
3
100
AcDbMText
 10
1053.879999808967
 20
139.0999999046326
 30
0.0000000000000000
 40
6.199999809265137
 41
0.0000000000000000
 71
     1
 72
     1
  1
{\H0.81x;{4}}
 11
1.000000000000000
 21
0.0000000000000000
 31
0.0000000000000000
  7
STANDARD
  0
MTEXT
  5
4CE
100
AcDbEntity
  8
BM0
  6
CONTINUOUS
 62
3
100
AcDbMText
 10
1085.579999804497
 20
139.0999999046326
 30
0.0000000000000000
 40
6.199999809265137
 41
0.0000000000000000
 71
     1
 72
     1
  1
{\H0.81x;{ }}
 11
1.000000000000000
 21
0.0000000000000000
 31
0.0000000000000000
  7
STANDARD
  0
MTEXT
  5
4CF
100
AcDbEntity
  8
BM0
  6
CONTINUOUS
 62
3
100
AcDbMText
 10
1095.600000053644
 20
141.0000000000000
 30
0.0000000000000000
 40
4.000000000000000
 41
0.0000000000000000
 71
     1
 72
     1
  1
{\H0.82x;{ }}
 11
1.000000000000000
 21
0.0000000000000000
 31
0.0000000000000000
  7
STANDARD
  0
MTEXT
  5
4D0
100
AcDbEntity
  8
BM0
  6
CONTINUOUS
 62
3
100
AcDbMText
 10
1095.600000053644
 20
135.0000000000000
 30
0.0000000000000000
 40
4.000000000000000
 41
0.0000000000000000
 71
     1
 72
     1
  1
{\H0.82x;{ }}
 11
1.000000000000000
 21
0.0000000000000000
 31
0.0000000000000000
  7
STANDARD
  0
LINE
  5
4D1
100
AcDbEntity
  8
BM0
  6
CONTINUOUS
 62
3
100
AcDbLine
 10
884.0000000000000
 20
202.0000000000000
 30
0.0000000000000000
 11
1164.000000000000
 21
202.0000000000000
 31
0.0000000000000000
  0
LINE
  5
4D2
100
AcDbEntity
  8
BM0
  6
CONTINUOUS
 62
3
100
AcDbLine
 10
900.0000000000000
 20
196.0000000000000
 30
0.0000000000000000
 11
1034.000000000000
 21
196.0000000000000
 31
0.0000000000000000
  0
LINE
  5
4D3
100
AcDbEntity
  8
BM0
  6
CONTINUOUS
 62
3
100
AcDbLine
 10
1092.000000000000
 20
196.0000000000000
 30
0.0000000000000000
 11
1164.000000000000
 21
196.0000000000000
 31
0.0000000000000000
  0
LINE
  5
4D4
100
AcDbEntity
  8
BM0
  6
CONTINUOUS
 62
3
100
AcDbLine
 10
884.0000000000000
 20
190.0000000000000
 30
0.0000000000000000
 11
884.0000000000000
 21
202.0000000000000
 31
0.0000000000000000
  0
LINE
  5
4D5
100
AcDbEntity
  8
BM0
  6
CONTINUOUS
 62
3
100
AcDbLine
 10
900.0000000000000
 20
190.0000000000000
 30
0.0000000000000000
 11
900.0000000000000
 21
202.0000000000000
 31
0.0000000000000000
  0
LINE
  5
4D6
100
AcDbEntity
  8
BM0
  6
CONTINUOUS
 62
3
100
AcDbLine
 10
1000.000000000000
 20
190.0000000000000
 30
0.0000000000000000
 11
1000.000000000000
 21
202.0000000000000
 31
0.0000000000000000
  0
LINE
  5
4D7
100
AcDbEntity
  8
BM0
  6
CONTINUOUS
 62
3
100
AcDbLine
 10
1034.000000000000
 20
190.0000000000000
 30
0.0000000000000000
 11
1034.000000000000
 21
202.0000000000000
 31
0.0000000000000000
  0
LINE
  5
4D8
100
AcDbEntity
  8
BM0
  6
CONTINUOUS
 62
3
100
AcDbLine
 10
1060.000000000000
 20
190.0000000000000
 30
0.0000000000000000
 11
1060.000000000000
 21
202.0000000000000
 31
0.0000000000000000
  0
LINE
  5
4D9
100
AcDbEntity
  8
BM0
  6
CONTINUOUS
 62
3
100
AcDbLine
 10
1092.000000000000
 20
190.0000000000000
 30
0.0000000000000000
 11
1092.000000000000
 21
202.0000000000000
 31
0.0000000000000000
  0
LINE
  5
4DA
100
AcDbEntity
  8
BM0
  6
CONTINUOUS
 62
3
100
AcDbLine
 10
1164.000000000000
 20
190.0000000000000
 30
0.0000000000000000
 11
1164.000000000000
 21
202.0000000000000
 31
0.0000000000000000
  0
MTEXT
  5
4DB
100
AcDbEntity
  8
BM0
  6
CONTINUOUS
 62
3
100
AcDbMText
 10
886.7999998331070
 20
127.0999999046326
 30
0.0000000000000000
 40
6.199999809265137
 41
0.0000000000000000
 71
     1
 72
     1
  1
{\H0.88x;{ A}}
 11
1.000000000000000
 21
0.0000000000000000
 31
0.0000000000000000
  7
STANDARD
  0
MTEXT
  5
4DC
100
AcDbEntity
  8
BM0
  6
CONTINUOUS
 62
3
100
AcDbMText
 10
905.0000000745058
 20
129.0000000000000
 30
0.0000000000000000
 40
4.000000000000000
 41
0.0000000000000000
 71
     1
 72
     1
  1
{\H0.92x;{ホンタイ}}
 11
1.000000000000000
 21
0.0000000000000000
 31
0.0000000000000000
  7
KNJYOKO
  0
MTEXT
  5
4DD
100
AcDbEntity
  8
BM0
  6
CONTINUOUS
 62
3
100
AcDbMText
 10
905.0000000745058
 20
123.0000000000000
 30
0.0000000000000000
 40
4.000000000000000
 41
0.0000000000000000
 71
     1
 72
     1
  1
{\H0.91x;{BODY}}
 11
1.000000000000000
 21
0.0000000000000000
 31
0.0000000000000000
  7
STANDARD
  0
MTEXT
  5
4DE
100
AcDbEntity
  8
BM0
  6
CONTINUOUS
 62
3
100
AcDbMText
 10
1001.700000025332
 20
129.0000000000000
 30
0.0000000000000000
 40
4.000000000000000
 41
0.0000000000000000
 71
     1
 72
     1
  1
{\H0.82x;{ }}
 11
1.000000000000000
 21
0.0000000000000000
 31
0.0000000000000000
  7
STANDARD
  0
MTEXT
  5
4DF
100
AcDbEntity
  8
BM0
  6
CONTINUOUS
 62
3
100
AcDbMText
 10
1001.700000025332
 20
123.0000000000000
 30
0.0000000000000000
 40
4.000000000000000
 41
0.0000000000000000
 71
     1
 72
     1
  1
{\H0.82x;{ }}
 11
1.000000000000000
 21
0.0000000000000000
 31
0.0000000000000000
  7
STANDARD
  0
MTEXT
  5
4E0
100
AcDbEntity
  8
BM0
  6
CONTINUOUS
 62
3
100
AcDbMText
 10
1053.879999808967
 20
127.0999999046326
 30
0.0000000000000000
 40
6.199999809265137
 41
0.0000000000000000
 71
     1
 72
     1
  1
{\H0.81x;{1}}
 11
1.000000000000000
 21
0.0000000000000000
 31
0.0000000000000000
  7
STANDARD
  0
MTEXT
  5
4E1
100
AcDbEntity
  8
BM0
  6
CONTINUOUS
 62
3
100
AcDbMText
 10
1085.579999804497
 20
127.0999999046326
 30
0.0000000000000000
 40
6.199999809265137
 41
0.0000000000000000
 71
     1
 72
     1
  1
{\H0.81x;{ }}
 11
1.000000000000000
 21
0.0000000000000000
 31
0.0000000000000000
  7
STANDARD
  0
MTEXT
  5
4E2
100
AcDbEntity
  8
BM0
  6
CONTINUOUS
 62
3
100
AcDbMText
 10
1095.600000053644
 20
129.0000000000000
 30
0.0000000000000000
 40
4.000000000000000
 41
0.0000000000000000
 71
     1
 72
     1
  1
{\H0.82x;{ }}
 11
1.000000000000000
 21
0.0000000000000000
 31
0.0000000000000000
  7
STANDARD
  0
MTEXT
  5
4E3
100
AcDbEntity
  8
BM0
  6
CONTINUOUS
 62
3
100
AcDbMText
 10
1095.600000053644
 20
123.0000000000000
 30
0.0000000000000000
 40
4.000000000000000
 41
0.0000000000000000
 71
     1
 72
     1
  1
{\H0.82x;{ }}
 11
1.000000000000000
 21
0.0000000000000000
 31
0.0000000000000000
  7
STANDARD
  0
LINE
  5
4E4
100
AcDbEntity
  8
BM0
  6
CONTINUOUS
 62
3
100
AcDbLine
 10
884.0000000000000
 20
214.0000000000000
 30
0.0000000000000000
 11
1164.000000000000
 21
214.0000000000000
 31
0.0000000000000000
  0
LINE
  5
4E5
100
AcDbEntity
  8
BM0
  6
CONTINUOUS
 62
3
100
AcDbLine
 10
900.0000000000000
 20
208.0000000000000
 30
0.0000000000000000
 11
1034.000000000000
 21
208.0000000000000
 31
0.0000000000000000
  0
LINE
  5
4E6
100
AcDbEntity
  8
BM0
  6
CONTINUOUS
 62
3
100
AcDbLine
 10
1092.000000000000
 20
208.0000000000000
 30
0.0000000000000000
 11
1164.000000000000
 21
208.0000000000000
 31
0.0000000000000000
  0
LINE
  5
4E7
100
AcDbEntity
  8
BM0
  6
CONTINUOUS
 62
3
100
AcDbLine
 10
884.0000000000000
 20
202.0000000000000
 30
0.0000000000000000
 11
884.0000000000000
 21
214.0000000000000
 31
0.0000000000000000
  0
LINE
  5
4E8
100
AcDbEntity
  8
BM0
  6
CONTINUOUS
 62
3
100
AcDbLine
 10
900.0000000000000
 20
202.0000000000000
 30
0.0000000000000000
 11
900.0000000000000
 21
214.0000000000000
 31
0.0000000000000000
  0
LINE
  5
4E9
100
AcDbEntity
  8
BM0
  6
CONTINUOUS
 62
3
100
AcDbLine
 10
1000.000000000000
 20
202.0000000000000
 30
0.0000000000000000
 11
1000.000000000000
 21
214.0000000000000
 31
0.0000000000000000
  0
LINE
  5
4EA
100
AcDbEntity
  8
BM0
  6
CONTINUOUS
 62
3
100
AcDbLine
 10
1034.000000000000
 20
202.0000000000000
 30
0.0000000000000000
 11
1034.000000000000
 21
214.0000000000000
 31
0.0000000000000000
  0
LINE
  5
4EB
100
AcDbEntity
  8
BM0
  6
CONTINUOUS
 62
3
100
AcDbLine
 10
1060.000000000000
 20
202.0000000000000
 30
0.0000000000000000
 11
1060.000000000000
 21
214.0000000000000
 31
0.0000000000000000
  0
LINE
  5
4EC
100
AcDbEntity
  8
BM0
  6
CONTINUOUS
 62
3
100
AcDbLine
 10
1092.000000000000
 20
202.0000000000000
 30
0.0000000000000000
 11
1092.000000000000
 21
214.0000000000000
 31
0.0000000000000000
  0
LINE
  5
4ED
100
AcDbEntity
  8
BM0
  6
CONTINUOUS
 62
3
100
AcDbLine
 10
1164.000000000000
 20
202.0000000000000
 30
0.0000000000000000
 11
1164.000000000000
 21
214.0000000000000
 31
0.0000000000000000
  0
MTEXT
  5
4EE
100
AcDbEntity
  8
BM0
  6
CONTINUOUS
 62
3
100
AcDbMText
 10
886.7999998331070
 20
211.0999999046326
 30
0.0000000000000000
 40
6.199999809265137
 41
0.0000000000000000
 71
     1
 72
     1
  1
{\H0.88x;{04}}
 11
1.000000000000000
 21
0.0000000000000000
 31
0.0000000000000000
  7
STANDARD
  0
MTEXT
  5
4EF
100
AcDbEntity
  8
BM0
  6
CONTINUOUS
 62
3
100
AcDbMText
 10
905.0000000745058
 20
213.0000000000000
 30
0.0000000000000000
 40
4.000000000000000
 41
0.0000000000000000
 71
     1
 72
     1
  1
{\H0.93x;{スパナボウ　８}}
 11
1.000000000000000
 21
0.0000000000000000
 31
0.0000000000000000
  7
KNJYOKO
  0
MTEXT
  5
4F0
100
AcDbEntity
  8
BM0
  6
CONTINUOUS
 62
3
100
AcDbMText
 10
905.0000000745058
 20
207.0000000000000
 30
0.0000000000000000
 40
4.000000000000000
 41
0.0000000000000000
 71
     1
 72
     1
  1
{\H0.93x;{HEX KEY 8}}
 11
1.000000000000000
 21
0.0000000000000000
 31
0.0000000000000000
  7
STANDARD
  0
MTEXT
  5
4F1
100
AcDbEntity
  8
BM0
  6
CONTINUOUS
 62
3
100
AcDbMText
 10
1001.700000025332
 20
213.0000000000000
 30
0.0000000000000000
 40
4.000000000000000
 41
0.0000000000000000
 71
     1
 72
     1
  1
{\H0.82x;{ }}
 11
1.000000000000000
 21
0.0000000000000000
 31
0.0000000000000000
  7
STANDARD
  0
MTEXT
  5
4F2
100
AcDbEntity
  8
BM0
  6
CONTINUOUS
 62
3
100
AcDbMText
 10
1001.700000025332
 20
207.0000000000000
 30
0.0000000000000000
 40
4.000000000000000
 41
0.0000000000000000
 71
     1
 72
     1
  1
{\H0.82x;{ }}
 11
1.000000000000000
 21
0.0000000000000000
 31
0.0000000000000000
  7
STANDARD
  0
MTEXT
  5
4F3
100
AcDbEntity
  8
BM0
  6
CONTINUOUS
 62
3
100
AcDbMText
 10
1053.879999808967
 20
211.0999999046326
 30
0.0000000000000000
 40
6.199999809265137
 41
0.0000000000000000
 71
     1
 72
     1
  1
{\H0.81x;{1}}
 11
1.000000000000000
 21
0.0000000000000000
 31
0.0000000000000000
  7
STANDARD
  0
MTEXT
  5
4F4
100
AcDbEntity
  8
BM0
  6
CONTINUOUS
 62
3
100
AcDbMText
 10
1085.579999804497
 20
211.0999999046326
 30
0.0000000000000000
 40
6.199999809265137
 41
0.0000000000000000
 71
     1
 72
     1
  1
{\H0.81x;{ }}
 11
1.000000000000000
 21
0.0000000000000000
 31
0.0000000000000000
  7
STANDARD
  0
MTEXT
  5
4F5
100
AcDbEntity
  8
BM0
  6
CONTINUOUS
 62
3
100
AcDbMText
 10
1095.600000053644
 20
213.0000000000000
 30
0.0000000000000000
 40
4.000000000000000
 41
0.0000000000000000
 71
     1
 72
     1
  1
{\H0.82x;{ }}
 11
1.000000000000000
 21
0.0000000000000000
 31
0.0000000000000000
  7
STANDARD
  0
MTEXT
  5
4F6
100
AcDbEntity
  8
BM0
  6
CONTINUOUS
 62
3
100
AcDbMText
 10
1095.600000053644
 20
207.0000000000000
 30
0.0000000000000000
 40
4.000000000000000
 41
0.0000000000000000
 71
     1
 72
     1
  1
{\H0.82x;{ }}
 11
1.000000000000000
 21
0.0000000000000000
 31
0.0000000000000000
  7
STANDARD
  0
MTEXT
  5
4F7
100
AcDbEntity
  8
BM0
  6
CONTINUOUS
 62
3
100
AcDbMText
 10
886.7999998331070
 20
199.0999999046326
 30
0.0000000000000000
 40
6.199999809265137
 41
0.0000000000000000
 71
     1
 72
     1
  1
{\H0.88x;{02}}
 11
1.000000000000000
 21
0.0000000000000000
 31
0.0000000000000000
  7
STANDARD
  0
MTEXT
  5
4F8
100
AcDbEntity
  8
BM0
  6
CONTINUOUS
 62
3
100
AcDbMText
 10
905.0000000745058
 20
201.0000000000000
 30
0.0000000000000000
 40
4.000000000000000
 41
0.0000000000000000
 71
     1
 72
     1
  1
{\H0.94x;{Ｂアナツキ　Ｍ１０×７５}}
 11
1.000000000000000
 21
0.0000000000000000
 31
0.0000000000000000
  7
KNJYOKO
  0
MTEXT
  5
4F9
100
AcDbEntity
  8
BM0
  6
CONTINUOUS
 62
3
100
AcDbMText
 10
905.0000000745058
 20
195.0000000000000
 30
0.0000000000000000
 40
4.000000000000000
 41
0.0000000000000000
 71
     1
 72
     1
  1
{\H0.63x;{HEX SOCKET HEAD CAP SCREW M10×75}}
 11
1.000000000000000
 21
0.0000000000000000
 31
0.0000000000000000
  7
KNJYOKO
  0
MTEXT
  5
4FA
100
AcDbEntity
  8
BM0
  6
CONTINUOUS
 62
3
100
AcDbMText
 10
1001.700000025332
 20
201.0000000000000
 30
0.0000000000000000
 40
4.000000000000000
 41
0.0000000000000000
 71
     1
 72
     1
  1
{\H0.82x;{ }}
 11
1.000000000000000
 21
0.0000000000000000
 31
0.0000000000000000
  7
STANDARD
  0
MTEXT
  5
4FB
100
AcDbEntity
  8
BM0
  6
CONTINUOUS
 62
3
100
AcDbMText
 10
1001.700000025332
 20
195.0000000000000
 30
0.0000000000000000
 40
4.000000000000000
 41
0.0000000000000000
 71
     1
 72
     1
  1
{\H0.82x;{ }}
 11
1.000000000000000
 21
0.0000000000000000
 31
0.0000000000000000
  7
STANDARD
  0
MTEXT
  5
4FC
100
AcDbEntity
  8
BM0
  6
CONTINUOUS
 62
3
100
AcDbMText
 10
1053.879999808967
 20
199.0999999046326
 30
0.0000000000000000
 40
6.199999809265137
 41
0.0000000000000000
 71
     1
 72
     1
  1
{\H0.81x;{4}}
 11
1.000000000000000
 21
0.0000000000000000
 31
0.0000000000000000
  7
STANDARD
  0
MTEXT
  5
4FD
100
AcDbEntity
  8
BM0
  6
CONTINUOUS
 62
3
100
AcDbMText
 10
1085.579999804497
 20
199.0999999046326
 30
0.0000000000000000
 40
6.199999809265137
 41
0.0000000000000000
 71
     1
 72
     1
  1
{\H0.81x;{ }}
 11
1.000000000000000
 21
0.0000000000000000
 31
0.0000000000000000
  7
STANDARD
  0
MTEXT
  5
4FE
100
AcDbEntity
  8
BM0
  6
CONTINUOUS
 62
3
100
AcDbMText
 10
1095.600000053644
 20
201.0000000000000
 30
0.0000000000000000
 40
4.000000000000000
 41
0.0000000000000000
 71
     1
 72
     1
  1
{\H0.82x;{ }}
 11
1.000000000000000
 21
0.0000000000000000
 31
0.0000000000000000
  7
STANDARD
  0
MTEXT
  5
4FF
100
AcDbEntity
  8
BM0
  6
CONTINUOUS
 62
3
100
AcDbMText
 10
1095.600000053644
 20
195.0000000000000
 30
0.0000000000000000
 40
4.000000000000000
 41
0.0000000000000000
 71
     1
 72
     1
  1
{\H0.82x;{ }}
 11
1.000000000000000
 21
0.0000000000000000
 31
0.0000000000000000
  7
STANDARD
  0
ENDSEC
  0
SECTION
  2
OBJECTS
  0
DICTIONARY
  5
532
100
AcDbDictionary
  3
ACAD_GROUP
350
533
  3
ACAD_MLINESTYLE
350
534
  3
DWGPROPS
350
535
  0
DICTIONARY
  5
533
102
{ACAD_REACTORS
330
532
102
}
100
AcDbDictionary
  0
DICTIONARY
  5
534
102
{ACAD_REACTORS
330
532
102
}
100
AcDbDictionary
  3
STANDARD
350
536
  0
MLINESTYLE
  5
536
102
{ACAD_REACTORS
330
534
102
}
100
AcDbMlineStyle
  2
STANDARD
 70
     0
  3

 62
   256
 51
90.00
 52
90.00
 71
     2
 49
0.50
 62
   256
  6
BYLAYER
 49
-0.50
 62
   256
  6
BYLAYER
  0
XRECORD
  5
535
102
{ACAD_REACTORS
330
532
102
}
100
AcDbXrecord
280
     1
  1
DWGPROPS COOKIE
  2
ＩＣ－８　クミタテ
  3

  4

  6
四爪単動チャック　８
  7

  8

  9

300
=
301
=
302
=
303
=
304
=
305
=
306
=
307
=
308
=
309
=
 40
0.000000
 41
0.000000
 42
0.000000
  1

 90
        0
  0
ENDSEC
  0
EOF
