  0
SECTION
  2
HEADER
  9
$ACADVER
  1
AC1014
  9
$DWGCODEPAGE
  3
ANSI_932
  9
$LTSCALE
 40
20.0
  9
$FILLMODE
 70
     1
  9
$CLAYER
  8
0
  9
$PDMODE
 70
     0
  9
$SPLFRAME
 70
     0
  9
$SPLINETYPE
 70
     6
  9
$SPLINESEGS
 70
     8
  9
$DIMASZ
 40
2.000000
  9
$DIMEXE
 40
2.000000
  9
$DIMEXO
 40
0.800000
  9
$DIMTAD
 70
     1
  9
$DIMTIH
 70
     0
  9
$DIMTOH
 70
     0
  9
$DIMTVP
 40
0.500000
  9
$DIMTXT
 40
3.100000
  9
$EXTMIN
 10
0.000000
 20
0.000000
 30
0.000000
  9
$EXTMAX
 10
420.000000
 20
594.000000
 30
0.000000
  9
$MEASUREMENT
 70
  1
  9
$LIMMIN
 10
0.000000
 20
0.000000
  9
$LIMMAX
 10
420.000000
 20
594.000000
  9
$HANDLING
 70
     1
  9
$HANDSEED
  5
508
  9
$DIMBLK
  1
_OPEN
  9
$DIMDEC
 70
     3
  9
$DIMAUNIT
 70
     1
  9
$DIMZIN
 70
     8
  9
$DIMTOFL
 70
     1
  0
ENDSEC
  0
SECTION
  2
CLASSES
  0
ENDSEC
  0
SECTION
  2
TABLES
  0
TABLE
  2
VPORT
  5
4D8
100
AcDbSymbolTable
 70
     1
  0
VPORT
  5
4D9
100
AcDbSymbolTableRecord
100
AcDbViewportTableRecord
  2
*ACTIVE
 70
     0
 12
594.000000
 22
420.000000
 40
840.000000
 41
1.414286
  0
ENDTAB
  0
TABLE
  2
LTYPE
  5
4DA
100
AcDbSymbolTable
 70
     4
  0
LTYPE
  5
4DB
100
AcDbSymbolTableRecord
100
AcDbLinetypeTableRecord
  2
BYBLOCK
 70
     0
  3

 72
    65
 73
     0
 40
0.0
  0
LTYPE
  5
4DC
100
AcDbSymbolTableRecord
100
AcDbLinetypeTableRecord
  2
BYLAYER
 70
     0
  3

 72
    65
 73
     0
 40
0.0
  0
LTYPE
  5
4DD
100
AcDbSymbolTableRecord
100
AcDbLinetypeTableRecord
  2
CONTINUOUS
 70
     0
  3
Solid line (NEC CAE2D for Win R14.2 : 2025.07.08)
 72
    65
 73
     0
 40
0.0
  0
LTYPE
  5
4DE
100
AcDbSymbolTableRecord
100
AcDbLinetypeTableRecord
  2
HIDDEN
 70
     0
  3
__ __ __ __ __ __ __ __ __ __ __ __ __ __
 72
    65
 73
     2
 40
0.375
 49
0.25
 74
     0
 49
-0.125
 74
     0
  0
LTYPE
  5
4DF
100
AcDbSymbolTableRecord
100
AcDbLinetypeTableRecord
  2
CENTER
 70
     0
  3
____ _ ____ _ ____ _ ____ _ ____ _ ____
 72
    65
 73
     4
 40
2.0
 49
1.25
 74
     0
 49
-0.25
 74
     0
 49
0.25
 74
     0
 49
-0.25
 74
     0
  0
LTYPE
  5
4E0
100
AcDbSymbolTableRecord
100
AcDbLinetypeTableRecord
  2
PHANTOM
 70
     0
  3
______  __  __  ______  __  __  ______ 
 72
    65
 73
     6
 40
2.5
 49
1.25
 74
     0
 49
-0.25
 74
     0
 49
0.25
 74
     0
 49
-0.25
 74
     0
 49
0.25
 74
     0
 49
-0.25
 74
     0
  0
ENDTAB
  0
TABLE
  2
LAYER
  5
4E1
100
AcDbSymbolTable
 70
     8
  0
LAYER
  5
4E2
100
AcDbSymbolTableRecord
100
AcDbLayerTableRecord
  2
0
 70
     0
 62
     7
  6
CONTINUOUS
  0
LAYER
  5
4E3
100
AcDbSymbolTableRecord
100
AcDbLayerTableRecord
  2
MAIN0
 70
     0
 62
     7
  6
CONTINUOUS
  0
LAYER
  5
4E4
100
AcDbSymbolTableRecord
100
AcDbLayerTableRecord
  2
MAIN1
 70
     0
 62
     7
  6
CONTINUOUS
  0
LAYER
  5
4E5
100
AcDbSymbolTableRecord
100
AcDbLayerTableRecord
  2
MAIN2
 70
     0
 62
     7
  6
CONTINUOUS
  0
LAYER
  5
4E6
100
AcDbSymbolTableRecord
100
AcDbLayerTableRecord
  2
MAIN3
 70
     0
 62
     7
  6
CONTINUOUS
  0
LAYER
  5
4E7
100
AcDbSymbolTableRecord
100
AcDbLayerTableRecord
  2
MAIN1023
 70
     0
 62
    16
  6
CONTINUOUS
  0
LAYER
  5
4E8
100
AcDbSymbolTableRecord
100
AcDbLayerTableRecord
  2
WAKU0
 70
     0
 62
     7
  6
CONTINUOUS
  0
LAYER
  5
4E9
100
AcDbSymbolTableRecord
100
AcDbLayerTableRecord
  2
WAKU1023
 70
     0
 62
    16
  6
CONTINUOUS
  0
ENDTAB
  0
TABLE
  2
STYLE
  5
4EA
100
AcDbSymbolTable
 70
     4
  0
STYLE
  5
4EB
100
AcDbSymbolTableRecord
100
AcDbTextStyleTableRecord
  2
STANDARD
 70
    64
 40
0.0
 41
1.0
 50
0.0
 71
     0
 42
6.200000762939453
  3
TXT
  4

  0
STYLE
  5
4EC
100
AcDbSymbolTableRecord
100
AcDbTextStyleTableRecord
  2
ANKTATE
 70
    68
 40
0.0
 41
1.0
 50
0.0
 71
     0
 42
6.200000762939453
  3
TXT
  4

  0
STYLE
  5
4ED
100
AcDbSymbolTableRecord
100
AcDbTextStyleTableRecord
  2
KNJYOKO
 70
    64
 40
0.0
 41
1.0
 50
0.0
 71
     0
 42
6.200000762939453
  3
TXT
  4
BIGFONT
  0
STYLE
  5
4EE
100
AcDbSymbolTableRecord
100
AcDbTextStyleTableRecord
  2
KNJTATE
 70
    68
 40
0.0
 41
1.0
 50
0.0
 71
     0
 42
6.200000762939453
  3
TXT
  4
BIGFONT
  0
ENDTAB
  0
TABLE
  2
VIEW
  5
4EF
100
AcDbSymbolTable
 70
     0
  0
ENDTAB
  0
TABLE
  2
UCS
  5
4F0
100
AcDbSymbolTable
 70
     0
  0
ENDTAB
  0
TABLE
  2
APPID
  5
4F1
100
AcDbSymbolTable
 70
     1
  0
APPID
  5
4F2
100
AcDbSymbolTableRecord
100
AcDbRegAppTableRecord
  2
ACAD
 70
     0
  0
ENDTAB
  0
TABLE
  2
DIMSTYLE
  5
4F3
100
AcDbSymbolTable
 70
     1
  0
DIMSTYLE
105
4F4
100
AcDbSymbolTableRecord
100
AcDbDimStyleTableRecord
  2
STANDARD
 70
     0
 41
2.000000
 44
2.000000
 42
0.800000
145
0.661290
140
3.100000
144
1.000000
146
0.903226
340
4EB
  0
DIMSTYLE
105
4F5
100
AcDbSymbolTableRecord
100
AcDbDimStyleTableRecord
  2
MAIN001
 70
     0
 41
4.000000
 44
4.000000
 42
1.600000
145
0.580645
140
6.200000
144
0.750000
146
0.903226
 77
     1
 73
     0
 74
     0
271
     3
275
     1
 78
     8
172
     1
340
4EB
  0
DIMSTYLE
105
4F6
100
AcDbSymbolTableRecord
100
AcDbDimStyleTableRecord
  2
WAKU002
 70
     0
 41
4.000000
 44
4.000000
 42
1.600000
145
0.580645
140
6.200000
144
0.500000
146
0.903226
 77
     1
 73
     0
 74
     0
271
     3
275
     1
 78
     8
172
     1
340
4EB
  0
ENDTAB
  0
TABLE
  2
BLOCK_RECORD
  5
4F7
100
AcDbSymbolTable
 70
    18
  0
BLOCK_RECORD
  5
4F8
100
AcDbSymbolTableRecord
100
AcDbBlockTableRecord
  2
*MODEL_SPACE
  0
BLOCK_RECORD
  5
4F9
100
AcDbSymbolTableRecord
100
AcDbBlockTableRecord
  2
*PAPER_SPACE
  0
BLOCK_RECORD
  5
1
100
AcDbSymbolTableRecord
100
AcDbBlockTableRecord
  2
_NONE
  0
BLOCK_RECORD
  5
4
100
AcDbSymbolTableRecord
100
AcDbBlockTableRecord
  2
_CLOSED
  0
BLOCK_RECORD
  5
B
100
AcDbSymbolTableRecord
100
AcDbBlockTableRecord
  2
_DOT
  0
BLOCK_RECORD
  5
13
100
AcDbSymbolTableRecord
100
AcDbBlockTableRecord
  2
_OPEN
  0
BLOCK_RECORD
  5
19
100
AcDbSymbolTableRecord
100
AcDbBlockTableRecord
  2
_ORIGIN
  0
BLOCK_RECORD
  5
1E
100
AcDbSymbolTableRecord
100
AcDbBlockTableRecord
  2
_OPEN30
  0
BLOCK_RECORD
  5
24
100
AcDbSymbolTableRecord
100
AcDbBlockTableRecord
  2
_BOXFILLED
  0
BLOCK_RECORD
  5
29
100
AcDbSymbolTableRecord
100
AcDbBlockTableRecord
  2
_BOXBLANK
  0
BLOCK_RECORD
  5
31
100
AcDbSymbolTableRecord
100
AcDbBlockTableRecord
  2
_OBLIQUE
  0
BLOCK_RECORD
  5
35
100
AcDbSymbolTableRecord
100
AcDbBlockTableRecord
  2
_OPEN90
  0
BLOCK_RECORD
  5
3B
100
AcDbSymbolTableRecord
100
AcDbBlockTableRecord
  2
_CLOSEDBLANK
  0
BLOCK_RECORD
  5
41
100
AcDbSymbolTableRecord
100
AcDbBlockTableRecord
  2
_DOTBLANK
  0
BLOCK_RECORD
  5
4FA
100
AcDbSymbolTableRecord
100
AcDbBlockTableRecord
  2
M0
  0
BLOCK_RECORD
  5
4FB
100
AcDbSymbolTableRecord
100
AcDbBlockTableRecord
  2
M1
  0
BLOCK_RECORD
  5
4FC
100
AcDbSymbolTableRecord
100
AcDbBlockTableRecord
  2
M2
  0
BLOCK_RECORD
  5
4FD
100
AcDbSymbolTableRecord
100
AcDbBlockTableRecord
  2
M3
  0
BLOCK_RECORD
  5
4FE
100
AcDbSymbolTableRecord
100
AcDbBlockTableRecord
  2
M4
  0
BLOCK_RECORD
  5
4FF
100
AcDbSymbolTableRecord
100
AcDbBlockTableRecord
  2
M5
  0
ENDTAB
  0
ENDSEC
  0
SECTION
  2
BLOCKS
  0
BLOCK
  5
500
100
AcDbEntity
  8
0
100
AcDbBlockBegin
  2
*MODEL_SPACE
 70
     0
 10
0.0
 20
0.0
 30
0.0
  3
*MODEL_SPACE
  1

  0
ENDBLK
  5
501
100
AcDbEntity
  8
0
100
AcDbBlockEnd
  0
BLOCK
  5
502
100
AcDbEntity
  8
0
100
AcDbBlockBegin
  2
*PAPER_SPACE
 70
     0
 10
0.0
 20
0.0
 30
0.0
  3
*PAPER_SPACE
  1

  0
ENDBLK
  5
503
100
AcDbEntity
  8
0
100
AcDbBlockEnd
  0
BLOCK
  5
2
100
AcDbEntity
  8
0
100
AcDbBlockBegin
  2
_NONE
 70
     0
 10
0.0
 20
0.0
 30
0.0
  3
_NONE
  1

  0
ENDBLK
  5
3
100
AcDbEntity
  8
0
100
AcDbBlockEnd
  0
BLOCK
  5
5
100
AcDbEntity
  8
0
100
AcDbBlockBegin
  2
_CLOSED
 70
     0
 10
0.0
 20
0.0
 30
0.0
  3
_CLOSED
  1

  0
LINE
  5
6
100
AcDbEntity
  8
0
  6
BYBLOCK
 62
     0
100
AcDbLine
 10
-1.0
 20
0.166667
 30
0.0
 11
0.0
 21
0.0
 31
0.0
  0
LINE
  5
7
100
AcDbEntity
  8
0
  6
BYBLOCK
 62
     0
100
AcDbLine
 10
0.0
 20
0.0
 30
0.0
 11
-1.0
 21
-0.166667
 31
0.0
  0
LINE
  5
8
100
AcDbEntity
  8
0
  6
BYBLOCK
 62
     0
100
AcDbLine
 10
-1.0
 20
0.166667
 30
0.0
 11
-1.0
 21
-0.166667
 31
0.0
  0
LINE
  5
9
100
AcDbEntity
  8
0
  6
BYBLOCK
 62
     0
100
AcDbLine
 10
0.0
 20
0.0
 30
0.0
 11
-1.0
 21
0.0
 31
0.0
  0
ENDBLK
  5
A
100
AcDbEntity
  8
0
100
AcDbBlockEnd
  0
BLOCK
  5
C
100
AcDbEntity
  8
0
100
AcDbBlockBegin
  2
_DOT
 70
     0
 10
0.0
 20
0.0
 30
0.0
  3
_DOT
  1

  0
POLYLINE
  5
D
100
AcDbEntity
  8
0
  6
BYBLOCK
 62
     0
100
AcDb2dPolyline
 66
     1
 10
0.0
 20
0.0
 30
0.0
 70
     1
 40
0.5
 41
0.5
  0
VERTEX
  5
E
100
AcDbEntity
  8
0
  6
BYBLOCK
 62
     0
100
AcDbVertex
100
AcDb2dVertex
 10
-0.25
 20
0.0
 30
0.0
 42
1.0
  0
VERTEX
  5
F
100
AcDbEntity
  8
0
  6
BYBLOCK
 62
     0
100
AcDbVertex
100
AcDb2dVertex
 10
0.25
 20
0.0
 30
0.0
 42
1.0
  0
SEQEND
  5
10
100
AcDbEntity
  8
0
  6
BYBLOCK
 62
     0
  0
LINE
  5
11
100
AcDbEntity
  8
0
  6
BYBLOCK
 62
     0
100
AcDbLine
 10
-0.5
 20
0.0
 30
0.0
 11
-1.0
 21
0.0
 31
0.0
  0
ENDBLK
  5
12
100
AcDbEntity
  8
0
100
AcDbBlockEnd
  0
BLOCK
  5
14
100
AcDbEntity
  8
0
100
AcDbBlockBegin
  2
_OPEN
 70
     0
 10
0.0
 20
0.0
 30
0.0
  3
_OPEN
  1

  0
LINE
  5
15
100
AcDbEntity
  8
0
  6
BYBLOCK
 62
     0
100
AcDbLine
 10
-1.0
 20
0.166667
 30
0.0
 11
0.0
 21
0.0
 31
0.0
  0
LINE
  5
16
100
AcDbEntity
  8
0
  6
BYBLOCK
 62
     0
100
AcDbLine
 10
0.0
 20
0.0
 30
0.0
 11
-1.0
 21
-0.166667
 31
0.0
  0
LINE
  5
17
100
AcDbEntity
  8
0
  6
BYBLOCK
 62
     0
100
AcDbLine
 10
0.0
 20
0.0
 30
0.0
 11
-1.0
 21
0.0
 31
0.0
  0
ENDBLK
  5
18
100
AcDbEntity
  8
0
100
AcDbBlockEnd
  0
BLOCK
  5
1A
100
AcDbEntity
  8
0
100
AcDbBlockBegin
  2
_ORIGIN
 70
     0
 10
0.0
 20
0.0
 30
0.0
  3
_ORIGIN
  1

  0
CIRCLE
  5
1B
100
AcDbEntity
  8
0
  6
BYBLOCK
 62
     0
100
AcDbCircle
 10
0.0
 20
0.0
 30
0.0
 40
0.5
  0
LINE
  5
1C
100
AcDbEntity
  8
0
  6
BYBLOCK
 62
     0
100
AcDbLine
 10
0.0
 20
0.0
 30
0.0
 11
-1.0
 21
0.0
 31
0.0
  0
ENDBLK
  5
1D
100
AcDbEntity
  8
0
100
AcDbBlockEnd
  0
BLOCK
  5
1F
100
AcDbEntity
  8
0
100
AcDbBlockBegin
  2
_OPEN30
 70
     0
 10
0.0
 20
0.0
 30
0.0
  3
_OPEN30
  1

  0
LINE
  5
20
100
AcDbEntity
  8
0
  6
BYBLOCK
 62
     0
100
AcDbLine
 10
-1.0
 20
0.267949
 30
0.0
 11
0.0
 21
0.0
 31
0.0
  0
LINE
  5
21
100
AcDbEntity
  8
0
  6
BYBLOCK
 62
     0
100
AcDbLine
 10
0.0
 20
0.0
 30
0.0
 11
-1.0
 21
-0.267949
 31
0.0
  0
LINE
  5
22
100
AcDbEntity
  8
0
  6
BYBLOCK
 62
     0
100
AcDbLine
 10
0.0
 20
0.0
 30
0.0
 11
-1.0
 21
0.0
 31
0.0
  0
ENDBLK
  5
23
100
AcDbEntity
  8
0
100
AcDbBlockEnd
  0
BLOCK
  5
25
100
AcDbEntity
  8
0
100
AcDbBlockBegin
  2
_BOXFILLED
 70
     0
 10
0.0
 20
0.0
 30
0.0
  3
_BOXFILLED
  1

  0
SOLID
  5
26
100
AcDbEntity
  8
0
  6
BYBLOCK
 62
     0
100
AcDbTrace
 10
-0.5
 20
0.5
 30
0.0
 11
0.5
 21
0.5
 31
0.0
 12
-0.5
 22
-0.5
 32
0.0
 13
0.5
 23
-0.5
 33
0.0
  0
LINE
  5
27
100
AcDbEntity
  8
0
  6
BYBLOCK
 62
     0
100
AcDbLine
 10
-0.5
 20
0.0
 30
0.0
 11
-1.0
 21
0.0
 31
0.0
  0
ENDBLK
  5
28
100
AcDbEntity
  8
0
100
AcDbBlockEnd
  0
BLOCK
  5
2A
100
AcDbEntity
  8
0
100
AcDbBlockBegin
  2
_BOXBLANK
 70
     0
 10
0.0
 20
0.0
 30
0.0
  3
_BOXBLANK
  1

  0
LINE
  5
2B
100
AcDbEntity
  8
0
  6
BYBLOCK
 62
     0
100
AcDbLine
 10
-0.5
 20
-0.5
 30
0.0
 11
0.5
 21
-0.5
 31
0.0
  0
LINE
  5
2C
100
AcDbEntity
  8
0
  6
BYBLOCK
 62
     0
100
AcDbLine
 10
0.5
 20
-0.5
 30
0.0
 11
0.5
 21
0.5
 31
0.0
  0
LINE
  5
2D
100
AcDbEntity
  8
0
  6
BYBLOCK
 62
     0
100
AcDbLine
 10
0.5
 20
0.5
 30
0.0
 11
-0.5
 21
0.5
 31
0.0
  0
LINE
  5
2E
100
AcDbEntity
  8
0
  6
BYBLOCK
 62
     0
100
AcDbLine
 10
-0.5
 20
0.5
 30
0.0
 11
-0.5
 21
-0.5
 31
0.0
  0
LINE
  5
2F
100
AcDbEntity
  8
0
  6
BYBLOCK
 62
     0
100
AcDbLine
 10
-0.5
 20
0.0
 30
0.0
 11
-1.0
 21
0.0
 31
0.0
  0
ENDBLK
  5
30
100
AcDbEntity
  8
0
100
AcDbBlockEnd
  0
BLOCK
  5
32
100
AcDbEntity
  8
0
100
AcDbBlockBegin
  2
_OBLIQUE
 70
     0
 10
0.0
 20
0.0
 30
0.0
  3
_OBLIQUE
  1

  0
LINE
  5
33
100
AcDbEntity
  8
0
  6
BYBLOCK
 62
     0
100
AcDbLine
 10
-0.5
 20
-0.5
 30
0.0
 11
0.5
 21
0.5
 31
0.0
  0
ENDBLK
  5
34
100
AcDbEntity
  8
0
100
AcDbBlockEnd
  0
BLOCK
  5
36
100
AcDbEntity
  8
0
100
AcDbBlockBegin
  2
_OPEN90
 70
     0
 10
0.0
 20
0.0
 30
0.0
  3
_OPEN90
  1

  0
LINE
  5
37
100
AcDbEntity
  8
0
  6
BYBLOCK
 62
     0
100
AcDbLine
 10
-0.5
 20
0.5
 30
0.0
 11
0.0
 21
0.0
 31
0.0
  0
LINE
  5
38
100
AcDbEntity
  8
0
  6
BYBLOCK
 62
     0
100
AcDbLine
 10
0.0
 20
0.0
 30
0.0
 11
-0.5
 21
-0.5
 31
0.0
  0
LINE
  5
39
100
AcDbEntity
  8
0
  6
BYBLOCK
 62
     0
100
AcDbLine
 10
0.0
 20
0.0
 30
0.0
 11
-1.0
 21
0.0
 31
0.0
  0
ENDBLK
  5
3A
100
AcDbEntity
  8
0
100
AcDbBlockEnd
  0
BLOCK
  5
3C
100
AcDbEntity
  8
0
100
AcDbBlockBegin
  2
_CLOSEDBLANK
 70
     0
 10
0.0
 20
0.0
 30
0.0
  3
_CLOSEDBLANK
  1

  0
LINE
  5
3D
100
AcDbEntity
  8
0
  6
BYBLOCK
 62
     0
100
AcDbLine
 10
-1.0
 20
0.1666666666666666
 30
0.0
 11
0.0
 21
0.0
 31
0.0
  0
LINE
  5
3E
100
AcDbEntity
  8
0
  6
BYBLOCK
 62
     0
100
AcDbLine
 10
0.0
 20
0.0
 30
0.0
 11
-1.0
 21
-0.1666666666666666
 31
0.0
  0
LINE
  5
3F
100
AcDbEntity
  8
0
  6
BYBLOCK
 62
     0
100
AcDbLine
 10
-1.0
 20
0.1666666666666666
 30
0.0
 11
-1.0
 21
-0.1666666666666666
 31
0.0
  0
ENDBLK
  5
40
100
AcDbEntity
  8
0
100
AcDbBlockEnd
  0
BLOCK
  5
42
100
AcDbEntity
  8
0
100
AcDbBlockBegin
  2
_DOTBLANK
 70
     0
 10
0.0
 20
0.0
 30
0.0
  3
_DOTBLANK
  1

  0
CIRCLE
  5
43
100
AcDbEntity
  8
0
  6
BYBLOCK
 62
     0
100
AcDbCircle
 10
0.0
 20
0.0
 30
0.0
 40
0.5
  0
LINE
  5
44
100
AcDbEntity
  8
0
  6
BYBLOCK
 62
     0
100
AcDbLine
 10
-0.5
 20
0.0
 30
0.0
 11
-1.0
 21
0.0
 31
0.0
  0
ENDBLK
  5
45
100
AcDbEntity
  8
0
100
AcDbBlockEnd
  0
BLOCK
  5
10A
100
AcDbEntity
  8
MAIN0
  6
BYBLOCK
 62
2
100
AcDbBlockBegin
  2
M0
 70
    64
 10
0.0
 20
0.0
 30
0.0
  0
LINE
  5
10B
100
AcDbEntity
  8
MAIN0
  6
BYBLOCK
 62
0
100
AcDbLine
 10
706.6666666666681
 20
726.0000000000000
 30
0.0000000000000000
 11
706.6666666666681
 21
714.0000000000000
 31
0.0000000000000000
  0
LINE
  5
10C
100
AcDbEntity
  8
MAIN0
  6
BYBLOCK
 62
0
100
AcDbLine
 10
706.6666666666681
 20
720.0000000000000
 30
0.0000000000000000
 11
682.6666666666681
 21
720.0000000000001
 31
0.0000000000000000
  0
LINE
  5
10D
100
AcDbEntity
  8
MAIN0
  6
BYBLOCK
 62
0
100
AcDbLine
 10
706.6666666666680
 20
720.0000000000000
 30
0.0000000000000000
 11
697.0074084037774
 21
722.5881904510253
 31
0.0000000000000000
  0
LINE
  5
10E
100
AcDbEntity
  8
MAIN0
  6
BYBLOCK
 62
0
100
AcDbLine
 10
706.6666666666681
 20
719.9999999999997
 30
0.0000000000000000
 11
697.0074084037776
 21
717.4118095489746
 31
0.0000000000000000
  0
ENDBLK
  5
10F
100
AcDbEntity
  8
MAIN0
  6
BYBLOCK
 62
2
100
AcDbBlockEnd
  0
BLOCK
  5
111
100
AcDbEntity
  8
MAIN0
  6
BYBLOCK
 62
2
100
AcDbBlockBegin
  2
M1
 70
    64
 10
0.0
 20
0.0
 30
0.0
  0
LINE
  5
112
100
AcDbEntity
  8
MAIN0
  6
BYBLOCK
 62
0
100
AcDbLine
 10
862.4240259805255
 20
324.2426406880970
 30
0.0000000000000000
 11
870.9093073547816
 21
315.7573593138756
 31
0.0000000000000000
  0
LINE
  5
113
100
AcDbEntity
  8
MAIN0
  6
BYBLOCK
 62
0
100
AcDbLine
 10
866.6666666676534
 20
320.0000000009865
 30
0.0000000000000000
 11
849.6961039192114
 21
303.0294372524742
 31
0.0000000000000000
  0
LINE
  5
114
100
AcDbEntity
  8
MAIN0
  6
BYBLOCK
 62
0
100
AcDbLine
 10
866.6666666676532
 20
320.0000000009869
 30
0.0000000000000000
 11
858.0064126298194
 21
315.0000000009690
 31
0.0000000000000000
  0
LINE
  5
115
100
AcDbEntity
  8
MAIN0
  6
BYBLOCK
 62
0
100
AcDbLine
 10
866.6666666676539
 20
320.0000000009862
 30
0.0000000000000000
 11
861.6666666676719
 21
311.3397459631318
 31
0.0000000000000000
  0
ENDBLK
  5
116
100
AcDbEntity
  8
MAIN0
  6
BYBLOCK
 62
2
100
AcDbBlockEnd
  0
BLOCK
  5
3D8
100
AcDbEntity
  8
MAIN0
  6
BYBLOCK
 62
3
100
AcDbBlockBegin
  2
M2
 70
    64
 10
0.0
 20
0.0
 30
0.0
  0
LINE
  5
3D9
100
AcDbEntity
  8
MAIN0
  6
BYBLOCK
 62
0
100
AcDbLine
 10
590.9655328434075
 20
393.9399989233984
 30
0.0000000000000000
 11
573.9949700949304
 21
376.9694361749214
 31
0.0000000000000000
  0
LINE
  5
3DA
100
AcDbEntity
  8
MAIN0
  6
BYBLOCK
 62
0
100
AcDbLine
 10
590.9655328434076
 20
393.9399989233987
 30
0.0000000000000000
 11
585.9655328434079
 21
385.2797448855543
 31
0.0000000000000000
  0
LINE
  5
3DB
100
AcDbEntity
  8
MAIN0
  6
BYBLOCK
 62
0
100
AcDbLine
 10
590.9655328434070
 20
393.9399989233983
 30
0.0000000000000000
 11
582.3052788055628
 21
388.9399989233984
 31
0.0000000000000000
  0
ENDBLK
  5
3DC
100
AcDbEntity
  8
MAIN0
  6
BYBLOCK
 62
3
100
AcDbBlockEnd
  0
BLOCK
  5
3DE
100
AcDbEntity
  8
MAIN0
  6
BYBLOCK
 62
3
100
AcDbBlockBegin
  2
M3
 70
    64
 10
0.0
 20
0.0
 30
0.0
  0
LINE
  5
3DF
100
AcDbEntity
  8
MAIN0
  6
BYBLOCK
 62
0
100
AcDbLine
 10
619.2498040909591
 20
365.6557276760256
 30
0.0000000000000000
 11
602.2792413424819
 21
348.6851649275485
 31
0.0000000000000000
  0
LINE
  5
3E0
100
AcDbEntity
  8
MAIN0
  6
BYBLOCK
 62
0
100
AcDbLine
 10
619.2498040909585
 20
365.6557276760258
 30
0.0000000000000000
 11
614.2498040909587
 21
356.9954736381816
 31
0.0000000000000000
  0
LINE
  5
3E1
100
AcDbEntity
  8
MAIN0
  6
BYBLOCK
 62
0
100
AcDbLine
 10
619.2498040909578
 20
365.6557276760256
 30
0.0000000000000000
 11
610.5895500531134
 21
360.6557276760257
 31
0.0000000000000000
  0
ENDBLK
  5
3E2
100
AcDbEntity
  8
MAIN0
  6
BYBLOCK
 62
3
100
AcDbBlockEnd
  0
BLOCK
  5
3EE
100
AcDbEntity
  8
MAIN0
  6
BYBLOCK
 62
3
100
AcDbBlockBegin
  2
M4
 70
    64
 10
0.0
 20
0.0
 30
0.0
  0
POINT
  5
3EF
100
AcDbEntity
  8
MAIN0
  6
BYBLOCK
 62
0
100
AcDbPoint
 10
874.4065241445229
 20
186.6760685916873
 30
0.0000000000000000
  0
POINT
  5
3F0
100
AcDbEntity
  8
MAIN0
  6
BYBLOCK
 62
0
100
AcDbPoint
 10
874.4065241445229
 20
176.6760685916873
 30
0.0000000000000000
  0
LINE
  5
3F1
100
AcDbEntity
  8
MAIN0
  6
BYBLOCK
 62
0
100
AcDbLine
 10
854.4065241445229
 20
185.6760685916873
 30
0.0000000000000000
 11
1044.406524144523
 21
185.6760685916873
 31
0.0000000000000000
  0
LINE
  5
3F2
100
AcDbEntity
  8
MAIN0
  6
BYBLOCK
 62
0
100
AcDbLine
 10
854.4065241445229
 20
175.6760685916874
 30
0.0000000000000000
 11
1044.406524144523
 21
175.6760685916874
 31
0.0000000000000000
  0
MTEXT
  5
3F3
100
AcDbEntity
  8
MAIN0
  6
BYBLOCK
 62
0
100
AcDbMText
 10
856.4065241445229
 20
192.8760684009525
 30
0.0000000000000000
 40
6.199999809265137
 41
0.0000000000000000
 71
     1
 72
     1
  1
{\H0.88x;1.}
 11
1.000000000000000
 21
0.0000000000000000
 31
0.0000000000000000
  7
STANDARD
  0
MTEXT
  5
3F4
100
AcDbEntity
  8
MAIN0
  6
BYBLOCK
 62
0
100
AcDbMText
 10
856.4065241445229
 20
182.8760684009525
 30
0.0000000000000000
 40
6.199999809265137
 41
0.0000000000000000
 71
     1
 72
     1
  1
{\H0.88x;2.}
 11
1.000000000000000
 21
0.0000000000000000
 31
0.0000000000000000
  7
STANDARD
  0
POINT
  5
3F5
100
AcDbEntity
  8
MAIN0
  6
BYBLOCK
 62
0
100
AcDbPoint
 10
856.4065241445229
 20
186.6760685916873
 30
0.0000000000000000
  0
POINT
  5
3F6
100
AcDbEntity
  8
MAIN0
  6
BYBLOCK
 62
0
100
AcDbPoint
 10
856.4065241445229
 20
176.6760685916873
 30
0.0000000000000000
  0
MTEXT
  5
3F7
100
AcDbEntity
  8
MAIN0
  6
BYBLOCK
 62
0
100
AcDbMText
 10
857.4065241445229
 20
213.6760685916879
 30
0.0000000000000000
 40
12.00000000000000
 41
0.0000000000000000
 71
     1
 72
     1
  1
{\H0.80x;要注意}
 11
1.000000000000000
 21
0.0000000000000000
 31
0.0000000000000000
  7
KNJYOKO
  0
LINE
  5
3F8
100
AcDbEntity
  8
MAIN0
  6
BYBLOCK
 62
0
100
AcDbLine
 10
894.4065241445229
 20
216.6760685916879
 30
0.0000000000000000
 11
894.4065241445229
 21
198.6760685916879
 31
0.0000000000000000
  0
LINE
  5
3F9
100
AcDbEntity
  8
MAIN0
  6
BYBLOCK
 62
0
100
AcDbLine
 10
854.4065241445229
 20
198.6760685916879
 30
0.0000000000000000
 11
894.4065241445229
 21
198.6760685916879
 31
0.0000000000000000
  0
LINE
  5
3FA
100
AcDbEntity
  8
MAIN0
  6
BYBLOCK
 62
0
100
AcDbLine
 10
854.4065241445229
 20
216.6760685916879
 30
0.0000000000000000
 11
854.4065241445229
 21
198.6760685916879
 31
0.0000000000000000
  0
LINE
  5
3FB
100
AcDbEntity
  8
MAIN0
  6
BYBLOCK
 62
0
100
AcDbLine
 10
854.4065241445229
 20
216.6760685916879
 30
0.0000000000000000
 11
894.4065241445229
 21
216.6760685916879
 31
0.0000000000000000
  0
ENDBLK
  5
3FC
100
AcDbEntity
  8
MAIN0
  6
BYBLOCK
 62
3
100
AcDbBlockEnd
  0
BLOCK
  5
480
100
AcDbEntity
  8
WAKU0
  6
BYBLOCK
 62
3
100
AcDbBlockBegin
  2
M5
 70
    64
 10
0.0
 20
0.0
 30
0.0
  0
POINT
  5
481
100
AcDbEntity
  8
WAKU0
  6
BYBLOCK
 62
0
100
AcDbPoint
 10
544.0000000000000
 20
24.00000000000000
 30
0.0000000000000000
  0
POINT
  5
482
100
AcDbEntity
  8
WAKU0
  6
BYBLOCK
 62
0
100
AcDbPoint
 10
262.0000000000073
 20
24.00000000000001
 30
0.0000000000000000
  0
LINE
  5
483
100
AcDbEntity
  8
WAKU0
  6
BYBLOCK
 62
0
100
AcDbLine
 10
50.00000000000364
 20
24.00000000000001
 30
0.0000000000000000
 11
1164.000000000000
 21
24.00000000000000
 31
0.0000000000000000
  0
LINE
  5
484
100
AcDbEntity
  8
WAKU0
  6
BYBLOCK
 62
0
100
AcDbLine
 10
50.00000000000387
 20
819.9999999999931
 30
0.0000000000000000
 11
1164.000000000000
 21
819.9999999999927
 31
0.0000000000000000
  0
LINE
  5
485
100
AcDbEntity
  8
WAKU0
  6
BYBLOCK
 62
0
100
AcDbLine
 10
50.00000000000364
 20
24.00000000000001
 30
0.0000000000000000
 11
50.00000000000387
 21
819.9999999999931
 31
0.0000000000000000
  0
LINE
  5
486
100
AcDbEntity
  8
WAKU0
  6
BYBLOCK
 62
0
100
AcDbLine
 10
1164.000000000000
 20
24.00000000000000
 30
0.0000000000000000
 11
1164.000000000000
 21
819.9999999999927
 31
0.0000000000000000
  0
LINE
  5
487
100
AcDbEntity
  8
WAKU0
  6
BYBLOCK
 62
0
100
AcDbLine
 10
4.000000000002046
 20
835.9999999999936
 30
0.0000000000000000
 11
20.00000000000205
 21
835.9999999999936
 31
0.0000000000000000
  0
LINE
  5
488
100
AcDbEntity
  8
WAKU0
  6
BYBLOCK
 62
0
100
AcDbLine
 10
1168.000000000000
 20
835.9999999999927
 30
0.0000000000000000
 11
1184.000000000000
 21
835.9999999999928
 31
0.0000000000000000
  0
LINE
  5
489
100
AcDbEntity
  8
WAKU0
  6
BYBLOCK
 62
0
100
AcDbLine
 10
1184.000000000000
 20
819.9999999999926
 30
0.0000000000000000
 11
1184.000000000000
 21
835.9999999999926
 31
0.0000000000000000
  0
LINE
  5
48A
100
AcDbEntity
  8
WAKU0
  6
BYBLOCK
 62
0
100
AcDbLine
 10
4.000000000003638
 20
819.9999999999927
 30
0.0000000000000000
 11
4.000000000003638
 21
835.9999999999927
 31
0.0000000000000000
  0
LINE
  5
48B
100
AcDbEntity
  8
WAKU0
  6
BYBLOCK
 62
0
100
AcDbLine
 10
4.000000000003638
 20
4.000000000000085
 30
0.0000000000000000
 11
20.00000000000364
 21
4.000000000000085
 31
0.0000000000000000
  0
LINE
  5
48C
100
AcDbEntity
  8
WAKU0
  6
BYBLOCK
 62
0
100
AcDbLine
 10
1168.000000000000
 20
4.000000000000007
 30
0.0000000000000000
 11
1184.000000000000
 21
4.000000000000007
 31
0.0000000000000000
  0
LINE
  5
48D
100
AcDbEntity
  8
WAKU0
  6
BYBLOCK
 62
0
100
AcDbLine
 10
1184.000000000000
 20
20.00000000000014
 30
0.0000000000000000
 11
1184.000000000000
 21
4.000000000000156
 31
0.0000000000000000
  0
LINE
  5
48E
100
AcDbEntity
  8
WAKU0
  6
BYBLOCK
 62
0
100
AcDbLine
 10
4.000000000003638
 20
4.000000000000203
 30
0.0000000000000000
 11
4.000000000003638
 21
20.00000000000014
 31
0.0000000000000000
  0
LINE
  5
48F
100
AcDbEntity
  8
WAKU0
  6
BYBLOCK
 62
0
100
AcDbLine
 10
594.0000000000001
 20
-3.552713678800501e-015
 30
0.0000000000000000
 11
594.0000000000000
 21
24.00000000000003
 31
0.0000000000000000
  0
LINE
  5
490
100
AcDbEntity
  8
WAKU0
  6
BYBLOCK
 62
0
100
AcDbLine
 10
594.0000000000046
 20
819.9999999999959
 30
0.0000000000000000
 11
594.0000000000047
 21
839.9999999999959
 31
0.0000000000000000
  0
LINE
  5
491
100
AcDbEntity
  8
WAKU0
  6
BYBLOCK
 62
0
100
AcDbLine
 10
3.637978807091713e-012
 20
419.9999999999999
 30
0.0000000000000000
 11
50.00000000000364
 21
419.9999999999999
 31
0.0000000000000000
  0
LINE
  5
492
100
AcDbEntity
  8
WAKU0
  6
BYBLOCK
 62
0
100
AcDbLine
 10
1164.000000000000
 20
419.9999999999999
 30
0.0000000000000000
 11
1188.000000000000
 21
419.9999999999999
 31
0.0000000000000000
  0
LINE
  5
493
100
AcDbEntity
  8
WAKU0
  6
BYBLOCK
 62
0
100
AcDbLine
 10
454.0000000000073
 20
14.00000000000002
 30
0.0000000000000000
 11
733.9999999999999
 21
14.00000000000009
 31
0.0000000000000000
  0
LINE
  5
494
100
AcDbEntity
  8
WAKU0
  6
BYBLOCK
 62
0
100
AcDbLine
 10
42.00000000000205
 20
679.9999999999941
 30
0.0000000000000000
 11
50.00000000000205
 21
679.9999999999940
 31
0.0000000000000000
  0
LINE
  5
495
100
AcDbEntity
  8
WAKU0
  6
BYBLOCK
 62
0
100
AcDbLine
 10
1164.000000000000
 20
679.9999999999927
 30
0.0000000000000000
 11
1172.000000000000
 21
679.9999999999928
 31
0.0000000000000000
  0
LINE
  5
496
100
AcDbEntity
  8
WAKU0
  6
BYBLOCK
 62
0
100
AcDbLine
 10
42.00000000000387
 20
549.9999999999941
 30
0.0000000000000000
 11
50.00000000000387
 21
549.9999999999940
 31
0.0000000000000000
  0
LINE
  5
497
100
AcDbEntity
  8
WAKU0
  6
BYBLOCK
 62
0
100
AcDbLine
 10
1164.000000000000
 20
549.9999999999927
 30
0.0000000000000000
 11
1172.000000000000
 21
549.9999999999928
 31
0.0000000000000000
  0
LINE
  5
498
100
AcDbEntity
  8
WAKU0
  6
BYBLOCK
 62
0
100
AcDbLine
 10
42.00000000000023
 20
289.9999999999999
 30
0.0000000000000000
 11
50.00000000000023
 21
289.9999999999999
 31
0.0000000000000000
  0
LINE
  5
499
100
AcDbEntity
  8
WAKU0
  6
BYBLOCK
 62
0
100
AcDbLine
 10
1164.000000000000
 20
289.9999999999999
 30
0.0000000000000000
 11
1172.000000000000
 21
289.9999999999999
 31
0.0000000000000000
  0
LINE
  5
49A
100
AcDbEntity
  8
WAKU0
  6
BYBLOCK
 62
0
100
AcDbLine
 10
42.00000000000387
 20
160.0000000000000
 30
0.0000000000000000
 11
50.00000000000387
 21
160.0000000000000
 31
0.0000000000000000
  0
LINE
  5
49B
100
AcDbEntity
  8
WAKU0
  6
BYBLOCK
 62
0
100
AcDbLine
 10
1164.000000000000
 20
159.9999999999999
 30
0.0000000000000000
 11
1172.000000000000
 21
159.9999999999999
 31
0.0000000000000000
  0
LINE
  5
49C
100
AcDbEntity
  8
WAKU0
  6
BYBLOCK
 62
0
100
AcDbLine
 10
734.0000000000000
 20
14.00000000000007
 30
0.0000000000000000
 11
733.9999999999998
 21
24.00000000000003
 31
0.0000000000000000
  0
LINE
  5
49D
100
AcDbEntity
  8
WAKU0
  6
BYBLOCK
 62
0
100
AcDbLine
 10
733.9999999999998
 20
819.9999999999989
 30
0.0000000000000000
 11
733.9999999999998
 21
827.9999999999989
 31
0.0000000000000000
  0
LINE
  5
49E
100
AcDbEntity
  8
WAKU0
  6
BYBLOCK
 62
0
100
AcDbLine
 10
454.0000000000073
 20
14.00000000000001
 30
0.0000000000000000
 11
454.0000000000073
 21
23.99999999999990
 31
0.0000000000000000
  0
LINE
  5
49F
100
AcDbEntity
  8
WAKU0
  6
BYBLOCK
 62
0
100
AcDbLine
 10
454.0000000000073
 20
819.9999999999927
 30
0.0000000000000000
 11
454.0000000000073
 21
827.9999999999927
 31
0.0000000000000000
  0
LINE
  5
4A0
100
AcDbEntity
  8
WAKU0
  6
BYBLOCK
 62
0
100
AcDbLine
 10
474.0000000000073
 20
20.00000000000020
 30
0.0000000000000000
 11
474.0000000000073
 21
14.00000000000006
 31
0.0000000000000000
  0
LINE
  5
4A1
100
AcDbEntity
  8
WAKU0
  6
BYBLOCK
 62
0
100
AcDbLine
 10
494.0000000000073
 20
20.00000000000011
 30
0.0000000000000000
 11
494.0000000000073
 21
14.00000000000004
 31
0.0000000000000000
  0
LINE
  5
4A2
100
AcDbEntity
  8
WAKU0
  6
BYBLOCK
 62
0
100
AcDbLine
 10
514.0000000000000
 20
14.00000000000002
 30
0.0000000000000000
 11
514.0000000000000
 21
20.00000000000020
 31
0.0000000000000000
  0
LINE
  5
4A3
100
AcDbEntity
  8
WAKU0
  6
BYBLOCK
 62
0
100
AcDbLine
 10
534.0000000000000
 20
14.00000000000006
 30
0.0000000000000000
 11
534.0000000000000
 21
20.00000000000014
 31
0.0000000000000000
  0
LINE
  5
4A4
100
AcDbEntity
  8
WAKU0
  6
BYBLOCK
 62
0
100
AcDbLine
 10
554.0000000000000
 20
20.00000000000020
 30
0.0000000000000000
 11
554.0000000000000
 21
14.00000000000002
 31
0.0000000000000000
  0
LINE
  5
4A5
100
AcDbEntity
  8
WAKU0
  6
BYBLOCK
 62
0
100
AcDbLine
 10
574.0000000000000
 20
20.00000000000017
 30
0.0000000000000000
 11
574.0000000000000
 21
14.00000000000004
 31
0.0000000000000000
  0
LINE
  5
4A6
100
AcDbEntity
  8
WAKU0
  6
BYBLOCK
 62
0
100
AcDbLine
 10
614.0000000000000
 20
20.00000000000014
 30
0.0000000000000000
 11
614.0000000000000
 21
14.00000000000001
 31
0.0000000000000000
  0
LINE
  5
4A7
100
AcDbEntity
  8
WAKU0
  6
BYBLOCK
 62
0
100
AcDbLine
 10
634.0000000000000
 20
14.00000000000003
 30
0.0000000000000000
 11
634.0000000000000
 21
20.00000000000017
 31
0.0000000000000000
  0
LINE
  5
4A8
100
AcDbEntity
  8
WAKU0
  6
BYBLOCK
 62
0
100
AcDbLine
 10
653.9999999999999
 20
20.00000000000014
 30
0.0000000000000000
 11
653.9999999999999
 21
14.00000000000001
 31
0.0000000000000000
  0
LINE
  5
4A9
100
AcDbEntity
  8
WAKU0
  6
BYBLOCK
 62
0
100
AcDbLine
 10
674.0000000000000
 20
20.00000000000015
 30
0.0000000000000000
 11
673.9999999999998
 21
14.00000000000001
 31
0.0000000000000000
  0
LINE
  5
4AA
100
AcDbEntity
  8
WAKU0
  6
BYBLOCK
 62
0
100
AcDbLine
 10
693.9999999999999
 20
20.00000000000023
 30
0.0000000000000000
 11
693.9999999999999
 21
14.00000000000007
 31
0.0000000000000000
  0
LINE
  5
4AB
100
AcDbEntity
  8
WAKU0
  6
BYBLOCK
 62
0
100
AcDbLine
 10
713.9999999999999
 20
20.00000000000014
 30
0.0000000000000000
 11
713.9999999999999
 21
14.00000000000001
 31
0.0000000000000000
  0
LINE
  5
4AC
100
AcDbEntity
  8
WAKU0
  6
BYBLOCK
 62
0
100
AcDbLine
 10
1014.000000000000
 20
16.00000000000017
 30
0.0000000000000000
 11
1014.000000000000
 21
23.99999999999997
 31
0.0000000000000000
  0
LINE
  5
4AD
100
AcDbEntity
  8
WAKU0
  6
BYBLOCK
 62
0
100
AcDbLine
 10
1014.000000000000
 20
819.9999999999949
 30
0.0000000000000000
 11
1014.000000000000
 21
827.9999999999949
 31
0.0000000000000000
  0
LINE
  5
4AE
100
AcDbEntity
  8
WAKU0
  6
BYBLOCK
 62
0
100
AcDbLine
 10
874.0000000000000
 20
16.00000000000020
 30
0.0000000000000000
 11
873.9999999999998
 21
24.00000000000002
 31
0.0000000000000000
  0
LINE
  5
4AF
100
AcDbEntity
  8
WAKU0
  6
BYBLOCK
 62
0
100
AcDbLine
 10
873.9999999999998
 20
819.9999999999968
 30
0.0000000000000000
 11
873.9999999999998
 21
827.9999999999968
 31
0.0000000000000000
  0
LINE
  5
4B0
100
AcDbEntity
  8
WAKU0
  6
BYBLOCK
 62
0
100
AcDbLine
 10
314.0000000000073
 20
16.00000000000021
 30
0.0000000000000000
 11
314.0000000000073
 21
24.00000000000002
 31
0.0000000000000000
  0
LINE
  5
4B1
100
AcDbEntity
  8
WAKU0
  6
BYBLOCK
 62
0
100
AcDbLine
 10
314.0000000000073
 20
819.9999999999927
 30
0.0000000000000000
 11
314.0000000000073
 21
827.9999999999927
 31
0.0000000000000000
  0
LINE
  5
4B2
100
AcDbEntity
  8
WAKU0
  6
BYBLOCK
 62
0
100
AcDbLine
 10
174.0000000000073
 20
16.00000000000019
 30
0.0000000000000000
 11
174.0000000000073
 21
24.00000000000003
 31
0.0000000000000000
  0
LINE
  5
4B3
100
AcDbEntity
  8
WAKU0
  6
BYBLOCK
 62
0
100
AcDbLine
 10
174.0000000000073
 20
819.9999999999927
 30
0.0000000000000000
 11
174.0000000000073
 21
827.9999999999927
 31
0.0000000000000000
  0
MTEXT
  5
4B4
100
AcDbEntity
  8
WAKU0
  6
BYBLOCK
 62
0
100
AcDbMText
 10
112.0000000000036
 20
20.20000076293957
 30
0.0000000000000000
 40
6.200000762939453
 41
0.0000000000000000
 71
     1
 72
     1
  1
{\H0.81x;1}
 11
1.000000000000000
 21
0.0000000000000000
 31
0.0000000000000000
  7
STANDARD
  0
MTEXT
  5
4B5
100
AcDbEntity
  8
WAKU0
  6
BYBLOCK
 62
0
100
AcDbMText
 10
244.0000000000073
 20
20.20000076293945
 30
0.0000000000000000
 40
6.200000762939453
 41
0.0000000000000000
 71
     1
 72
     1
  1
{\H0.81x;2}
 11
1.000000000000000
 21
0.0000000000000000
 31
0.0000000000000000
  7
STANDARD
  0
MTEXT
  5
4B6
100
AcDbEntity
  8
WAKU0
  6
BYBLOCK
 62
0
100
AcDbMText
 10
384.0000000000073
 20
20.20000076293945
 30
0.0000000000000000
 40
6.200000762939453
 41
0.0000000000000000
 71
     1
 72
     1
  1
{\H0.81x;3}
 11
1.000000000000000
 21
0.0000000000000000
 31
0.0000000000000000
  7
STANDARD
  0
MTEXT
  5
4B7
100
AcDbEntity
  8
WAKU0
  6
BYBLOCK
 62
0
100
AcDbMText
 10
803.9999999999996
 20
20.20000076293934
 30
0.0000000000000000
 40
6.200000762939453
 41
0.0000000000000000
 71
     1
 72
     1
  1
{\H0.81x;6}
 11
1.000000000000000
 21
0.0000000000000000
 31
0.0000000000000000
  7
STANDARD
  0
MTEXT
  5
4B8
100
AcDbEntity
  8
WAKU0
  6
BYBLOCK
 62
0
100
AcDbMText
 10
943.9999999999996
 20
20.20000076293945
 30
0.0000000000000000
 40
6.200000762939453
 41
0.0000000000000000
 71
     1
 72
     1
  1
{\H0.81x;7}
 11
1.000000000000000
 21
0.0000000000000000
 31
0.0000000000000000
  7
STANDARD
  0
MTEXT
  5
4B9
100
AcDbEntity
  8
WAKU0
  6
BYBLOCK
 62
0
100
AcDbMText
 10
1089.000000000000
 20
20.20000076293945
 30
0.0000000000000000
 40
6.200000762939453
 41
0.0000000000000000
 71
     1
 72
     1
  1
{\H0.81x;8}
 11
1.000000000000000
 21
0.0000000000000000
 31
0.0000000000000000
  7
STANDARD
  0
MTEXT
  5
4BA
100
AcDbEntity
  8
WAKU0
  6
BYBLOCK
 62
0
100
AcDbMText
 10
112.0000000000036
 20
830.2000007629322
 30
0.0000000000000000
 40
6.200000762939453
 41
0.0000000000000000
 71
     1
 72
     1
  1
{\H0.81x;1}
 11
1.000000000000000
 21
0.0000000000000000
 31
0.0000000000000000
  7
STANDARD
  0
MTEXT
  5
4BB
100
AcDbEntity
  8
WAKU0
  6
BYBLOCK
 62
0
100
AcDbMText
 10
244.0000000000073
 20
830.2000007629322
 30
0.0000000000000000
 40
6.200000762939453
 41
0.0000000000000000
 71
     1
 72
     1
  1
{\H0.81x;2}
 11
1.000000000000000
 21
0.0000000000000000
 31
0.0000000000000000
  7
STANDARD
  0
MTEXT
  5
4BC
100
AcDbEntity
  8
WAKU0
  6
BYBLOCK
 62
0
100
AcDbMText
 10
384.0000000000073
 20
830.2000007629322
 30
0.0000000000000000
 40
6.200000762939453
 41
0.0000000000000000
 71
     1
 72
     1
  1
{\H0.81x;3}
 11
1.000000000000000
 21
0.0000000000000000
 31
0.0000000000000000
  7
STANDARD
  0
MTEXT
  5
4BD
100
AcDbEntity
  8
WAKU0
  6
BYBLOCK
 62
0
100
AcDbMText
 10
524.0000000000000
 20
830.2000007629322
 30
0.0000000000000000
 40
6.200000762939453
 41
0.0000000000000000
 71
     1
 72
     1
  1
{\H0.81x;4}
 11
1.000000000000000
 21
0.0000000000000000
 31
0.0000000000000000
  7
STANDARD
  0
MTEXT
  5
4BE
100
AcDbEntity
  8
WAKU0
  6
BYBLOCK
 62
0
100
AcDbMText
 10
663.9999999999996
 20
830.2000007629322
 30
0.0000000000000000
 40
6.200000762939453
 41
0.0000000000000000
 71
     1
 72
     1
  1
{\H0.81x;5}
 11
1.000000000000000
 21
0.0000000000000000
 31
0.0000000000000000
  7
STANDARD
  0
MTEXT
  5
4BF
100
AcDbEntity
  8
WAKU0
  6
BYBLOCK
 62
0
100
AcDbMText
 10
803.9999999999996
 20
830.2000007629322
 30
0.0000000000000000
 40
6.200000762939453
 41
0.0000000000000000
 71
     1
 72
     1
  1
{\H0.81x;6}
 11
1.000000000000000
 21
0.0000000000000000
 31
0.0000000000000000
  7
STANDARD
  0
MTEXT
  5
4C0
100
AcDbEntity
  8
WAKU0
  6
BYBLOCK
 62
0
100
AcDbMText
 10
943.9999999999996
 20
830.2000007629322
 30
0.0000000000000000
 40
6.200000762939453
 41
0.0000000000000000
 71
     1
 72
     1
  1
{\H0.81x;7}
 11
1.000000000000000
 21
0.0000000000000000
 31
0.0000000000000000
  7
STANDARD
  0
MTEXT
  5
4C1
100
AcDbEntity
  8
WAKU0
  6
BYBLOCK
 62
0
100
AcDbMText
 10
1089.000000000000
 20
830.2000007629322
 30
0.0000000000000000
 40
6.200000762939453
 41
0.0000000000000000
 71
     1
 72
     1
  1
{\H0.81x;8}
 11
1.000000000000000
 21
0.0000000000000000
 31
0.0000000000000000
  7
STANDARD
  0
MTEXT
  5
4C2
100
AcDbEntity
  8
WAKU0
  6
BYBLOCK
 62
0
100
AcDbMText
 10
42.00000000000364
 20
756.2000007629322
 30
0.0000000000000000
 40
6.200000762939453
 41
0.0000000000000000
 71
     1
 72
     1
  1
{\H0.81x;A}
 11
1.000000000000000
 21
0.0000000000000000
 31
0.0000000000000000
  7
STANDARD
  0
MTEXT
  5
4C3
100
AcDbEntity
  8
WAKU0
  6
BYBLOCK
 62
0
100
AcDbMText
 10
42.00000000000364
 20
626.2000007629322
 30
0.0000000000000000
 40
6.200000762939453
 41
0.0000000000000000
 71
     1
 72
     1
  1
{\H0.81x;B}
 11
1.000000000000000
 21
0.0000000000000000
 31
0.0000000000000000
  7
STANDARD
  0
MTEXT
  5
4C4
100
AcDbEntity
  8
WAKU0
  6
BYBLOCK
 62
0
100
AcDbMText
 10
42.00000000000364
 20
496.2000007629391
 30
0.0000000000000000
 40
6.200000762939453
 41
0.0000000000000000
 71
     1
 72
     1
  1
{\H0.81x;C}
 11
1.000000000000000
 21
0.0000000000000000
 31
0.0000000000000000
  7
STANDARD
  0
MTEXT
  5
4C5
100
AcDbEntity
  8
WAKU0
  6
BYBLOCK
 62
0
100
AcDbMText
 10
42.00000000000364
 20
366.2000007629391
 30
0.0000000000000000
 40
6.200000762939453
 41
0.0000000000000000
 71
     1
 72
     1
  1
{\H0.81x;D}
 11
1.000000000000000
 21
0.0000000000000000
 31
0.0000000000000000
  7
STANDARD
  0
MTEXT
  5
4C6
100
AcDbEntity
  8
WAKU0
  6
BYBLOCK
 62
0
100
AcDbMText
 10
42.00000000000364
 20
236.2000007629390
 30
0.0000000000000000
 40
6.200000762939453
 41
0.0000000000000000
 71
     1
 72
     1
  1
{\H0.81x;E}
 11
1.000000000000000
 21
0.0000000000000000
 31
0.0000000000000000
  7
STANDARD
  0
MTEXT
  5
4C7
100
AcDbEntity
  8
WAKU0
  6
BYBLOCK
 62
0
100
AcDbMText
 10
42.00000000000364
 20
106.2000007629390
 30
0.0000000000000000
 40
6.200000762939453
 41
0.0000000000000000
 71
     1
 72
     1
  1
{\H0.81x;F}
 11
1.000000000000000
 21
0.0000000000000000
 31
0.0000000000000000
  7
STANDARD
  0
MTEXT
  5
4C8
100
AcDbEntity
  8
WAKU0
  6
BYBLOCK
 62
0
100
AcDbMText
 10
1170.000000000000
 20
756.2000007629322
 30
0.0000000000000000
 40
6.200000762939453
 41
0.0000000000000000
 71
     1
 72
     1
  1
{\H0.81x;A}
 11
1.000000000000000
 21
0.0000000000000000
 31
0.0000000000000000
  7
STANDARD
  0
MTEXT
  5
4C9
100
AcDbEntity
  8
WAKU0
  6
BYBLOCK
 62
0
100
AcDbMText
 10
1170.000000000000
 20
626.2000007629322
 30
0.0000000000000000
 40
6.200000762939453
 41
0.0000000000000000
 71
     1
 72
     1
  1
{\H0.81x;B}
 11
1.000000000000000
 21
0.0000000000000000
 31
0.0000000000000000
  7
STANDARD
  0
MTEXT
  5
4CA
100
AcDbEntity
  8
WAKU0
  6
BYBLOCK
 62
0
100
AcDbMText
 10
1170.000000000000
 20
496.2000007629392
 30
0.0000000000000000
 40
6.200000762939453
 41
0.0000000000000000
 71
     1
 72
     1
  1
{\H0.81x;C}
 11
1.000000000000000
 21
0.0000000000000000
 31
0.0000000000000000
  7
STANDARD
  0
MTEXT
  5
4CB
100
AcDbEntity
  8
WAKU0
  6
BYBLOCK
 62
0
100
AcDbMText
 10
1170.000000000000
 20
366.2000007629392
 30
0.0000000000000000
 40
6.200000762939453
 41
0.0000000000000000
 71
     1
 72
     1
  1
{\H0.81x;D}
 11
1.000000000000000
 21
0.0000000000000000
 31
0.0000000000000000
  7
STANDARD
  0
MTEXT
  5
4CC
100
AcDbEntity
  8
WAKU0
  6
BYBLOCK
 62
0
100
AcDbMText
 10
1170.000000000000
 20
236.2000007629391
 30
0.0000000000000000
 40
6.200000762939453
 41
0.0000000000000000
 71
     1
 72
     1
  1
{\H0.81x;E}
 11
1.000000000000000
 21
0.0000000000000000
 31
0.0000000000000000
  7
STANDARD
  0
MTEXT
  5
4CD
100
AcDbEntity
  8
WAKU0
  6
BYBLOCK
 62
0
100
AcDbMText
 10
1170.000000000000
 20
106.2000007629390
 30
0.0000000000000000
 40
6.200000762939453
 41
0.0000000000000000
 71
     1
 72
     1
  1
{\H0.81x;F}
 11
1.000000000000000
 21
0.0000000000000000
 31
0.0000000000000000
  7
STANDARD
  0
ENDBLK
  5
4CE
100
AcDbEntity
  8
WAKU0
  6
BYBLOCK
 62
3
100
AcDbBlockEnd
  0
ENDSEC
  0
SECTION
  2
ENTITIES
  0
LINE
  5
46
100
AcDbEntity
  8
MAIN0
  6
CENTER
 62
3
100
AcDbLine
 10
706.6666666666673
 20
733.3333333333333
 30
0.0000000000000000
 11
706.6666666666661
 21
260.0000000000001
 31
0.0000000000000000
  0
LINE
  5
47
100
AcDbEntity
  8
MAIN0
  6
CENTER
 62
3
100
AcDbLine
 10
706.6666666666666
 20
480.0000000009700
 30
0.0000000000000000
 11
880.0000000006637
 21
306.6666666673306
 31
0.0000000000000000
  0
LINE
  5
48
100
AcDbEntity
  8
MAIN0
  6
CONTINUOUS
 62
3
100
AcDbLine
 10
1005.333333333334
 20
713.3333333333391
 30
0.0000000000000000
 11
1034.666666666667
 21
713.3333333333276
 31
0.0000000000000000
  0
LINE
  5
49
100
AcDbEntity
  8
MAIN0
  6
CONTINUOUS
 62
3
100
AcDbLine
 10
1002.666666666646
 20
670.6666666666736
 30
0.0000000000000000
 11
1037.333333333313
 21
670.6666666666599
 31
0.0000000000000000
  0
LINE
  5
4A
100
AcDbEntity
  8
MAIN0
  6
CONTINUOUS
 62
3
100
AcDbLine
 10
1002.666666666667
 20
682.6666666666736
 30
0.0000000000000000
 11
1002.666666666667
 21
670.6666666666733
 31
0.0000000000000000
  0
LINE
  5
4B
100
AcDbEntity
  8
MAIN0
  6
CONTINUOUS
 62
3
100
AcDbLine
 10
1002.666666666667
 20
710.6666666666733
 30
0.0000000000000000
 11
1002.666666666667
 21
701.3333333333401
 31
0.0000000000000000
  0
LINE
  5
4C
100
AcDbEntity
  8
MAIN0
  6
CONTINUOUS
 62
3
100
AcDbLine
 10
1037.333333333333
 20
682.6666666666600
 30
0.0000000000000000
 11
1037.333333333333
 21
670.6666666666599
 31
0.0000000000000000
  0
LINE
  5
4D
100
AcDbEntity
  8
MAIN0
  6
CONTINUOUS
 62
3
100
AcDbLine
 10
1037.333333333333
 20
710.6666666666597
 30
0.0000000000000000
 11
1037.333333333333
 21
701.3333333333264
 31
0.0000000000000000
  0
LINE
  5
4E
100
AcDbEntity
  8
MAIN0
  6
CENTER
 62
3
100
AcDbLine
 10
1040.529315917862
 20
457.6486046715293
 30
0.0000000000000000
 11
996.6978555223204
 21
457.6486046715486
 31
0.0000000000000000
  0
LINE
  5
4F
100
AcDbEntity
  8
MAIN0
  6
HIDDEN
 62
3
100
AcDbLine
 10
1002.666666666667
 20
701.3333333333401
 30
0.0000000000000000
 11
1037.333333333333
 21
701.3333333333264
 31
0.0000000000000000
  0
LINE
  5
50
100
AcDbEntity
  8
MAIN0
  6
HIDDEN
 62
3
100
AcDbLine
 10
1002.666666666667
 20
682.6666666666736
 30
0.0000000000000000
 11
1037.333333333334
 21
682.6666666666599
 31
0.0000000000000000
  0
LINE
  5
51
100
AcDbEntity
  8
MAIN0
  6
CENTER
 62
3
100
AcDbLine
 10
560.5312652223174
 20
626.1354014460906
 30
0.0000000000000000
 11
662.5409640551386
 21
524.1257026131087
 31
0.0000000000000000
  0
LINE
  5
52
100
AcDbEntity
  8
MAIN0
  6
CONTINUOUS
 62
3
100
AcDbLine
 10
1005.333333333333
 20
713.3333333333389
 30
0.0000000000000000
 11
1002.666666666667
 21
710.6666666666733
 31
0.0000000000000000
  0
LINE
  5
53
100
AcDbEntity
  8
MAIN0
  6
CONTINUOUS
 62
3
100
AcDbLine
 10
1034.666666666667
 20
713.3333333333275
 30
0.0000000000000000
 11
1037.333333333333
 21
710.6666666666598
 31
0.0000000000000000
  0
LINE
  5
54
100
AcDbEntity
  8
MAIN0
  6
CONTINUOUS
 62
3
100
AcDbLine
 10
1037.333333333334
 20
710.6666666665815
 30
0.0000000000000000
 11
1002.666666666667
 21
710.6666666665715
 31
0.0000000000000000
  0
ARC
  5
55
100
AcDbEntity
  8
MAIN0
  6
CONTINUOUS
 62
3
100
AcDbCircle
 10
938.6418473540111
 20
697.3333333333660
 30
0.0000000000000000
 40
7.999999999999957
100
AcDbArc
 50
149.9999999999834
 51
221.8103148957784
  0
ARC
  5
56
100
AcDbEntity
  8
MAIN0
  6
CONTINUOUS
 62
3
100
AcDbCircle
 10
946.6418473540111
 20
697.3333333333660
 30
0.0000000000000000
 40
7.999999999999957
100
AcDbArc
 50
150.0000000000097
 51
221.8103148957784
  0
ARC
  5
57
100
AcDbEntity
  8
MAIN0
  6
CONTINUOUS
 62
3
100
AcDbCircle
 10
926.7161514740124
 20
686.6666666666995
 30
0.0000000000000000
 40
7.999999999999957
100
AcDbArc
 50
330.0000000000097
 51
401.8103148957786
  0
ARC
  5
58
100
AcDbEntity
  8
MAIN0
  6
CONTINUOUS
 62
3
100
AcDbCircle
 10
934.7161514740124
 20
686.6666666666995
 30
0.0000000000000000
 40
7.999999999999957
100
AcDbArc
 50
329.9999999999835
 51
401.8103148957786
  0
LINE
  5
59
100
AcDbEntity
  8
MAIN0
  6
CENTER
 62
3
100
AcDbLine
 10
1020.000000000000
 20
416.6735640392914
 30
0.0000000000000000
 11
1020.000000000000
 21
578.1689025805790
 31
0.0000000000000000
  0
LINE
  5
5A
100
AcDbEntity
  8
MAIN0
  6
CENTER
 62
3
100
AcDbLine
 10
1020.000000000000
 20
593.3333333333334
 30
0.0000000000000000
 11
1020.000000000000
 21
727.5022359139124
 31
0.0000000000000000
  0
POINT
  5
5B
100
AcDbEntity
  8
MAIN0
  6
CONTINUOUS
 62
3
100
AcDbPoint
 10
706.6666666666665
 20
480.0000000000002
 30
0.0000000000000000
  0
MTEXT
  5
5C
100
AcDbEntity
  8
MAIN0
  6
CONTINUOUS
 62
3
100
AcDbMText
 10
518.2193545470833
 20
447.3338771782100
 30
0.0000000000000000
 40
6.199999809265137
 41
0.0000000000000000
 71
     1
 72
     1
  1
{\H0.81x;{1}}
 11
-1.836970198721030e-016
 21
-1.000000000000000
 31
0.0000000000000000
  7
STANDARD
  0
MTEXT
  5
5D
100
AcDbEntity
  8
MAIN0
  6
CONTINUOUS
 62
3
100
AcDbMText
 10
672.4514232595743
 20
666.0724396375780
 30
0.0000000000000000
 40
6.199999809265137
 41
0.0000000000000000
 71
     1
 72
     1
  1
{\H0.81x;{2}}
 11
-1.000000000000000
 21
1.224646799147353e-016
 31
0.0000000000000000
  7
STANDARD
  0
ARC
  5
5E
100
AcDbEntity
  8
MAIN0
  6
CONTINUOUS
 62
3
100
AcDbCircle
 10
618.0426167581761
 20
391.3759500898604
 30
0.0000000000000000
 40
10.66666666666662
100
AcDbArc
 50
315.0000000000450
 51
495.0000000000443
  0
ARC
  5
5F
100
AcDbEntity
  8
MAIN0
  6
CONTINUOUS
 62
3
100
AcDbCircle
 10
593.5295816770615
 20
366.8629150087076
 30
0.0000000000000000
 40
10.66666666666668
100
AcDbArc
 50
135.0000000000448
 51
315.0000000000440
  0
LINE
  5
60
100
AcDbEntity
  8
MAIN0
  6
CONTINUOUS
 62
3
100
AcDbLine
 10
585.9871093443995
 20
374.4053873413583
 30
0.0000000000000000
 11
610.5001444255141
 21
398.9184224225112
 31
0.0000000000000000
  0
LINE
  5
61
100
AcDbEntity
  8
MAIN0
  6
CONTINUOUS
 62
3
100
AcDbLine
 10
601.0720540097243
 20
359.3204426760570
 30
0.0000000000000000
 11
625.5850890908389
 21
383.8334777572100
 31
0.0000000000000000
  0
LINE
  5
62
100
AcDbEntity
  8
MAIN0
  6
CONTINUOUS
 62
3
100
AcDbLine
 10
585.9871093443999
 20
585.5946126586430
 30
0.0000000000000000
 11
610.5001444255142
 21
561.0815775774900
 31
0.0000000000000000
  0
ARC
  5
63
100
AcDbEntity
  8
MAIN0
  6
CONTINUOUS
 62
3
100
AcDbCircle
 10
618.0426167581767
 20
568.6240499101405
 30
0.0000000000000000
 40
10.66666666666662
100
AcDbArc
 50
224.9999999999553
 51
404.9999999999546
  0
LINE
  5
64
100
AcDbEntity
  8
MAIN0
  6
CONTINUOUS
 62
3
100
AcDbLine
 10
601.0720540097246
 20
600.6795573239441
 30
0.0000000000000000
 11
625.5850890908391
 21
576.1665222427911
 31
0.0000000000000000
  0
ARC
  5
65
100
AcDbEntity
  8
MAIN0
  6
CONTINUOUS
 62
3
100
AcDbCircle
 10
593.5295816770622
 20
593.1370849912935
 30
0.0000000000000000
 40
10.66666666666668
100
AcDbArc
 50
44.99999999995557
 51
224.9999999999548
  0
LINE
  5
66
100
AcDbEntity
  8
MAIN0
  6
CENTER
 62
3
100
AcDbLine
 10
560.0000000008805
 20
333.3333333324737
 30
0.0000000000000000
 11
657.3216609647216
 21
430.6549942964670
 31
0.0000000000000000
  0
POINT
  5
67
100
AcDbEntity
  8
MAIN0
  6
CONTINUOUS
 62
3
100
AcDbPoint
 10
565.2453104302232
 20
338.5786437618245
 30
0.0000000000000000
  0
POINT
  5
68
100
AcDbEntity
  8
MAIN0
  6
CONTINUOUS
 62
3
100
AcDbPoint
 10
585.9871093444111
 20
359.3204426760450
 30
0.0000000000000000
  0
POINT
  5
69
100
AcDbEntity
  8
MAIN0
  6
CONTINUOUS
 62
3
100
AcDbPoint
 10
625.5850890908268
 20
398.9184224225226
 30
0.0000000000000000
  0
MTEXT
  5
6A
100
AcDbEntity
  8
MAIN0
  6
CONTINUOUS
 62
3
100
AcDbMText
 10
696.5501397398346
 20
477.8502666980052
 30
0.0000000000000000
 40
10.00000000000000
 41
0.0000000000000000
 71
     1
 72
     1
  1
{\H0.82x;{O}}
 11
1.000000000000000
 21
-5.573999878030222e-015
 31
0.0000000000000000
  7
STANDARD
  0
LINE
  5
6B
100
AcDbEntity
  8
MAIN0
  6
CONTINUOUS
 62
3
100
AcDbLine
 10
706.6666666669295
 20
506.7092339574360
 30
0.0000000000000000
 11
706.6666666668701
 21
480.0000000000002
 31
0.0000000000000000
  0
LINE
  5
6C
100
AcDbEntity
  8
MAIN0
  6
CONTINUOUS
 62
3
100
AcDbLine
 10
706.6666666659618
 20
479.9999999992955
 30
0.0000000000000000
 11
724.7543084009275
 21
461.9123582643376
 31
0.0000000000000000
  0
POINT
  5
6D
100
AcDbEntity
  8
MAIN0
  6
CONTINUOUS
 62
3
100
AcDbPoint
 10
706.6666666702787
 20
291.7333333333230
 30
0.0000000000000000
  0
POINT
  5
6E
100
AcDbEntity
  8
MAIN0
  6
CONTINUOUS
 62
3
100
AcDbPoint
 10
706.6666666699603
 20
393.3333333333334
 30
0.0000000000000000
  0
POINT
  5
6F
100
AcDbEntity
  8
MAIN0
  6
CONTINUOUS
 62
3
100
AcDbPoint
 10
551.2000000018113
 20
480.0000000000006
 30
0.0000000000000000
  0
LINE
  5
70
100
AcDbEntity
  8
MAIN0
  6
CONTINUOUS
 62
3
100
AcDbLine
 10
939.7136441237350
 20
701.3333333333649
 30
0.0000000000000000
 11
1002.666666666666
 21
701.3333333333401
 31
0.0000000000000000
  0
LINE
  5
71
100
AcDbEntity
  8
MAIN0
  6
CONTINUOUS
 62
3
100
AcDbLine
 10
941.6443547042868
 20
682.6666666666974
 30
0.0000000000000000
 11
1002.666666666668
 21
682.6666666666736
 31
0.0000000000000000
  0
LINE
  5
72
100
AcDbEntity
  8
MAIN0
  6
CONTINUOUS
 62
3
100
AcDbLine
 10
897.3333333333297
 20
682.6666666667150
 30
0.0000000000000000
 11
933.6443547042886
 21
682.6666666667006
 31
0.0000000000000000
  0
LINE
  5
73
100
AcDbEntity
  8
MAIN0
  6
CONTINUOUS
 62
3
100
AcDbLine
 10
897.3333333333371
 20
701.3333333333815
 30
0.0000000000000000
 11
931.7136441237368
 21
701.3333333333679
 31
0.0000000000000000
  0
SPLINE
  5
74
100
AcDbEntity
  8
MAIN0
  6
CONTINUOUS
 62
3
100
AcDbSpline
210
0.0000000000000000
220
0.0000000000000000
230
1.000000000000000
 70
     8
 71
     3
 72
     9
 73
     5
 74
     0
 42
1.000000000000000e-007
 43
1.000000000000000e-007
 12
0.9031519940704129
 22
-1.123723182510275
 32
0.0000000000000000
 13
-0.6162733711855708
 23
-1.322955051184465
 33
0.0000000000000000
 40
0.0000000000000000
 40
0.0000000000000000
 40
0.0000000000000000
 40
0.0000000000000000
 40
3.557043381364613
 40
7.615774328762440
 40
7.615774328762440
 40
7.615774328762440
 40
7.615774328762440
 10
931.7136441237368
 20
701.3333333333679
 30
0.0000000000000000
 10
932.7844943980282
 20
700.0009559637565
 30
0.0000000000000000
 10
935.0772283218322
 20
697.1482819084245
 30
0.0000000000000000
 10
933.5127620152409
 20
693.7898395361189
 30
0.0000000000000000
 10
932.6789994140117
 20
692.0000000000326
 30
0.0000000000000000
  0
ARC
  5
75
100
AcDbEntity
  8
MAIN0
  6
CONTINUOUS
 62
3
100
AcDbCircle
 10
897.3333333333372
 20
692.0000000000482
 30
0.0000000000000000
 40
9.333333333333314
100
AcDbArc
 50
90.00000000000000
 51
270.0000000000000
  0
LINE
  5
76
100
AcDbEntity
  8
MAIN0
  6
CENTER
 62
3
100
AcDbLine
 10
880.0000000000069
 20
692.0000000001095
 30
0.0000000000000000
 11
1160.000000000007
 21
691.9999999999448
 31
0.0000000000000000
  0
SPLINE
  5
77
100
AcDbEntity
  8
MAIN0
  6
CONTINUOUS
 62
3
100
AcDbSpline
210
0.0000000000000000
220
0.0000000000000000
230
1.000000000000000
 70
     8
 71
     3
 72
     9
 73
     5
 74
     0
 42
1.000000000000000e-007
 43
1.000000000000000e-007
 12
-0.9031519940702992
 22
1.123723182510162
 32
0.0000000000000000
 13
0.6162733711854571
 23
1.322955051184465
 33
0.0000000000000000
 40
0.0000000000000000
 40
0.0000000000000000
 40
0.0000000000000000
 40
0.0000000000000000
 40
3.557043381364613
 40
7.615774328762440
 40
7.615774328762440
 40
7.615774328762440
 40
7.615774328762440
 10
941.6327736631853
 20
682.6666666667022
 30
0.0000000000000000
 10
940.5619233888939
 20
683.9990440363134
 30
0.0000000000000000
 10
938.2691894650899
 20
686.8517180916456
 30
0.0000000000000000
 10
939.8336557716812
 20
690.2101604639511
 30
0.0000000000000000
 10
940.6674183729103
 20
692.0000000000373
 30
0.0000000000000000
  0
ARC
  5
78
100
AcDbEntity
  8
MAIN0
  6
CONTINUOUS
 62
3
100
AcDbCircle
 10
1101.358152645989
 20
697.3333333333660
 30
0.0000000000000000
 40
7.999999999999957
100
AcDbArc
 50
318.1896851042216
 51
390.0000000000165
  0
ARC
  5
79
100
AcDbEntity
  8
MAIN0
  6
CONTINUOUS
 62
3
100
AcDbCircle
 10
1093.358152645989
 20
697.3333333333660
 30
0.0000000000000000
 40
7.999999999999957
100
AcDbArc
 50
318.1896851042216
 51
389.9999999999903
  0
ARC
  5
7A
100
AcDbEntity
  8
MAIN0
  6
CONTINUOUS
 62
3
100
AcDbCircle
 10
1113.283848525988
 20
686.6666666666995
 30
0.0000000000000000
 40
7.999999999999957
100
AcDbArc
 50
138.1896851042214
 51
209.9999999999903
  0
ARC
  5
7B
100
AcDbEntity
  8
MAIN0
  6
CONTINUOUS
 62
3
100
AcDbCircle
 10
1105.283848525988
 20
686.6666666666995
 30
0.0000000000000000
 40
7.999999999999957
100
AcDbArc
 50
138.1896851042214
 51
210.0000000000165
  0
LINE
  5
7C
100
AcDbEntity
  8
MAIN0
  6
CONTINUOUS
 62
3
100
AcDbLine
 10
1100.286355876265
 20
701.3333333333646
 30
0.0000000000000000
 11
1037.333333333334
 21
701.3333333333421
 31
0.0000000000000000
  0
LINE
  5
7D
100
AcDbEntity
  8
MAIN0
  6
CONTINUOUS
 62
3
100
AcDbLine
 10
1098.355645295714
 20
682.6666666666973
 30
0.0000000000000000
 11
1037.333333333333
 21
682.6666666666756
 31
0.0000000000000000
  0
LINE
  5
7E
100
AcDbEntity
  8
MAIN0
  6
CONTINUOUS
 62
3
100
AcDbLine
 10
1142.666666666670
 20
682.6666666667148
 30
0.0000000000000000
 11
1106.355645295712
 21
682.6666666667006
 31
0.0000000000000000
  0
LINE
  5
7F
100
AcDbEntity
  8
MAIN0
  6
CONTINUOUS
 62
3
100
AcDbLine
 10
1142.666666666663
 20
701.3333333333815
 30
0.0000000000000000
 11
1108.286355876263
 21
701.3333333333679
 31
0.0000000000000000
  0
SPLINE
  5
80
100
AcDbEntity
  8
MAIN0
  6
CONTINUOUS
 62
3
100
AcDbSpline
210
0.0000000000000000
220
0.0000000000000000
230
1.000000000000000
 70
     8
 71
     3
 72
     9
 73
     5
 74
     0
 42
1.000000000000000e-007
 43
1.000000000000000e-007
 12
-0.9031519940704129
 22
-1.123723182510275
 32
0.0000000000000000
 13
0.6162733711855708
 23
-1.322955051184465
 33
0.0000000000000000
 40
0.0000000000000000
 40
0.0000000000000000
 40
0.0000000000000000
 40
0.0000000000000000
 40
3.557043381364613
 40
7.615774328762440
 40
7.615774328762440
 40
7.615774328762440
 40
7.615774328762440
 10
1108.286355876263
 20
701.3333333333679
 30
0.0000000000000000
 10
1107.215505601972
 20
700.0009559637565
 30
0.0000000000000000
 10
1104.922771678168
 20
697.1482819084245
 30
0.0000000000000000
 10
1106.487237984759
 20
693.7898395361189
 30
0.0000000000000000
 10
1107.321000585989
 20
692.0000000000326
 30
0.0000000000000000
  0
ARC
  5
81
100
AcDbEntity
  8
MAIN0
  6
CONTINUOUS
 62
3
100
AcDbCircle
 10
1142.666666666663
 20
692.0000000000482
 30
0.0000000000000000
 40
9.333333333333314
100
AcDbArc
 50
270.0000000000000
 51
450.0000000000000
  0
SPLINE
  5
82
100
AcDbEntity
  8
MAIN0
  6
CONTINUOUS
 62
3
100
AcDbSpline
210
0.0000000000000000
220
0.0000000000000000
230
1.000000000000000
 70
     8
 71
     3
 72
     9
 73
     5
 74
     0
 42
1.000000000000000e-007
 43
1.000000000000000e-007
 12
0.9031519940702992
 22
1.123723182510162
 32
0.0000000000000000
 13
-0.6162733711854571
 23
1.322955051184465
 33
0.0000000000000000
 40
0.0000000000000000
 40
0.0000000000000000
 40
0.0000000000000000
 40
0.0000000000000000
 40
3.557043381364613
 40
7.615774328762440
 40
7.615774328762440
 40
7.615774328762440
 40
7.615774328762440
 10
1098.367226336815
 20
682.6666666667022
 30
0.0000000000000000
 10
1099.438076611106
 20
683.9990440363134
 30
0.0000000000000000
 10
1101.730810534910
 20
686.8517180916456
 30
0.0000000000000000
 10
1100.166344228319
 20
690.2101604639511
 30
0.0000000000000000
 10
1099.332581627090
 20
692.0000000000373
 30
0.0000000000000000
  0
LINE
  5
83
100
AcDbEntity
  8
MAIN0
  6
CONTINUOUS
 62
3
100
AcDbLine
 10
1010.600000000000
 20
486.6666666666704
 30
0.0000000000000000
 11
1029.400000000000
 21
486.6666666666631
 31
0.0000000000000000
  0
LINE
  5
84
100
AcDbEntity
  8
MAIN0
  6
CONTINUOUS
 62
3
100
AcDbLine
 10
1009.570771545060
 20
458.5330847141529
 30
0.0000000000000000
 11
1019.115519957380
 21
468.0778331264778
 31
0.0000000000000000
  0
LINE
  5
85
100
AcDbEntity
  8
MAIN0
  6
CONTINUOUS
 62
3
100
AcDbLine
 10
1020.884480045740
 20
447.2193762168636
 30
0.0000000000000000
 11
1030.429228454675
 21
456.7641246258038
 31
0.0000000000000000
  0
LINE
  5
86
100
AcDbEntity
  8
MAIN0
  6
CONTINUOUS
 62
3
100
AcDbLine
 10
1019.115519954259
 20
447.2193762168636
 30
0.0000000000000000
 11
1009.570771545325
 21
456.7641246258033
 31
0.0000000000000000
  0
LINE
  5
87
100
AcDbEntity
  8
MAIN0
  6
CONTINUOUS
 62
3
100
AcDbLine
 10
1030.429228454940
 20
458.5330847141535
 30
0.0000000000000000
 11
1020.884480042620
 21
468.0778331264777
 31
0.0000000000000000
  0
ARC
  5
88
100
AcDbEntity
  8
MAIN0
  6
CONTINUOUS
 62
3
100
AcDbCircle
 10
1020.000000000000
 20
457.6486046715384
 30
0.0000000000000000
 40
10.46666666666667
100
AcDbArc
 50
175.1524698506547
 51
184.8475301664906
  0
ARC
  5
89
100
AcDbEntity
  8
MAIN0
  6
CONTINUOUS
 62
3
100
AcDbCircle
 10
1020.000000000000
 20
457.6486046715384
 30
0.0000000000000000
 40
10.46666666666667
100
AcDbArc
 50
355.1524698335135
 51
364.8475301493490
  0
LINE
  5
8A
100
AcDbEntity
  8
MAIN0
  6
CONTINUOUS
 62
3
100
AcDbLine
 10
1030.333333333333
 20
487.5999999999960
 30
0.0000000000000000
 11
1030.333333333333
 21
513.1833412774034
 31
0.0000000000000000
  0
LINE
  5
8B
100
AcDbEntity
  8
MAIN0
  6
CONTINUOUS
 62
3
100
AcDbLine
 10
1009.666666666675
 20
506.6666666666708
 30
0.0000000000000000
 11
1030.333333333341
 21
506.6666666666627
 31
0.0000000000000000
  0
LINE
  5
8C
100
AcDbEntity
  8
MAIN0
  6
CONTINUOUS
 62
3
100
AcDbLine
 10
1018.967958060555
 20
487.6000000000005
 30
0.0000000000000000
 11
1018.967958060515
 21
506.6666666666632
 31
0.0000000000000000
  0
LINE
  5
8D
100
AcDbEntity
  8
MAIN0
  6
CONTINUOUS
 62
3
100
AcDbLine
 10
1021.032041939445
 20
487.6000000000007
 30
0.0000000000000000
 11
1021.032041939485
 21
506.6666666666632
 31
0.0000000000000000
  0
LINE
  5
8E
100
AcDbEntity
  8
MAIN0
  6
CONTINUOUS
 62
3
100
AcDbLine
 10
1010.600000000000
 20
486.6666666666703
 30
0.0000000000000000
 11
1009.666666666667
 21
487.6000000000040
 31
0.0000000000000000
  0
LINE
  5
8F
100
AcDbEntity
  8
MAIN0
  6
CONTINUOUS
 62
3
100
AcDbLine
 10
1029.400000000000
 20
486.6666666666629
 30
0.0000000000000000
 11
1030.333333333333
 21
487.5999999999959
 31
0.0000000000000000
  0
LINE
  5
90
100
AcDbEntity
  8
MAIN0
  6
CONTINUOUS
 62
3
100
AcDbLine
 10
1018.967958060555
 20
487.6000000000005
 30
0.0000000000000000
 11
1009.666666666667
 21
487.6000000000041
 31
0.0000000000000000
  0
LINE
  5
91
100
AcDbEntity
  8
MAIN0
  6
CONTINUOUS
 62
3
100
AcDbLine
 10
1030.333333333333
 20
487.5999999999960
 30
0.0000000000000000
 11
1021.032041939445
 21
487.5999999999997
 31
0.0000000000000000
  0
LINE
  5
92
100
AcDbEntity
  8
MAIN0
  6
CONTINUOUS
 62
3
100
AcDbLine
 10
1030.333333333341
 20
506.6666666666625
 30
0.0000000000000000
 11
1021.032041939445
 21
487.5999999999995
 31
0.0000000000000000
  0
LINE
  5
93
100
AcDbEntity
  8
MAIN0
  6
CONTINUOUS
 62
3
100
AcDbLine
 10
1030.333333333333
 20
487.5999999999958
 30
0.0000000000000000
 11
1021.032041939485
 21
506.6666666666631
 31
0.0000000000000000
  0
LINE
  5
94
100
AcDbEntity
  8
MAIN0
  6
CONTINUOUS
 62
3
100
AcDbLine
 10
1018.967958060515
 20
506.6666666666630
 30
0.0000000000000000
 11
1009.666666666667
 21
487.6000000000041
 31
0.0000000000000000
  0
LINE
  5
95
100
AcDbEntity
  8
MAIN0
  6
CONTINUOUS
 62
3
100
AcDbLine
 10
1018.967958060555
 20
487.6000000000004
 30
0.0000000000000000
 11
1009.666666666674
 21
506.6666666666707
 31
0.0000000000000000
  0
LINE
  5
96
100
AcDbEntity
  8
MAIN0
  6
CONTINUOUS
 62
3
100
AcDbLine
 10
1032.666666666667
 20
530.6666666666623
 30
0.0000000000000000
 11
1032.666666666667
 21
657.8257598104877
 31
0.0000000000000000
  0
LINE
  5
97
100
AcDbEntity
  8
MAIN0
  6
CONTINUOUS
 62
3
100
AcDbLine
 10
1007.333333333334
 20
530.6666666666712
 30
0.0000000000000000
 11
1007.333333333334
 21
657.8257598104877
 31
0.0000000000000000
  0
ARC
  5
98
100
AcDbEntity
  8
MAIN0
  6
CONTINUOUS
 62
3
100
AcDbCircle
 10
1052.666666666667
 20
657.8257598104877
 30
0.0000000000000000
 40
20.00000000000000
100
AcDbArc
 50
140.0554948101851
 51
180.0000000000000
  0
ARC
  5
99
100
AcDbEntity
  8
MAIN0
  6
CONTINUOUS
 62
3
100
AcDbCircle
 10
987.3333333333336
 20
657.8257598104877
 30
0.0000000000000000
 40
20.00000000000000
100
AcDbArc
 50
0.0000000000000000
 51
39.94450518981488
  0
LINE
  5
9A
100
AcDbEntity
  8
MAIN0
  6
CONTINUOUS
 62
3
100
AcDbLine
 10
1032.666666666667
 20
530.6666666666623
 30
0.0000000000000000
 11
1007.333333333334
 21
530.6666666666712
 31
0.0000000000000000
  0
ARC
  5
9B
100
AcDbEntity
  8
MAIN0
  6
CONTINUOUS
 62
3
100
AcDbCircle
 10
1097.000000000000
 20
513.1833412774034
 30
0.0000000000000000
 40
66.66666666666666
100
AcDbArc
 50
164.7963959067060
 51
180.0000000000000
  0
LINE
  5
9C
100
AcDbEntity
  8
MAIN0
  6
CONTINUOUS
 62
3
100
AcDbLine
 10
1009.666666666667
 20
487.5999999999960
 30
0.0000000000000000
 11
1009.666666666667
 21
513.1833412774034
 31
0.0000000000000000
  0
ARC
  5
9D
100
AcDbEntity
  8
MAIN0
  6
CONTINUOUS
 62
3
100
AcDbCircle
 10
943.0000000000000
 20
513.1833412774034
 30
0.0000000000000000
 40
66.66666666666666
100
AcDbArc
 50
0.0000000000000000
 51
15.20360409329404
  0
LINE
  5
9E
100
AcDbEntity
  8
MAIN0
  6
CONTINUOUS
 62
3
100
AcDbLine
 10
1018.034624727223
 20
486.6666666666675
 30
0.0000000000000000
 11
1018.967958060555
 21
487.6000000000005
 31
0.0000000000000000
  0
LINE
  5
9F
100
AcDbEntity
  8
MAIN0
  6
PHANTOM
 62
3
100
AcDbLine
 10
1021.965375272776
 20
486.6666666666674
 30
0.0000000000000000
 11
1021.032041939445
 21
487.6000000000005
 31
0.0000000000000000
  0
ARC
  5
A0
100
AcDbEntity
  8
MAIN0
  6
CONTINUOUS
 62
3
100
AcDbCircle
 10
1020.000000000000
 20
457.6486046715384
 30
0.0000000000000000
 40
10.46666666666667
100
AcDbArc
 50
30.71469613932836
 51
84.79931078338316
  0
ARC
  5
A1
100
AcDbEntity
  8
MAIN0
  6
CONTINUOUS
 62
3
100
AcDbCircle
 10
1020.000000000000
 20
457.6486046715384
 30
0.0000000000000000
 40
10.46666666666667
100
AcDbArc
 50
85.15246985062233
 51
94.84753014937688
  0
ARC
  5
A2
100
AcDbEntity
  8
MAIN0
  6
CONTINUOUS
 62
3
100
AcDbCircle
 10
1020.000000000000
 20
457.6486046715384
 30
0.0000000000000000
 40
10.46666666666667
100
AcDbArc
 50
216.9505581420069
 51
264.8332263815082
  0
ARC
  5
A3
100
AcDbEntity
  8
MAIN0
  6
CONTINUOUS
 62
3
100
AcDbCircle
 10
1020.000000000000
 20
457.6486046715384
 30
0.0000000000000000
 40
10.46666666666667
100
AcDbArc
 50
265.1524698334799
 51
274.8475301665167
  0
ARC
  5
A4
100
AcDbEntity
  8
MAIN0
  6
CENTER
 62
3
100
AcDbCircle
 10
706.6666666666665
 20
480.0000000000002
 30
0.0000000000000000
 40
88.89999999999999
100
AcDbArc
 50
213.3921334799097
 51
236.6078665210927
  0
ARC
  5
A5
100
AcDbEntity
  8
MAIN0
  6
CENTER
 62
3
100
AcDbCircle
 10
706.6666666666665
 20
480.0000000000002
 30
0.0000000000000000
 40
88.90000000000003
100
AcDbArc
 50
123.3921334799097
 51
146.6078665210927
  0
LINE
  5
A6
100
AcDbEntity
  8
MAIN0
  6
CONTINUOUS
 62
3
100
AcDbLine
 10
639.7228997327979
 20
494.0000000000004
 30
0.0000000000000000
 11
665.6571826687207
 21
494.0000000000003
 31
0.0000000000000000
  0
LINE
  5
A7
100
AcDbEntity
  8
MAIN0
  6
CONTINUOUS
 62
3
100
AcDbLine
 10
507.1572683917984
 20
494.0000000000007
 30
0.0000000000000000
 11
514.9437669368548
 21
494.0000000000007
 31
0.0000000000000000
  0
LINE
  5
A8
100
AcDbEntity
  8
MAIN0
  6
CONTINUOUS
 62
3
100
AcDbLine
 10
639.7228997327977
 20
466.0000000000004
 30
0.0000000000000000
 11
665.6571826687207
 21
466.0000000000003
 31
0.0000000000000000
  0
LINE
  5
A9
100
AcDbEntity
  8
MAIN0
  6
CONTINUOUS
 62
3
100
AcDbLine
 10
507.1572683917983
 20
466.0000000000007
 30
0.0000000000000000
 11
514.9437669368548
 21
466.0000000000007
 31
0.0000000000000000
  0
LINE
  5
AA
100
AcDbEntity
  8
MAIN0
  6
CONTINUOUS
 62
3
100
AcDbLine
 10
525.6104336024159
 20
503.3333333330448
 30
0.0000000000000000
 11
508.0324411274382
 21
503.3333333330448
 31
0.0000000000000000
  0
LINE
  5
AB
100
AcDbEntity
  8
MAIN0
  6
CONTINUOUS
 62
3
100
AcDbLine
 10
629.0562330671157
 20
503.3333333330783
 30
0.0000000000000000
 11
670.1518294994922
 21
503.3333333330780
 31
0.0000000000000000
  0
LINE
  5
AC
100
AcDbEntity
  8
MAIN0
  6
CONTINUOUS
 62
3
100
AcDbLine
 10
525.6104336024159
 20
456.6666666669567
 30
0.0000000000000000
 11
508.0324411274381
 21
456.6666666669567
 31
0.0000000000000000
  0
LINE
  5
AD
100
AcDbEntity
  8
MAIN0
  6
CONTINUOUS
 62
3
100
AcDbLine
 10
629.0562330671154
 20
456.6666666669225
 30
0.0000000000000000
 11
670.1518294994921
 21
456.6666666669225
 31
0.0000000000000000
  0
LINE
  5
AE
100
AcDbEntity
  8
MAIN0
  6
CONTINUOUS
 62
3
100
AcDbLine
 10
692.6666666666666
 20
546.9437669338688
 30
0.0000000000000000
 11
692.6666666666666
 21
521.0094839979461
 31
0.0000000000000000
  0
LINE
  5
AF
100
AcDbEntity
  8
MAIN0
  6
CONTINUOUS
 62
3
100
AcDbLine
 10
683.3333333335888
 20
557.6104335995516
 30
0.0000000000000000
 11
683.3333333335888
 21
516.5148371671746
 31
0.0000000000000000
  0
LINE
  5
B0
100
AcDbEntity
  8
MAIN0
  6
CONTINUOUS
 62
3
100
AcDbLine
 10
692.6666666666670
 20
679.5796213180654
 30
0.0000000000000000
 11
692.6666666666670
 21
671.7228997298116
 31
0.0000000000000000
  0
LINE
  5
B1
100
AcDbEntity
  8
MAIN0
  6
CONTINUOUS
 62
3
100
AcDbLine
 10
683.3333333336227
 20
661.0562330642500
 30
0.0000000000000000
 11
683.3333333336227
 21
678.8304019915739
 31
0.0000000000000000
  0
LINE
  5
B2
100
AcDbEntity
  8
MAIN0
  6
CONTINUOUS
 62
3
100
AcDbLine
 10
683.3333333336216
 20
298.9437669357506
 30
0.0000000000000000
 11
683.3333333336215
 21
281.1695980084266
 31
0.0000000000000000
  0
LINE
  5
B3
100
AcDbEntity
  8
MAIN0
  6
CONTINUOUS
 62
3
100
AcDbLine
 10
692.6666666666656
 20
280.4203786819351
 30
0.0000000000000000
 11
692.6666666666656
 21
288.2771002701887
 31
0.0000000000000000
  0
LINE
  5
B4
100
AcDbEntity
  8
MAIN0
  6
CONTINUOUS
 62
3
100
AcDbLine
 10
683.3333333335884
 20
402.3895664004488
 30
0.0000000000000000
 11
683.3333333335889
 21
443.4851628328257
 31
0.0000000000000000
  0
LINE
  5
B5
100
AcDbEntity
  8
MAIN0
  6
CONTINUOUS
 62
3
100
AcDbLine
 10
692.6666666666663
 20
413.0562330661317
 30
0.0000000000000000
 11
692.6666666666663
 21
438.9905160020544
 31
0.0000000000000000
  0
ARC
  5
B6
100
AcDbEntity
  8
MAIN0
  6
CONTINUOUS
 62
3
100
AcDbCircle
 10
993.8362526870457
 20
692.0000000000061
 30
0.0000000000000000
 40
12.84863113964272
100
AcDbArc
 50
313.4139948783097
 51
406.5860051216986
  0
ARC
  5
B7
100
AcDbEntity
  8
MAIN0
  6
CONTINUOUS
 62
3
100
AcDbCircle
 10
1046.163747312955
 20
692.0000000000061
 30
0.0000000000000000
 40
12.84863113964272
100
AcDbArc
 50
133.4139948783014
 51
226.5860051216902
  0
LINE
  5
B8
100
AcDbEntity
  8
MAIN0
  6
CONTINUOUS
 62
3
100
AcDbLine
 10
1002.666666666667
 20
711.4666666785943
 30
0.0000000000000000
 11
1002.666666666667
 21
735.3333333333333
 31
0.0000000000000000
  0
LINE
  5
B9
100
AcDbEntity
  8
MAIN0
  6
CONTINUOUS
 62
3
100
AcDbLine
 10
1002.666666666667
 20
733.3333333333333
 30
0.0000000000000000
 11
1037.333333333333
 21
733.3333333333333
 31
0.0000000000000000
  0
LINE
  5
BA
100
AcDbEntity
  8
MAIN0
  6
CONTINUOUS
 62
3
100
AcDbLine
 10
1006.666666666667
 20
734.5333333810170
 30
0.0000000000000000
 11
1002.666666666667
 21
733.3333333333333
 31
0.0000000000000000
  0
LINE
  5
BB
100
AcDbEntity
  8
MAIN0
  6
CONTINUOUS
 62
3
100
AcDbLine
 10
1002.666666666667
 20
733.3333333333333
 30
0.0000000000000000
 11
1006.666666666667
 21
732.1333332856495
 31
0.0000000000000000
  0
LINE
  5
BC
100
AcDbEntity
  8
MAIN0
  6
CONTINUOUS
 62
3
100
AcDbLine
 10
1033.333333333333
 20
734.5333333810170
 30
0.0000000000000000
 11
1037.333333333333
 21
733.3333333333333
 31
0.0000000000000000
  0
LINE
  5
BD
100
AcDbEntity
  8
MAIN0
  6
CONTINUOUS
 62
3
100
AcDbLine
 10
1037.333333333333
 20
733.3333333333333
 30
0.0000000000000000
 11
1033.333333333333
 21
732.1333332856495
 31
0.0000000000000000
  0
MTEXT
  5
BE
100
AcDbEntity
  8
MAIN0
  6
CONTINUOUS
 62
3
100
AcDbMText
 10
1020.000000000000
 20
734.3333333333333
 30
0.0000000000000000
 40
6.199999809265137
 41
0.0000000000000000
 71
     8
 72
     1
  1
{\U+220526}
 11
1.000000000000000
 21
0.0000000000000000
 31
0.0000000000000000
  7
STANDARD
  0
LINE
  5
BF
100
AcDbEntity
  8
MAIN0
  6
CONTINUOUS
 62
3
100
AcDbLine
 10
1037.333333333333
 20
711.4666666785806
 30
0.0000000000000000
 11
1037.333333333333
 21
735.3333333333333
 31
0.0000000000000000
  0
LINE
  5
C0
100
AcDbEntity
  8
MAIN0
  6
CONTINUOUS
 62
3
100
AcDbLine
 10
565.8109958636023
 20
338.0129583284465
 30
0.0000000000000000
 11
603.7182403011802
 21
300.1057138909290
 31
0.0000000000000000
  0
LINE
  5
C1
100
AcDbEntity
  8
MAIN0
  6
CONTINUOUS
 62
3
100
AcDbLine
 10
602.3040267388062
 20
301.5199274533009
 30
0.0000000000000000
 11
623.0458256529939
 21
322.2617263675217
 31
0.0000000000000000
  0
LINE
  5
C2
100
AcDbEntity
  8
MAIN0
  6
CONTINUOUS
 62
3
100
AcDbLine
 10
604.2839256924082
 20
305.1968827491900
 30
0.0000000000000000
 11
602.3040267388062
 21
301.5199274533009
 31
0.0000000000000000
  0
LINE
  5
C3
100
AcDbEntity
  8
MAIN0
  6
CONTINUOUS
 62
3
100
AcDbLine
 10
602.3040267388062
 20
301.5199274533009
 30
0.0000000000000000
 11
605.9809820346922
 21
303.4998264069087
 31
0.0000000000000000
  0
LINE
  5
C4
100
AcDbEntity
  8
MAIN0
  6
CONTINUOUS
 62
3
100
AcDbLine
 10
619.3688703571080
 20
320.2818274139139
 30
0.0000000000000000
 11
623.0458256529939
 21
322.2617263675217
 31
0.0000000000000000
  0
LINE
  5
C5
100
AcDbEntity
  8
MAIN0
  6
CONTINUOUS
 62
3
100
AcDbLine
 10
623.0458256529939
 20
322.2617263675217
 30
0.0000000000000000
 11
621.0659266993920
 21
318.5847710716325
 31
0.0000000000000000
  0
MTEXT
  5
C6
100
AcDbEntity
  8
MAIN0
  6
CONTINUOUS
 62
3
100
AcDbMText
 10
611.2607126335257
 20
313.3050404727834
 30
0.0000000000000000
 40
6.199999809265137
 41
0.0000000000000000
 71
     8
 72
     1
  1
{\H0.69x;{22}}
 11
0.7071067811859831
 21
0.7071067811871119
 31
0.0000000000000000
  7
STANDARD
  0
LINE
  5
C7
100
AcDbEntity
  8
MAIN0
  6
CONTINUOUS
 62
3
100
AcDbLine
 10
586.5527947777903
 20
358.7547572426668
 30
0.0000000000000000
 11
624.4600392153679
 21
320.8475128051495
 31
0.0000000000000000
  0
LINE
  5
C8
100
AcDbEntity
  8
MAIN0
  6
CONTINUOUS
 62
3
100
AcDbLine
 10
623.0458256529939
 20
322.2617263675217
 30
0.0000000000000000
 11
662.6438053994090
 21
361.8597061139999
 31
0.0000000000000000
  0
LINE
  5
C9
100
AcDbEntity
  8
MAIN0
  6
CONTINUOUS
 62
3
100
AcDbLine
 10
625.0257246065959
 20
325.9386816634108
 30
0.0000000000000000
 11
623.0458256529939
 21
322.2617263675217
 31
0.0000000000000000
  0
LINE
  5
CA
100
AcDbEntity
  8
MAIN0
  6
CONTINUOUS
 62
3
100
AcDbLine
 10
623.0458256529939
 20
322.2617263675217
 30
0.0000000000000000
 11
626.7227809488799
 21
324.2416253211295
 31
0.0000000000000000
  0
LINE
  5
CB
100
AcDbEntity
  8
MAIN0
  6
CONTINUOUS
 62
3
100
AcDbLine
 10
658.9668501035230
 20
359.8798071603921
 30
0.0000000000000000
 11
662.6438053994090
 21
361.8597061139999
 31
0.0000000000000000
  0
LINE
  5
CC
100
AcDbEntity
  8
MAIN0
  6
CONTINUOUS
 62
3
100
AcDbLine
 10
662.6438053994090
 20
361.8597061139999
 30
0.0000000000000000
 11
660.6639064458070
 21
358.1827508181108
 31
0.0000000000000000
  0
MTEXT
  5
CD
100
AcDbEntity
  8
MAIN0
  6
CONTINUOUS
 62
3
100
AcDbMText
 10
637.2633903651879
 20
338.3649091629044
 30
0.0000000000000000
 40
6.199999809265137
 41
0.0000000000000000
 71
     8
 72
     1
  1
{\H0.69x;{42}}
 11
0.7071067811859831
 21
0.7071067811871119
 31
0.0000000000000000
  7
STANDARD
  0
LINE
  5
CE
100
AcDbEntity
  8
MAIN0
  6
CONTINUOUS
 62
3
100
AcDbLine
 10
626.1507745242060
 20
398.3527369891444
 30
0.0000000000000000
 11
664.0580189617831
 21
360.4454925516279
 31
0.0000000000000000
  0
LINE
  5
CF
100
AcDbEntity
  8
MAIN0
  6
CONTINUOUS
 62
1
100
AcDbLine
 10
1151.999999999996
 20
692.8000000119691
 30
0.0000000000000000
 11
1151.999999999996
 21
748.6666666666666
 31
0.0000000000000000
  0
LINE
  5
D0
100
AcDbEntity
  8
MAIN0
  6
CONTINUOUS
 62
1
100
AcDbLine
 10
1151.999999999996
 20
746.6666666666666
 30
0.0000000000000000
 11
888.0000000000039
 21
746.6666666666666
 31
0.0000000000000000
  0
LINE
  5
D1
100
AcDbEntity
  8
MAIN0
  6
CONTINUOUS
 62
1
100
AcDbLine
 10
1147.999999999996
 20
745.4666666189829
 30
0.0000000000000000
 11
1151.999999999996
 21
746.6666666666666
 31
0.0000000000000000
  0
LINE
  5
D2
100
AcDbEntity
  8
MAIN0
  6
CONTINUOUS
 62
1
100
AcDbLine
 10
1151.999999999996
 20
746.6666666666666
 30
0.0000000000000000
 11
1147.999999999996
 21
747.8666667143503
 31
0.0000000000000000
  0
LINE
  5
D3
100
AcDbEntity
  8
MAIN0
  6
CONTINUOUS
 62
1
100
AcDbLine
 10
892.0000000000039
 20
745.4666666189829
 30
0.0000000000000000
 11
888.0000000000039
 21
746.6666666666666
 31
0.0000000000000000
  0
LINE
  5
D4
100
AcDbEntity
  8
MAIN0
  6
CONTINUOUS
 62
1
100
AcDbLine
 10
888.0000000000039
 20
746.6666666666666
 30
0.0000000000000000
 11
892.0000000000039
 21
747.8666667143503
 31
0.0000000000000000
  0
MTEXT
  5
D5
100
AcDbEntity
  8
MAIN0
  6
CONTINUOUS
 62
1
100
AcDbMText
 10
1020.000000000000
 20
747.6666666666666
 30
0.0000000000000000
 40
6.199999809265137
 41
0.0000000000000000
 71
     8
 72
     1
  1
{\H0.70x;{300}}
 11
1.000000000000000
 21
0.0000000000000000
 31
0.0000000000000000
  7
STANDARD
  0
LINE
  5
D6
100
AcDbEntity
  8
MAIN0
  6
CONTINUOUS
 62
1
100
AcDbLine
 10
888.0000000000039
 20
692.8000000119691
 30
0.0000000000000000
 11
888.0000000000039
 21
748.6666666666666
 31
0.0000000000000000
  0
LINE
  5
D7
100
AcDbEntity
  8
MAIN0
  6
CONTINUOUS
 62
3
100
AcDbLine
 10
1019.681205387635
 20
446.6536907834877
 30
0.0000000000000000
 11
1037.150914897582
 21
429.1839812735313
 31
0.0000000000000000
  0
LINE
  5
D8
100
AcDbEntity
  8
MAIN0
  6
CONTINUOUS
 62
3
100
AcDbLine
 10
1033.615380991649
 20
428.4768744923458
 30
0.0000000000000000
 11
1057.329625622358
 21
452.1911191230433
 31
0.0000000000000000
  0
LINE
  5
D9
100
AcDbEntity
  8
MAIN0
  6
CONTINUOUS
 62
3
100
AcDbLine
 10
1032.059746039321
 20
428.6182958823010
 30
0.0000000000000000
 11
1035.736701335209
 21
430.5981948359049
 31
0.0000000000000000
  0
LINE
  5
DA
100
AcDbEntity
  8
MAIN0
  6
CONTINUOUS
 62
3
100
AcDbLine
 10
1035.736701335209
 20
430.5981948359049
 30
0.0000000000000000
 11
1033.756802381603
 21
426.9212395400179
 31
0.0000000000000000
  0
LINE
  5
DB
100
AcDbEntity
  8
MAIN0
  6
CONTINUOUS
 62
3
100
AcDbLine
 10
1049.030308787803
 20
445.5888586307741
 30
0.0000000000000000
 11
1047.050409834197
 21
441.9119033348871
 31
0.0000000000000000
  0
LINE
  5
DC
100
AcDbEntity
  8
MAIN0
  6
CONTINUOUS
 62
3
100
AcDbLine
 10
1047.050409834197
 20
441.9119033348871
 30
0.0000000000000000
 11
1050.727365130085
 21
443.8918022884910
 31
0.0000000000000000
  0
MTEXT
  5
DD
100
AcDbEntity
  8
MAIN0
  6
CONTINUOUS
 62
3
100
AcDbMText
 10
1052.406044941400
 20
448.6817520044604
 30
0.0000000000000000
 40
6.199999809265137
 41
0.0000000000000000
 71
     8
 72
     1
  1
{\H0.69x;{12}}
 11
0.7071067811867297
 21
0.7071067811863655
 31
0.0000000000000000
  7
STANDARD
  0
MTEXT
  5
DE
100
AcDbEntity
  8
MAIN0
  6
CONTINUOUS
 62
3
100
AcDbMText
 10
1053.961679999098
 20
458.1569828765744
 30
0.0000000000000000
 40
5.599999904632568
 41
0.0000000000000000
 71
     8
 72
     1
  1
{ 0}
 11
0.7071067811867297
 21
0.7071067811863655
 31
0.0000000000000000
  7
STANDARD
  0
MTEXT
  5
DF
100
AcDbEntity
  8
MAIN0
  6
CONTINUOUS
 62
3
100
AcDbMText
 10
1061.138813848161
 20
457.4145209112164
 30
0.0000000000000000
 40
5.599999904632568
 41
0.0000000000000000
 71
     8
 72
     1
  1
{-0.15}
 11
0.7071067811867297
 21
0.7071067811863655
 31
0.0000000000000000
  7
STANDARD
  0
LINE
  5
E0
100
AcDbEntity
  8
MAIN0
  6
CONTINUOUS
 62
3
100
AcDbLine
 10
1030.994913888328
 20
457.9673992807652
 30
0.0000000000000000
 11
1048.464623396570
 21
440.4976897725139
 31
0.0000000000000000
  0
LINE
  5
E1
100
AcDbEntity
  8
MAIN0
  6
CONTINUOUS
 62
3
100
AcDbLine
 10
1035.666666666667
 20
580.0000000000000
 30
0.0000000000000000
 11
1004.333333333334
 21
580.0000000000000
 31
0.0000000000000000
  0
LINE
  5
E2
100
AcDbEntity
  8
MAIN0
  6
CONTINUOUS
 62
3
100
AcDbLine
 10
1036.666666666667
 20
578.7999999523163
 30
0.0000000000000000
 11
1032.666666666667
 21
580.0000000000000
 31
0.0000000000000000
  0
LINE
  5
E3
100
AcDbEntity
  8
MAIN0
  6
CONTINUOUS
 62
3
100
AcDbLine
 10
1032.666666666667
 20
580.0000000000000
 30
0.0000000000000000
 11
1036.666666666667
 21
581.2000000476837
 31
0.0000000000000000
  0
LINE
  5
E4
100
AcDbEntity
  8
MAIN0
  6
CONTINUOUS
 62
3
100
AcDbLine
 10
1003.333333333334
 20
578.7999999523163
 30
0.0000000000000000
 11
1007.333333333334
 21
580.0000000000000
 31
0.0000000000000000
  0
LINE
  5
E5
100
AcDbEntity
  8
MAIN0
  6
CONTINUOUS
 62
3
100
AcDbLine
 10
1007.333333333334
 20
580.0000000000000
 30
0.0000000000000000
 11
1003.333333333334
 21
581.2000000476837
 31
0.0000000000000000
  0
MTEXT
  5
E6
100
AcDbEntity
  8
MAIN0
  6
CONTINUOUS
 62
3
100
AcDbMText
 10
1020.000000000000
 20
581.0000000000000
 30
0.0000000000000000
 40
6.199999809265137
 41
0.0000000000000000
 71
     8
 72
     1
  1
{\U+220519}
 11
1.000000000000000
 21
0.0000000000000000
 31
0.0000000000000000
  7
STANDARD
  0
LINE
  5
E7
100
AcDbEntity
  8
MAIN0
  6
CONTINUOUS
 62
3
100
AcDbLine
 10
966.6666666666666
 20
679.6666666666974
 30
0.0000000000000000
 11
966.6666666666666
 21
711.1011918386138
 31
0.0000000000000000
  0
LINE
  5
E8
100
AcDbEntity
  8
MAIN0
  6
CONTINUOUS
 62
3
100
AcDbLine
 10
965.4666666189829
 20
678.6666666666974
 30
0.0000000000000000
 11
966.6666666666666
 21
682.6666666666974
 31
0.0000000000000000
  0
LINE
  5
E9
100
AcDbEntity
  8
MAIN0
  6
CONTINUOUS
 62
3
100
AcDbLine
 10
966.6666666666666
 20
682.6666666666974
 30
0.0000000000000000
 11
967.8666667143503
 21
678.6666666666974
 31
0.0000000000000000
  0
LINE
  5
EA
100
AcDbEntity
  8
MAIN0
  6
CONTINUOUS
 62
3
100
AcDbLine
 10
965.4666666189829
 20
705.3333333333648
 30
0.0000000000000000
 11
966.6666666666666
 21
701.3333333333648
 31
0.0000000000000000
  0
LINE
  5
EB
100
AcDbEntity
  8
MAIN0
  6
CONTINUOUS
 62
3
100
AcDbLine
 10
966.6666666666666
 20
701.3333333333648
 30
0.0000000000000000
 11
967.8666667143503
 21
705.3333333333648
 31
0.0000000000000000
  0
MTEXT
  5
EC
100
AcDbEntity
  8
MAIN0
  6
CONTINUOUS
 62
3
100
AcDbMText
 10
965.3333333333333
 20
714.0690505602925
 30
0.0000000000000000
 40
6.199999809265137
 41
0.0000000000000000
 71
     8
 72
     1
  1
{\U+220514}
 11
6.123233995736766e-017
 21
1.000000000000000
 31
0.0000000000000000
  7
STANDARD
  0
LINE
  5
ED
100
AcDbEntity
  8
MAIN0
  6
CONTINUOUS
 62
3
100
AcDbLine
 10
1031.133333345262
 20
506.6666666666627
 30
0.0000000000000000
 11
1062.000000000000
 21
506.6666666666627
 31
0.0000000000000000
  0
LINE
  5
EE
100
AcDbEntity
  8
MAIN0
  6
CONTINUOUS
 62
3
100
AcDbLine
 10
1060.000000000000
 20
509.6666666666627
 30
0.0000000000000000
 11
1060.000000000000
 21
483.6666666666631
 31
0.0000000000000000
  0
LINE
  5
EF
100
AcDbEntity
  8
MAIN0
  6
CONTINUOUS
 62
3
100
AcDbLine
 10
1061.200000047684
 20
510.6666666666627
 30
0.0000000000000000
 11
1060.000000000000
 21
506.6666666666627
 31
0.0000000000000000
  0
LINE
  5
F0
100
AcDbEntity
  8
MAIN0
  6
CONTINUOUS
 62
3
100
AcDbLine
 10
1060.000000000000
 20
506.6666666666627
 30
0.0000000000000000
 11
1058.799999952316
 21
510.6666666666627
 31
0.0000000000000000
  0
LINE
  5
F1
100
AcDbEntity
  8
MAIN0
  6
CONTINUOUS
 62
3
100
AcDbLine
 10
1061.200000047684
 20
482.6666666666631
 30
0.0000000000000000
 11
1060.000000000000
 21
486.6666666666631
 31
0.0000000000000000
  0
LINE
  5
F2
100
AcDbEntity
  8
MAIN0
  6
CONTINUOUS
 62
3
100
AcDbLine
 10
1060.000000000000
 20
486.6666666666631
 30
0.0000000000000000
 11
1058.799999952316
 21
482.6666666666631
 31
0.0000000000000000
  0
MTEXT
  5
F3
100
AcDbEntity
  8
MAIN0
  6
CONTINUOUS
 62
3
100
AcDbMText
 10
1059.000000000000
 20
496.6666666666628
 30
0.0000000000000000
 40
6.199999809265137
 41
0.0000000000000000
 71
     8
 72
     1
  1
{\H0.69x;{15}}
 11
6.123233995736766e-017
 21
1.000000000000000
 31
0.0000000000000000
  7
STANDARD
  0
LINE
  5
F4
100
AcDbEntity
  8
MAIN0
  6
CONTINUOUS
 62
3
100
AcDbLine
 10
1030.200000011921
 20
486.6666666666631
 30
0.0000000000000000
 11
1062.000000000000
 21
486.6666666666631
 31
0.0000000000000000
  0
ARC
  5
F5
100
AcDbEntity
  8
MAIN0
  6
CONTINUOUS
 62
3
100
AcDbCircle
 10
706.6666666666665
 20
480.0000000000002
 30
0.0000000000000000
 40
173.3333333333333
100
AcDbArc
 50
97.73638004004651
 51
172.2636199601305
  0
ARC
  5
F6
100
AcDbEntity
  8
MAIN0
  6
CONTINUOUS
 62
3
100
AcDbCircle
 10
706.6666666666665
 20
480.0000000000002
 30
0.0000000000000000
 40
173.3333333333333
100
AcDbArc
 50
187.7363800398692
 51
262.2636199599501
  0
ARC
  5
F7
100
AcDbEntity
  8
MAIN0
  6
CONTINUOUS
 62
3
100
AcDbCircle
 10
706.6666666666665
 20
480.0000000000002
 30
0.0000000000000000
 40
120.0000000000000
100
AcDbArc
 50
191.2122714175252
 51
220.6832112812830
  0
ARC
  5
F8
100
AcDbEntity
  8
MAIN0
  6
CONTINUOUS
 62
3
100
AcDbCircle
 10
706.6666666666665
 20
480.0000000000002
 30
0.0000000000000000
 40
120.0000000000000
100
AcDbArc
 50
229.3167887197832
 51
258.7877285822184
  0
ARC
  5
F9
100
AcDbEntity
  8
MAIN0
  6
CONTINUOUS
 62
3
100
AcDbCircle
 10
706.6666666666665
 20
480.0000000000002
 30
0.0000000000000000
 40
146.6666666666667
100
AcDbArc
 50
189.1541332845375
 51
220.8293520886018
  0
ARC
  5
FA
100
AcDbEntity
  8
MAIN0
  6
CONTINUOUS
 62
3
100
AcDbCircle
 10
706.6666666666665
 20
480.0000000000002
 30
0.0000000000000000
 40
146.6666666666667
100
AcDbArc
 50
229.1706479123248
 51
260.8458667152510
  0
ARC
  5
FB
100
AcDbEntity
  8
MAIN0
  6
CONTINUOUS
 62
3
100
AcDbCircle
 10
706.6666666666665
 20
480.0000000000002
 30
0.0000000000000000
 40
146.6666666666667
100
AcDbArc
 50
99.15413328474502
 51
130.8293520876748
  0
ARC
  5
FC
100
AcDbEntity
  8
MAIN0
  6
CONTINUOUS
 62
3
100
AcDbCircle
 10
706.6666666666665
 20
480.0000000000002
 30
0.0000000000000000
 40
146.6666666666667
100
AcDbArc
 50
139.1706479113979
 51
170.8458667154621
  0
ARC
  5
FD
100
AcDbEntity
  8
MAIN0
  6
CONTINUOUS
 62
3
100
AcDbCircle
 10
706.6666666666665
 20
480.0000000000002
 30
0.0000000000000000
 40
120.0000000000000
100
AcDbArc
 50
101.2122714177769
 51
130.6832112802164
  0
ARC
  5
FE
100
AcDbEntity
  8
MAIN0
  6
CONTINUOUS
 62
3
100
AcDbCircle
 10
706.6666666666665
 20
480.0000000000002
 30
0.0000000000000000
 40
120.0000000000000
100
AcDbArc
 50
139.3167887187166
 51
168.7877285824744
  0
ARC
  5
FF
100
AcDbEntity
  8
MAIN0
  6
CONTINUOUS
 62
3
100
AcDbCircle
 10
706.6666666666665
 20
480.0000000000002
 30
0.0000000000000000
 40
66.66666666666666
100
AcDbArc
 50
110.4873151144881
 51
159.5126848855116
  0
ARC
  5
100
100
AcDbEntity
  8
MAIN0
  6
CONTINUOUS
 62
3
100
AcDbCircle
 10
706.6666666666665
 20
480.0000000000002
 30
0.0000000000000000
 40
66.66666666666666
100
AcDbArc
 50
200.4873151144880
 51
249.5126848855116
  0
POINT
  5
101
100
AcDbEntity
  8
MAIN0
  6
CONTINUOUS
 62
3
100
AcDbPoint
 10
565.2453104305939
 20
338.5786437614539
 30
0.0000000000000000
  0
ARC
  5
102
100
AcDbEntity
  8
MAIN0
  6
CONTINUOUS
 62
3
100
AcDbCircle
 10
706.6666666666665
 20
480.0000000000002
 30
0.0000000000000000
 40
93.33333333333333
100
AcDbArc
 50
104.4775121857679
 51
127.0841638116513
  0
ARC
  5
103
100
AcDbEntity
  8
MAIN0
  6
CONTINUOUS
 62
3
100
AcDbCircle
 10
706.6666666666665
 20
480.0000000000002
 30
0.0000000000000000
 40
93.33333333333333
100
AcDbArc
 50
142.9158361898155
 51
165.5224878142319
  0
ARC
  5
104
100
AcDbEntity
  8
MAIN0
  6
CONTINUOUS
 62
3
100
AcDbCircle
 10
706.6666666666665
 20
480.0000000000002
 30
0.0000000000000000
 40
93.33333333333333
100
AcDbArc
 50
194.4775121857678
 51
217.0841638116513
  0
ARC
  5
105
100
AcDbEntity
  8
MAIN0
  6
CONTINUOUS
 62
3
100
AcDbCircle
 10
706.6666666666665
 20
480.0000000000002
 30
0.0000000000000000
 40
93.33333333333333
100
AcDbArc
 50
232.9158361898156
 51
255.5224878139030
  0
CIRCLE
  5
106
100
AcDbEntity
  8
MAIN0
  6
CONTINUOUS
 62
3
100
AcDbCircle
 10
643.8048738199872
 20
417.1382071517114
 30
0.0000000000000000
 40
13.33333333333333
  0
CIRCLE
  5
107
100
AcDbEntity
  8
MAIN0
  6
CONTINUOUS
 62
3
100
AcDbCircle
 10
643.8048738199872
 20
417.1382071517114
 30
0.0000000000000000
 40
9.000000000000000
  0
CIRCLE
  5
108
100
AcDbEntity
  8
MAIN0
  6
CONTINUOUS
 62
3
100
AcDbCircle
 10
643.8048738183779
 20
542.8617928466796
 30
0.0000000000000000
 40
13.33333333333333
  0
CIRCLE
  5
109
100
AcDbEntity
  8
MAIN0
  6
CONTINUOUS
 62
3
100
AcDbCircle
 10
643.8048738183779
 20
542.8617928466796
 30
0.0000000000000000
 40
9.000000000000000
  0
INSERT
  5
110
100
AcDbEntity
  8
MAIN0
  6
CONTINUOUS
 62
2
100
AcDbBlockReference
  2
M0
 10
0.0000000000000000
 20
0.0000000000000000
 30
0.0000000000000000
 50
0.0000000000000000
  0
INSERT
  5
117
100
AcDbEntity
  8
MAIN0
  6
CONTINUOUS
 62
2
100
AcDbBlockReference
  2
M1
 10
0.0000000000000000
 20
0.0000000000000000
 30
0.0000000000000000
 50
0.0000000000000000
  0
MTEXT
  5
118
100
AcDbEntity
  8
MAIN0
  6
CONTINUOUS
 62
3
100
AcDbMText
 10
681.9333337148046
 20
733.3333333333335
 30
0.0000000000000000
 40
12.00000000000000
 41
0.0000000000000000
 71
     1
 72
     1
  1
{\H0.82x;{C}}
 11
1.000000000000000
 21
-5.573999878030222e-015
 31
0.0000000000000000
  7
STANDARD
  0
MTEXT
  5
119
100
AcDbEntity
  8
MAIN0
  6
CONTINUOUS
 62
3
100
AcDbMText
 10
839.7494688002429
 20
311.9389829651449
 30
0.0000000000000000
 40
12.00000000000000
 41
0.0000000000000000
 71
     1
 72
     1
  1
{\H0.82x;{D}}
 11
0.7071067811850886
 21
0.7071067811880064
 31
0.0000000000000000
  7
STANDARD
  0
MTEXT
  5
11A
100
AcDbEntity
  8
MAIN0
  6
CONTINUOUS
 62
3
100
AcDbMText
 10
240.0000000000000
 20
252.0000000000000
 30
0.0000000000000000
 40
12.00000000000000
 41
0.0000000000000000
 71
     1
 72
     1
  1
{\H0.93x;{\LC-O-D 断面}}
 11
1.000000000000000
 21
0.0000000000000000
 31
0.0000000000000000
  7
KNJYOKO
  0
LINE
  5
11B
100
AcDbEntity
  8
MAIN0
  6
CONTINUOUS
 62
3
100
AcDbLine
 10
1035.466666678588
 20
713.3333333333278
 30
0.0000000000000000
 11
1088.666666666667
 21
713.3333333333395
 31
0.0000000000000000
  0
LINE
  5
11C
100
AcDbEntity
  8
MAIN0
  6
CONTINUOUS
 62
3
100
AcDbLine
 10
1086.666666666667
 20
713.3333333333391
 30
0.0000000000000000
 11
1086.666666666667
 21
486.6666666666704
 31
0.0000000000000000
  0
LINE
  5
11D
100
AcDbEntity
  8
MAIN0
  6
CONTINUOUS
 62
3
100
AcDbLine
 10
1087.866666714350
 20
709.3333333333391
 30
0.0000000000000000
 11
1086.666666666667
 21
713.3333333333391
 31
0.0000000000000000
  0
LINE
  5
11E
100
AcDbEntity
  8
MAIN0
  6
CONTINUOUS
 62
3
100
AcDbLine
 10
1086.666666666667
 20
713.3333333333391
 30
0.0000000000000000
 11
1085.466666618983
 21
709.3333333333391
 31
0.0000000000000000
  0
LINE
  5
11F
100
AcDbEntity
  8
MAIN0
  6
CONTINUOUS
 62
3
100
AcDbLine
 10
1087.866666714350
 20
490.6666666666704
 30
0.0000000000000000
 11
1086.666666666667
 21
486.6666666666704
 31
0.0000000000000000
  0
LINE
  5
120
100
AcDbEntity
  8
MAIN0
  6
CONTINUOUS
 62
3
100
AcDbLine
 10
1086.666666666667
 20
486.6666666666704
 30
0.0000000000000000
 11
1085.466666618983
 21
490.6666666666704
 31
0.0000000000000000
  0
MTEXT
  5
121
100
AcDbEntity
  8
MAIN0
  6
CONTINUOUS
 62
3
100
AcDbMText
 10
1085.666666666667
 20
600.0000000000048
 30
0.0000000000000000
 40
6.199999809265137
 41
0.0000000000000000
 71
     8
 72
     1
  1
{\H0.70x;{170}}
 11
6.123233995736766e-017
 21
1.000000000000000
 31
0.0000000000000000
  7
STANDARD
  0
LINE
  5
122
100
AcDbEntity
  8
MAIN0
  6
CONTINUOUS
 62
3
100
AcDbLine
 10
1030.200000011921
 20
486.6666666666632
 30
0.0000000000000000
 11
1088.666666666667
 21
486.6666666666707
 31
0.0000000000000000
  0
LINE
  5
123
100
AcDbEntity
  8
MAIN0
  6
CONTINUOUS
 62
3
100
AcDbLine
 10
1035.466666678588
 20
713.3333333333280
 30
0.0000000000000000
 11
1062.000000000000
 21
713.3333333333400
 31
0.0000000000000000
  0
LINE
  5
124
100
AcDbEntity
  8
MAIN0
  6
CONTINUOUS
 62
3
100
AcDbLine
 10
1060.000000000000
 20
713.3333333333391
 30
0.0000000000000000
 11
1060.000000000000
 21
692.0000000001095
 31
0.0000000000000000
  0
LINE
  5
125
100
AcDbEntity
  8
MAIN0
  6
CONTINUOUS
 62
3
100
AcDbLine
 10
1061.200000047684
 20
709.3333333333391
 30
0.0000000000000000
 11
1060.000000000000
 21
713.3333333333391
 31
0.0000000000000000
  0
LINE
  5
126
100
AcDbEntity
  8
MAIN0
  6
CONTINUOUS
 62
3
100
AcDbLine
 10
1060.000000000000
 20
713.3333333333391
 30
0.0000000000000000
 11
1058.799999952316
 21
709.3333333333391
 31
0.0000000000000000
  0
LINE
  5
127
100
AcDbEntity
  8
MAIN0
  6
CONTINUOUS
 62
3
100
AcDbLine
 10
1061.200000047684
 20
696.0000000001095
 30
0.0000000000000000
 11
1060.000000000000
 21
692.0000000001095
 31
0.0000000000000000
  0
LINE
  5
128
100
AcDbEntity
  8
MAIN0
  6
CONTINUOUS
 62
3
100
AcDbLine
 10
1060.000000000000
 20
692.0000000001095
 30
0.0000000000000000
 11
1058.799999952316
 21
696.0000000001095
 31
0.0000000000000000
  0
MTEXT
  5
129
100
AcDbEntity
  8
MAIN0
  6
CONTINUOUS
 62
3
100
AcDbMText
 10
1059.000000000000
 20
706.8565777917836
 30
0.0000000000000000
 40
6.199999809265137
 41
0.0000000000000000
 71
     8
 72
     1
  1
{\H0.69x;{16}}
 11
6.123233995736766e-017
 21
1.000000000000000
 31
0.0000000000000000
  7
STANDARD
  0
CIRCLE
  5
12A
100
AcDbEntity
  8
MAIN0
  6
CONTINUOUS
 62
3
100
AcDbCircle
 10
706.6666666666665
 20
480.0000000000002
 30
0.0000000000000000
 40
43.33333333333333
  0
LINE
  5
12B
100
AcDbEntity
  8
MAIN0
  6
CONTINUOUS
 62
3
100
AcDbLine
 10
351.7293361301911
 20
680.0000000000009
 30
0.0000000000000000
 11
236.3960027968575
 21
680.0000000000009
 31
0.0000000000000000
  0
LINE
  5
12C
100
AcDbEntity
  8
MAIN0
  6
CONTINUOUS
 62
3
100
AcDbLine
 10
352.3960027968577
 20
280.0000000000010
 30
0.0000000000000000
 11
236.3960027968577
 21
280.0000000000010
 31
0.0000000000000000
  0
ARC
  5
12D
100
AcDbEntity
  8
MAIN0
  6
CONTINUOUS
 62
3
100
AcDbCircle
 10
351.7293361301911
 20
677.3333333333343
 30
0.0000000000000000
 40
2.666666666666667
100
AcDbArc
 50
0.0000000000000000
 51
90.00000000000000
  0
LINE
  5
12E
100
AcDbEntity
  8
MAIN0
  6
CONTINUOUS
 62
3
100
AcDbLine
 10
257.0626694635243
 20
548.6666666666677
 30
0.0000000000000000
 11
252.3960445211334
 21
548.6666666666677
 31
0.0000000000000000
  0
LINE
  5
12F
100
AcDbEntity
  8
MAIN0
  6
CONTINUOUS
 62
3
100
AcDbLine
 10
406.3960027968576
 20
503.3333333333344
 30
0.0000000000000000
 11
354.3960027968577
 21
503.3333333333344
 31
0.0000000000000000
  0
LINE
  5
130
100
AcDbEntity
  8
MAIN0
  6
CONTINUOUS
 62
3
100
AcDbLine
 10
406.3960027968577
 20
456.6666666666678
 30
0.0000000000000000
 11
354.3960027968577
 21
456.6666666666677
 31
0.0000000000000000
  0
LINE
  5
131
100
AcDbEntity
  8
MAIN0
  6
CONTINUOUS
 62
3
100
AcDbLine
 10
354.3960027968576
 20
676.0000000000231
 30
0.0000000000000000
 11
354.3960027968576
 21
677.3333333333343
 31
0.0000000000000000
  0
LINE
  5
132
100
AcDbEntity
  8
MAIN0
  6
CENTER
 62
3
100
AcDbLine
 10
360.3622170370363
 20
306.6666666666677
 30
0.0000000000000000
 11
345.4345062132265
 21
306.6666666666677
 31
0.0000000000000000
  0
LINE
  5
133
100
AcDbEntity
  8
MAIN0
  6
CENTER
 62
3
100
AcDbLine
 10
360.3622170370363
 20
333.3333333333344
 30
0.0000000000000000
 11
345.4345062132264
 21
333.3333333333344
 31
0.0000000000000000
  0
LINE
  5
134
100
AcDbEntity
  8
MAIN0
  6
CENTER
 62
3
100
AcDbLine
 10
360.3622170370363
 20
360.0000000000011
 30
0.0000000000000000
 11
345.4345062132265
 21
360.0000000000011
 31
0.0000000000000000
  0
LINE
  5
135
100
AcDbEntity
  8
MAIN0
  6
CENTER
 62
3
100
AcDbLine
 10
360.3622170370363
 20
386.6666666666678
 30
0.0000000000000000
 11
345.4345062132265
 21
386.6666666666678
 31
0.0000000000000000
  0
LINE
  5
136
100
AcDbEntity
  8
MAIN0
  6
CENTER
 62
3
100
AcDbLine
 10
360.3622170370363
 20
413.3333333333344
 30
0.0000000000000000
 11
345.4345062132265
 21
413.3333333333344
 31
0.0000000000000000
  0
LINE
  5
137
100
AcDbEntity
  8
MAIN0
  6
CONTINUOUS
 62
3
100
AcDbLine
 10
354.3960027968572
 20
412.6666666667256
 30
0.0000000000000000
 11
353.2413022588349
 21
413.3333333331859
 31
0.0000000000000000
  0
LINE
  5
138
100
AcDbEntity
  8
MAIN0
  6
CONTINUOUS
 62
3
100
AcDbLine
 10
354.3960027968577
 20
413.9999999996468
 30
0.0000000000000000
 11
353.2413022588347
 21
413.3333333331857
 31
0.0000000000000000
  0
LINE
  5
139
100
AcDbEntity
  8
MAIN0
  6
CONTINUOUS
 62
3
100
AcDbLine
 10
354.3960027968572
 20
386.0000000000589
 30
0.0000000000000000
 11
353.2413022588349
 21
386.6666666665192
 31
0.0000000000000000
  0
LINE
  5
13A
100
AcDbEntity
  8
MAIN0
  6
CONTINUOUS
 62
3
100
AcDbLine
 10
354.3960027968577
 20
387.3333333329801
 30
0.0000000000000000
 11
353.2413022588347
 21
386.6666666665191
 31
0.0000000000000000
  0
LINE
  5
13B
100
AcDbEntity
  8
MAIN0
  6
CONTINUOUS
 62
3
100
AcDbLine
 10
354.3960027968573
 20
359.3333333333923
 30
0.0000000000000000
 11
353.2413022588349
 21
359.9999999998526
 31
0.0000000000000000
  0
LINE
  5
13C
100
AcDbEntity
  8
MAIN0
  6
CONTINUOUS
 62
3
100
AcDbLine
 10
354.3960027968577
 20
360.6666666663135
 30
0.0000000000000000
 11
353.2413022588347
 21
359.9999999998524
 31
0.0000000000000000
  0
LINE
  5
13D
100
AcDbEntity
  8
MAIN0
  6
CONTINUOUS
 62
3
100
AcDbLine
 10
354.3960027968573
 20
332.6666666667258
 30
0.0000000000000000
 11
353.2413022588351
 21
333.3333333331860
 31
0.0000000000000000
  0
LINE
  5
13E
100
AcDbEntity
  8
MAIN0
  6
CONTINUOUS
 62
3
100
AcDbLine
 10
354.3960027968577
 20
333.9999999996468
 30
0.0000000000000000
 11
353.2413022588348
 21
333.3333333331858
 31
0.0000000000000000
  0
LINE
  5
13F
100
AcDbEntity
  8
MAIN0
  6
CONTINUOUS
 62
3
100
AcDbLine
 10
354.3960027968573
 20
306.0000000000591
 30
0.0000000000000000
 11
353.2413022588351
 21
306.6666666665194
 31
0.0000000000000000
  0
LINE
  5
140
100
AcDbEntity
  8
MAIN0
  6
CONTINUOUS
 62
3
100
AcDbLine
 10
354.3960027968577
 20
307.3333333329800
 30
0.0000000000000000
 11
353.2413022588347
 21
306.6666666665190
 31
0.0000000000000000
  0
LINE
  5
141
100
AcDbEntity
  8
MAIN0
  6
CONTINUOUS
 62
3
100
AcDbLine
 10
354.3960027968577
 20
332.6666666667255
 30
0.0000000000000000
 11
354.3960027968577
 21
326.0000000000588
 31
0.0000000000000000
  0
LINE
  5
142
100
AcDbEntity
  8
MAIN0
  6
CONTINUOUS
 62
3
100
AcDbLine
 10
354.3960027968577
 20
307.3333333329800
 30
0.0000000000000000
 11
354.3960027968577
 21
332.6666666667255
 31
0.0000000000000000
  0
LINE
  5
143
100
AcDbEntity
  8
MAIN0
  6
CONTINUOUS
 62
3
100
AcDbLine
 10
354.3960027968577
 20
282.0000000000010
 30
0.0000000000000000
 11
354.3960027968577
 21
306.0000000000588
 31
0.0000000000000000
  0
POINT
  5
144
100
AcDbEntity
  8
MAIN0
  6
CONTINUOUS
 62
3
100
AcDbPoint
 10
234.3960027968577
 20
297.3333333333344
 30
0.0000000000000000
  0
LINE
  5
145
100
AcDbEntity
  8
MAIN0
  6
CONTINUOUS
 62
3
100
AcDbLine
 10
235.7291365668388
 20
363.9769414968915
 30
0.0000000000000000
 11
258.2580791841946
 21
363.5871111992589
 31
0.0000000000000000
  0
LINE
  5
146
100
AcDbEntity
  8
MAIN0
  6
CONTINUOUS
 62
3
100
AcDbLine
 10
234.3960027968577
 20
596.0000000000010
 30
0.0000000000000000
 11
237.0626694635243
 21
596.0000000000010
 31
0.0000000000000000
  0
ARC
  5
147
100
AcDbEntity
  8
MAIN0
  6
CONTINUOUS
 62
3
100
AcDbCircle
 10
234.3960027968576
 20
660.0000000000009
 30
0.0000000000000000
 40
2.666666666666667
100
AcDbArc
 50
0.0000000000000000
 51
90.00000000000000
  0
LINE
  5
148
100
AcDbEntity
  8
MAIN0
  6
CONTINUOUS
 62
3
100
AcDbLine
 10
407.7293361301910
 20
458.0000000000011
 30
0.0000000000000000
 11
407.7293361301910
 21
502.0000000000011
 31
0.0000000000000000
  0
LINE
  5
149
100
AcDbEntity
  8
MAIN0
  6
CONTINUOUS
 62
3
100
AcDbLine
 10
354.3960027968577
 20
333.9999999996467
 30
0.0000000000000000
 11
354.3960027968577
 21
359.3333333333924
 31
0.0000000000000000
  0
LINE
  5
14A
100
AcDbEntity
  8
MAIN0
  6
CONTINUOUS
 62
3
100
AcDbLine
 10
354.3960027968577
 20
360.6666666663134
 30
0.0000000000000000
 11
354.3960027968577
 21
386.0000000000590
 31
0.0000000000000000
  0
LINE
  5
14B
100
AcDbEntity
  8
MAIN0
  6
CONTINUOUS
 62
3
100
AcDbLine
 10
354.3960027968577
 20
387.3333333329802
 30
0.0000000000000000
 11
354.3960027968577
 21
412.6666666667254
 31
0.0000000000000000
  0
LINE
  5
14C
100
AcDbEntity
  8
MAIN0
  6
CONTINUOUS
 62
3
100
AcDbLine
 10
354.3960027968577
 20
413.9999999996467
 30
0.0000000000000000
 11
354.3960027968577
 21
480.0000000000011
 31
0.0000000000000000
  0
LINE
  5
14D
100
AcDbEntity
  8
MAIN0
  6
CONTINUOUS
 62
3
100
AcDbLine
 10
354.3960027968577
 20
489.3333333333344
 30
0.0000000000000000
 11
407.7293361301910
 21
489.3333333333344
 31
0.0000000000000000
  0
LINE
  5
14E
100
AcDbEntity
  8
MAIN0
  6
CONTINUOUS
 62
3
100
AcDbLine
 10
354.3960027968577
 20
470.6666666666677
 30
0.0000000000000000
 11
407.7293361301910
 21
470.6666666666678
 31
0.0000000000000000
  0
LINE
  5
14F
100
AcDbEntity
  8
MAIN0
  6
CONTINUOUS
 62
3
100
AcDbLine
 10
406.3960027968575
 20
503.3333333333344
 30
0.0000000000000000
 11
407.7293361301909
 21
502.0000000000010
 31
0.0000000000000000
  0
LINE
  5
150
100
AcDbEntity
  8
MAIN0
  6
CONTINUOUS
 62
3
100
AcDbLine
 10
406.3960027968577
 20
456.6666666666678
 30
0.0000000000000000
 11
407.7293361301910
 21
458.0000000000011
 31
0.0000000000000000
  0
LINE
  5
151
100
AcDbEntity
  8
MAIN0
  6
CONTINUOUS
 62
3
100
AcDbLine
 10
234.3960027968577
 20
282.0000000000010
 30
0.0000000000000000
 11
234.3960027968574
 21
678.0000000000009
 31
0.0000000000000000
  0
LINE
  5
152
100
AcDbEntity
  8
MAIN0
  6
CONTINUOUS
 62
3
100
AcDbLine
 10
252.3960445211334
 20
548.6666666666677
 30
0.0000000000000000
 11
234.3960027968575
 21
550.9166666657774
 31
0.0000000000000000
  0
LINE
  5
153
100
AcDbEntity
  8
MAIN0
  6
CONTINUOUS
 62
3
100
AcDbLine
 10
257.0626694635243
 20
411.3253333333344
 30
0.0000000000000000
 11
257.0626694635243
 21
548.6746666666677
 31
0.0000000000000000
  0
LINE
  5
154
100
AcDbEntity
  8
MAIN0
  6
CONTINUOUS
 62
3
100
AcDbLine
 10
252.3960445211334
 20
548.6666666666677
 30
0.0000000000000000
 11
252.3960445211333
 21
411.3333333333344
 31
0.0000000000000000
  0
LINE
  5
155
100
AcDbEntity
  8
MAIN0
  6
CENTER
 62
3
100
AcDbLine
 10
399.7293361301910
 20
476.3182268318208
 30
0.0000000000000000
 11
399.7293361301910
 21
483.6817731681814
 31
0.0000000000000000
  0
LINE
  5
156
100
AcDbEntity
  8
MAIN0
  6
CENTER
 62
3
100
AcDbLine
 10
393.0626694635242
 20
476.3182268318208
 30
0.0000000000000000
 11
393.0626694635242
 21
483.6817731681814
 31
0.0000000000000000
  0
LINE
  5
157
100
AcDbEntity
  8
MAIN0
  6
CENTER
 62
3
100
AcDbLine
 10
386.3960027968577
 20
476.3182268318208
 30
0.0000000000000000
 11
386.3960027968577
 21
483.6817731681814
 31
0.0000000000000000
  0
LINE
  5
158
100
AcDbEntity
  8
MAIN0
  6
CENTER
 62
3
100
AcDbLine
 10
379.7293361301909
 20
476.3182268318208
 30
0.0000000000000000
 11
379.7293361301909
 21
483.6817731681814
 31
0.0000000000000000
  0
LINE
  5
159
100
AcDbEntity
  8
MAIN0
  6
CENTER
 62
3
100
AcDbLine
 10
373.0626694635242
 20
476.3182268318020
 30
0.0000000000000000
 11
373.0626694635242
 21
483.6817731682002
 31
0.0000000000000000
  0
LINE
  5
15A
100
AcDbEntity
  8
MAIN0
  6
CENTER
 62
3
100
AcDbLine
 10
366.3960027968576
 20
476.3182268318020
 30
0.0000000000000000
 11
366.3960027968576
 21
483.6817731682002
 31
0.0000000000000000
  0
LINE
  5
15B
100
AcDbEntity
  8
MAIN0
  6
CENTER
 62
3
100
AcDbLine
 10
359.7293361301909
 20
476.3182268318020
 30
0.0000000000000000
 11
359.7293361301909
 21
483.6817731682002
 31
0.0000000000000000
  0
LINE
  5
15C
100
AcDbEntity
  8
MAIN0
  6
CONTINUOUS
 62
3
100
AcDbLine
 10
237.0626694635243
 20
640.0000000000010
 30
0.0000000000000000
 11
256.4983731019984
 21
640.0000000000010
 31
0.0000000000000000
  0
LINE
  5
15D
100
AcDbEntity
  8
MAIN0
  6
CONTINUOUS
 62
3
100
AcDbLine
 10
237.0626694635243
 20
600.0000000000010
 30
0.0000000000000000
 11
257.8542751706982
 21
600.0000000000010
 31
0.0000000000000000
  0
POINT
  5
15E
100
AcDbEntity
  8
MAIN0
  6
CONTINUOUS
 62
3
100
AcDbPoint
 10
234.3960027968576
 20
662.6666666666675
 30
0.0000000000000000
  0
LINE
  5
15F
100
AcDbEntity
  8
MAIN0
  6
CENTER
 62
3
100
AcDbLine
 10
371.7293361301919
 20
391.0999999998344
 30
0.0000000000000000
 11
225.0626694635226
 21
391.0999999998630
 31
0.0000000000000000
  0
LINE
  5
160
100
AcDbEntity
  8
MAIN0
  6
CONTINUOUS
 62
3
100
AcDbLine
 10
259.7293361301910
 20
523.3333333333344
 30
0.0000000000000000
 11
257.0626694635243
 21
526.0000000000010
 31
0.0000000000000000
  0
LINE
  5
161
100
AcDbEntity
  8
MAIN0
  6
CONTINUOUS
 62
3
100
AcDbLine
 10
259.7293361301910
 20
523.3333333333344
 30
0.0000000000000000
 11
259.7293361301910
 21
436.6666666666677
 31
0.0000000000000000
  0
LINE
  5
162
100
AcDbEntity
  8
MAIN0
  6
CONTINUOUS
 62
3
100
AcDbLine
 10
259.7293361301910
 20
436.6666666666677
 30
0.0000000000000000
 11
257.0626694635243
 21
434.0000000000010
 31
0.0000000000000000
  0
LINE
  5
163
100
AcDbEntity
  8
MAIN0
  6
HIDDEN
 62
3
100
AcDbLine
 10
335.7293361301858
 20
377.7666666663041
 30
0.0000000000000000
 11
353.5960027968524
 21
377.7666666662971
 31
0.0000000000000000
  0
LINE
  5
164
100
AcDbEntity
  8
MAIN0
  6
CONTINUOUS
 62
3
100
AcDbLine
 10
235.1960027968612
 20
400.1000000000453
 30
0.0000000000000000
 11
234.3960027968615
 21
400.9000000000456
 31
0.0000000000000000
  0
LINE
  5
165
100
AcDbEntity
  8
MAIN0
  6
CONTINUOUS
 62
3
100
AcDbLine
 10
315.4918979184643
 20
767.5511467092823
 30
0.0000000000000000
 11
305.9471495061447
 21
777.0958951216069
 31
0.0000000000000000
  0
LINE
  5
166
100
AcDbEntity
  8
MAIN0
  6
CONTINUOUS
 62
3
100
AcDbLine
 10
304.1781894174065
 20
756.2374382123705
 30
0.0000000000000000
 11
294.6334410088491
 21
765.7821866209329
 31
0.0000000000000000
  0
LINE
  5
167
100
AcDbEntity
  8
MAIN0
  6
CONTINUOUS
 62
3
100
AcDbLine
 10
305.9471495096428
 20
756.2374382123707
 30
0.0000000000000000
 11
315.4918979181996
 21
765.7821866209323
 31
0.0000000000000000
  0
LINE
  5
168
100
AcDbEntity
  8
MAIN0
  6
CONTINUOUS
 62
3
100
AcDbLine
 10
294.6334410085845
 20
767.5511467092824
 30
0.0000000000000000
 11
304.1781894209042
 21
777.0958951216069
 31
0.0000000000000000
  0
ARC
  5
169
100
AcDbEntity
  8
MAIN0
  6
CONTINUOUS
 62
3
100
AcDbCircle
 10
305.0626694635243
 20
766.6666666666674
 30
0.0000000000000000
 40
10.46666666666667
100
AcDbArc
 50
355.1524698335103
 51
364.8475301493465
  0
ARC
  5
16A
100
AcDbEntity
  8
MAIN0
  6
CONTINUOUS
 62
3
100
AcDbCircle
 10
305.0626694635243
 20
766.6666666666674
 30
0.0000000000000000
 40
10.46666666666667
100
AcDbArc
 50
175.1524698506514
 51
184.8475301664865
  0
POINT
  5
16B
100
AcDbEntity
  8
MAIN0
  6
CONTINUOUS
 62
3
100
AcDbPoint
 10
304.0306275241201
 20
776.9483332248227
 30
0.0000000000000000
  0
ARC
  5
16C
100
AcDbEntity
  8
MAIN0
  6
CONTINUOUS
 62
3
100
AcDbCircle
 10
305.0626694635243
 20
766.6666666666674
 30
0.0000000000000000
 40
10.46666666666667
100
AcDbArc
 50
95.73197398941834
 51
149.2853038606716
  0
ARC
  5
16D
100
AcDbEntity
  8
MAIN0
  6
CONTINUOUS
 62
3
100
AcDbCircle
 10
305.0626694635243
 20
766.6666666666674
 30
0.0000000000000000
 40
10.46666666666667
100
AcDbArc
 50
85.15246985062233
 51
94.84753014937668
  0
ARC
  5
16E
100
AcDbEntity
  8
MAIN0
  6
CONTINUOUS
 62
3
100
AcDbCircle
 10
305.0626694635243
 20
766.6666666666674
 30
0.0000000000000000
 40
10.46666666666667
100
AcDbArc
 50
275.7319740071083
 51
323.0494418579931
  0
ARC
  5
16F
100
AcDbEntity
  8
MAIN0
  6
CONTINUOUS
 62
3
100
AcDbCircle
 10
305.0626694635243
 20
766.6666666670134
 30
0.0000000000000000
 40
10.46666666666667
100
AcDbArc
 50
265.1524698314076
 51
274.8475301685954
  0
LINE
  5
170
100
AcDbEntity
  8
MAIN0
  6
CENTER
 62
3
100
AcDbLine
 10
318.3960027968577
 20
766.6666666666677
 30
0.0000000000000000
 11
291.7293361301910
 21
766.6666666666677
 31
0.0000000000000000
  0
LINE
  5
171
100
AcDbEntity
  8
MAIN0
  6
CENTER
 62
3
100
AcDbLine
 10
305.0626694635243
 20
631.6169973507214
 30
0.0000000000000000
 11
305.0626694635243
 21
693.3333333333342
 31
0.0000000000000000
  0
LINE
  5
172
100
AcDbEntity
  8
MAIN0
  6
CENTER
 62
3
100
AcDbLine
 10
305.0626694635243
 20
753.3333333333343
 30
0.0000000000000000
 11
305.0626694635243
 21
780.0000000000009
 31
0.0000000000000000
  0
LINE
  5
173
100
AcDbEntity
  8
MAIN0
  6
CONTINUOUS
 62
3
100
AcDbLine
 10
257.0626694635243
 20
411.3333333333344
 30
0.0000000000000000
 11
252.3960445211331
 21
411.3333333333344
 31
0.0000000000000000
  0
LINE
  5
174
100
AcDbEntity
  8
MAIN0
  6
CONTINUOUS
 62
3
100
AcDbLine
 10
252.3960445211331
 20
411.3333333333344
 30
0.0000000000000000
 11
234.3960027968576
 21
409.0833333342247
 31
0.0000000000000000
  0
POINT
  5
175
100
AcDbEntity
  8
MAIN0
  6
CONTINUOUS
 62
3
100
AcDbPoint
 10
234.3960027897339
 20
409.0833333333343
 30
0.0000000000000000
  0
POINT
  5
176
100
AcDbEntity
  8
MAIN0
  6
CONTINUOUS
 62
3
100
AcDbPoint
 10
234.3960027897338
 20
550.9166666666677
 30
0.0000000000000000
  0
POINT
  5
177
100
AcDbEntity
  8
MAIN0
  6
CONTINUOUS
 62
3
100
AcDbPoint
 10
234.3960027968577
 20
411.3333333333343
 30
0.0000000000000000
  0
LINE
  5
178
100
AcDbEntity
  8
MAIN0
  6
CONTINUOUS
 62
3
100
AcDbLine
 10
234.3960027897340
 20
409.0833333333343
 30
0.0000000000000000
 11
233.9823995963054
 21
409.0833333333343
 31
0.0000000000000000
  0
POINT
  5
179
100
AcDbEntity
  8
MAIN0
  6
CONTINUOUS
 62
3
100
AcDbPoint
 10
234.3960027968577
 20
364.0000094208133
 30
0.0000000000000000
  0
LINE
  5
17A
100
AcDbEntity
  8
MAIN0
  6
CONTINUOUS
 62
3
100
AcDbLine
 10
235.7291365668386
 20
363.9769414968916
 30
0.0000000000000000
 11
234.3960027968577
 21
365.3333427541467
 31
0.0000000000000000
  0
ARC
  5
17B
100
AcDbEntity
  8
MAIN0
  6
CONTINUOUS
 62
3
100
AcDbCircle
 10
236.3960027968577
 20
282.0000000000010
 30
0.0000000000000000
 40
2.000000000000000
100
AcDbArc
 50
180.0000000000000
 51
270.0000000000000
  0
ARC
  5
17C
100
AcDbEntity
  8
MAIN0
  6
CONTINUOUS
 62
3
100
AcDbCircle
 10
236.3960027968575
 20
678.0000000000009
 30
0.0000000000000000
 40
2.000000000000000
100
AcDbArc
 50
90.00000000000000
 51
180.0000000000000
  0
ARC
  5
17D
100
AcDbEntity
  8
MAIN0
  6
CONTINUOUS
 62
3
100
AcDbCircle
 10
352.3960027968577
 20
282.0000000000010
 30
0.0000000000000000
 40
2.000000000000000
100
AcDbArc
 50
270.0000000000000
 51
360.0000000000000
  0
LINE
  5
17E
100
AcDbEntity
  8
MAIN0
  6
CONTINUOUS
 62
3
100
AcDbLine
 10
250.4167260379030
 20
297.7783531504472
 30
0.0000000000000000
 11
236.3404686964080
 21
297.3873462418641
 31
0.0000000000000000
  0
ARC
  5
17F
100
AcDbEntity
  8
MAIN0
  6
CONTINUOUS
 62
3
100
AcDbCircle
 10
236.3960027968577
 20
295.3881173996133
 30
0.0000000000000000
 40
2.000000000000000
100
AcDbArc
 50
91.59113929590299
 51
180.0000000000000
  0
LINE
  5
180
100
AcDbEntity
  8
MAIN0
  6
CENTER
 62
3
100
AcDbLine
 10
265.4520014628187
 20
620.0000000000010
 30
0.0000000000000000
 11
253.0020196460383
 21
620.0000000000010
 31
0.0000000000000000
  0
LINE
  5
181
100
AcDbEntity
  8
MAIN0
  6
CENTER
 62
3
100
AcDbLine
 10
241.9531154000113
 20
620.0000000000010
 30
0.0000000000000000
 11
225.0626694635243
 21
620.0000000000010
 31
0.0000000000000000
  0
LINE
  5
182
100
AcDbEntity
  8
MAIN0
  6
CONTINUOUS
 62
3
100
AcDbLine
 10
354.3960027968577
 20
480.0000000000011
 30
0.0000000000000000
 11
354.3960027968578
 21
676.0000000000230
 31
0.0000000000000000
  0
LINE
  5
183
100
AcDbEntity
  8
MAIN0
  6
CENTER
 62
3
100
AcDbLine
 10
418.8935716618994
 20
480.0000000000011
 30
0.0000000000000000
 11
225.7003133699981
 21
480.0000000000010
 31
0.0000000000000000
  0
LINE
  5
184
100
AcDbEntity
  8
MAIN0
  6
CONTINUOUS
 62
3
100
AcDbLine
 10
237.0626694635243
 20
596.0000000000010
 30
0.0000000000000000
 11
237.0626694635243
 21
660.0000000000009
 31
0.0000000000000000
  0
LINE
  5
185
100
AcDbEntity
  8
MAIN0
  6
CONTINUOUS
 62
3
100
AcDbLine
 10
237.0626694635243
 20
297.4074073619811
 30
0.0000000000000000
 11
237.0626694635243
 21
363.9538666666676
 31
0.0000000000000000
  0
POINT
  5
186
100
AcDbEntity
  8
MAIN0
  6
CONTINUOUS
 62
3
100
AcDbPoint
 10
234.3960027968575
 20
568.9000000000010
 30
0.0000000000000000
  0
LINE
  5
187
100
AcDbEntity
  8
MAIN0
  6
CONTINUOUS
 62
3
100
AcDbLine
 10
296.1215366124719
 20
776.7367835702064
 30
0.0000000000000000
 11
320.0844242305333
 21
749.7481364177552
 31
0.0000000000000000
  0
LINE
  5
188
100
AcDbEntity
  8
MAIN0
  6
CONTINUOUS
 62
3
100
AcDbLine
 10
296.3549282892076
 20
778.2812991705392
 30
0.0000000000000000
 11
298.1133731386964
 21
774.4934406956556
 31
0.0000000000000000
  0
LINE
  5
189
100
AcDbEntity
  8
MAIN0
  6
CONTINUOUS
 62
3
100
AcDbLine
 10
298.1133731386964
 20
774.4934406956556
 30
0.0000000000000000
 11
294.5602539182531
 21
776.6878298862408
 31
0.0000000000000000
  0
LINE
  5
18A
100
AcDbEntity
  8
MAIN0
  6
CONTINUOUS
 62
3
100
AcDbLine
 10
315.5650850087956
 20
756.6455034470940
 30
0.0000000000000000
 11
312.0119657883523
 21
758.8398926376792
 31
0.0000000000000000
  0
LINE
  5
18B
100
AcDbEntity
  8
MAIN0
  6
CONTINUOUS
 62
3
100
AcDbLine
 10
312.0119657883523
 20
758.8398926376792
 30
0.0000000000000000
 11
313.7704106378411
 21
755.0520341627956
 31
0.0000000000000000
  0
MTEXT
  5
18C
100
AcDbEntity
  8
MAIN0
  6
CONTINUOUS
 62
3
100
AcDbMText
 10
322.5144688603735
 20
749.0194504608080
 30
0.0000000000000000
 40
6.199999809265137
 41
0.0000000000000000
 71
     8
 72
     1
  1
{\U+220515.7}
 11
0.6639455087415200
 21
-0.7477809581835874
 31
0.0000000000000000
  7
STANDARD
  0
LINE
  5
18D
100
AcDbEntity
  8
MAIN0
  6
CONTINUOUS
 62
3
100
AcDbLine
 10
305.3814640762645
 20
755.6717527789921
 30
0.0000000000000000
 11
295.9719768180296
 21
746.2622655207523
 31
0.0000000000000000
  0
LINE
  5
18E
100
AcDbEntity
  8
MAIN0
  6
CONTINUOUS
 62
3
100
AcDbLine
 10
299.5075107239627
 20
745.5551587395668
 30
0.0000000000000000
 11
276.4442899175876
 21
768.6183795459299
 31
0.0000000000000000
  0
LINE
  5
18F
100
AcDbEntity
  8
MAIN0
  6
CONTINUOUS
 62
3
100
AcDbLine
 10
299.3660893340083
 20
743.9995237872388
 30
0.0000000000000000
 11
297.3861903804025
 21
747.6764790831259
 31
0.0000000000000000
  0
LINE
  5
190
100
AcDbEntity
  8
MAIN0
  6
CONTINUOUS
 62
3
100
AcDbLine
 10
297.3861903804025
 20
747.6764790831259
 30
0.0000000000000000
 11
301.0631456762905
 21
745.6965801295220
 31
0.0000000000000000
  0
LINE
  5
191
100
AcDbEntity
  8
MAIN0
  6
CONTINUOUS
 62
3
100
AcDbLine
 10
282.3955265855265
 20
760.9700865357119
 30
0.0000000000000000
 11
286.0724818814145
 21
758.9901875821080
 31
0.0000000000000000
  0
LINE
  5
192
100
AcDbEntity
  8
MAIN0
  6
CONTINUOUS
 62
3
100
AcDbLine
 10
286.0724818814145
 20
758.9901875821080
 30
0.0000000000000000
 11
284.0925829278087
 21
762.6671428779951
 31
0.0000000000000000
  0
MTEXT
  5
193
100
AcDbEntity
  8
MAIN0
  6
CONTINUOUS
 62
3
100
AcDbMText
 10
270.4930529841473
 20
775.9838300417396
 30
0.0000000000000000
 40
6.199999809265137
 41
0.0000000000000000
 71
     8
 72
     1
  1
{\H0.69x;{12}}
 11
0.7071067811867301
 21
-0.7071067811863649
 31
0.0000000000000000
  7
STANDARD
  0
MTEXT
  5
194
100
AcDbEntity
  8
MAIN0
  6
CONTINUOUS
 62
3
100
AcDbMText
 10
283.1856197981165
 20
771.2108590421944
 30
0.0000000000000000
 40
5.599999904632568
 41
0.0000000000000000
 71
     8
 72
     1
  1
{+0.15}
 11
0.7071067811867301
 21
-0.7071067811863649
 31
0.0000000000000000
  7
STANDARD
  0
MTEXT
  5
195
100
AcDbEntity
  8
MAIN0
  6
CONTINUOUS
 62
3
100
AcDbMText
 10
279.2258218909078
 20
767.2510611349837
 30
0.0000000000000000
 40
5.599999904632568
 41
0.0000000000000000
 71
     8
 72
     1
  1
{+0.05}
 11
0.7071067811867301
 21
-0.7071067811863649
 31
0.0000000000000000
  7
STANDARD
  0
LINE
  5
196
100
AcDbEntity
  8
MAIN0
  6
CONTINUOUS
 62
3
100
AcDbLine
 10
294.0677555752050
 20
766.9854612759027
 30
0.0000000000000000
 11
284.6582683190416
 21
757.5759740197345
 31
0.0000000000000000
  0
LINE
  5
197
100
AcDbEntity
  8
MAIN0
  6
CONTINUOUS
 62
3
100
AcDbLine
 10
235.5960027849365
 20
680.0000000000009
 30
0.0000000000000000
 11
132.3960027968575
 21
680.0000000000009
 31
0.0000000000000000
  0
LINE
  5
198
100
AcDbEntity
  8
MAIN0
  6
CONTINUOUS
 62
3
100
AcDbLine
 10
134.3960027968575
 20
680.0000000000009
 30
0.0000000000000000
 11
134.3960027968575
 21
280.0000000000010
 31
0.0000000000000000
  0
LINE
  5
199
100
AcDbEntity
  8
MAIN0
  6
CONTINUOUS
 62
3
100
AcDbLine
 10
135.5960028445413
 20
676.0000000000009
 30
0.0000000000000000
 11
134.3960027968575
 21
680.0000000000009
 31
0.0000000000000000
  0
LINE
  5
19A
100
AcDbEntity
  8
MAIN0
  6
CONTINUOUS
 62
3
100
AcDbLine
 10
134.3960027968575
 20
680.0000000000009
 30
0.0000000000000000
 11
133.1960027491738
 21
676.0000000000009
 31
0.0000000000000000
  0
LINE
  5
19B
100
AcDbEntity
  8
MAIN0
  6
CONTINUOUS
 62
3
100
AcDbLine
 10
135.5960028445413
 20
284.0000000000010
 30
0.0000000000000000
 11
134.3960027968575
 21
280.0000000000010
 31
0.0000000000000000
  0
LINE
  5
19C
100
AcDbEntity
  8
MAIN0
  6
CONTINUOUS
 62
3
100
AcDbLine
 10
134.3960027968575
 20
280.0000000000010
 30
0.0000000000000000
 11
133.1960027491738
 21
284.0000000000010
 31
0.0000000000000000
  0
MTEXT
  5
19D
100
AcDbEntity
  8
MAIN0
  6
CONTINUOUS
 62
3
100
AcDbMText
 10
133.3960027968575
 20
480.0000000000010
 30
0.0000000000000000
 40
6.199999809265137
 41
0.0000000000000000
 71
     8
 72
     1
  1
{\U+2205300}
 11
6.123233995736766e-017
 21
1.000000000000000
 31
0.0000000000000000
  7
STANDARD
  0
LINE
  5
19E
100
AcDbEntity
  8
MAIN0
  6
CONTINUOUS
 62
3
100
AcDbLine
 10
235.5960027849368
 20
280.0000000000010
 30
0.0000000000000000
 11
132.3960027968575
 21
280.0000000000010
 31
0.0000000000000000
  0
LINE
  5
19F
100
AcDbEntity
  8
MAIN0
  6
CONTINUOUS
 62
3
100
AcDbLine
 10
233.5960027778129
 20
550.9166666666677
 30
0.0000000000000000
 11
172.3960027968575
 21
550.9166666666677
 31
0.0000000000000000
  0
LINE
  5
1A0
100
AcDbEntity
  8
MAIN0
  6
CONTINUOUS
 62
3
100
AcDbLine
 10
174.3960027968575
 20
550.9166666666677
 30
0.0000000000000000
 11
174.3960027968575
 21
409.0833333333343
 31
0.0000000000000000
  0
LINE
  5
1A1
100
AcDbEntity
  8
MAIN0
  6
CONTINUOUS
 62
3
100
AcDbLine
 10
175.5960028445413
 20
546.9166666666677
 30
0.0000000000000000
 11
174.3960027968575
 21
550.9166666666677
 31
0.0000000000000000
  0
LINE
  5
1A2
100
AcDbEntity
  8
MAIN0
  6
CONTINUOUS
 62
3
100
AcDbLine
 10
174.3960027968575
 20
550.9166666666677
 30
0.0000000000000000
 11
173.1960027491738
 21
546.9166666666677
 31
0.0000000000000000
  0
LINE
  5
1A3
100
AcDbEntity
  8
MAIN0
  6
CONTINUOUS
 62
3
100
AcDbLine
 10
175.5960028445413
 20
413.0833333333343
 30
0.0000000000000000
 11
174.3960027968575
 21
409.0833333333343
 31
0.0000000000000000
  0
LINE
  5
1A4
100
AcDbEntity
  8
MAIN0
  6
CONTINUOUS
 62
3
100
AcDbLine
 10
174.3960027968575
 20
409.0833333333343
 30
0.0000000000000000
 11
173.1960027491738
 21
413.0833333333343
 31
0.0000000000000000
  0
MTEXT
  5
1A5
100
AcDbEntity
  8
MAIN0
  6
CONTINUOUS
 62
3
100
AcDbMText
 10
173.3960027968575
 20
470.0499997287999
 30
0.0000000000000000
 40
6.199999809265137
 41
0.0000000000000000
 71
     8
 72
     1
  1
{\U+2205106.375}
 11
6.123233995736766e-017
 21
1.000000000000000
 31
0.0000000000000000
  7
STANDARD
  0
MTEXT
  5
1A6
100
AcDbEntity
  8
MAIN0
  6
CONTINUOUS
 62
3
100
AcDbMText
 10
167.7960028922250
 20
496.3000000119220
 30
0.0000000000000000
 40
5.599999904632568
 41
0.0000000000000000
 71
     8
 72
     1
  1
{+0.004}
 11
6.123233995736766e-017
 21
1.000000000000000
 31
0.0000000000000000
  7
STANDARD
  0
MTEXT
  5
1A7
100
AcDbEntity
  8
MAIN0
  6
CONTINUOUS
 62
3
100
AcDbMText
 10
173.3960027968575
 20
496.3000000119220
 30
0.0000000000000000
 40
5.599999904632568
 41
0.0000000000000000
 71
     8
 72
     1
  1
{-0.006}
 11
6.123233995736766e-017
 21
1.000000000000000
 31
0.0000000000000000
  7
STANDARD
  0
LINE
  5
1A8
100
AcDbEntity
  8
MAIN0
  6
CONTINUOUS
 62
3
100
AcDbLine
 10
233.5960027778130
 20
409.0833333333343
 30
0.0000000000000000
 11
172.3960027968575
 21
409.0833333333343
 31
0.0000000000000000
  0
LINE
  5
1A9
100
AcDbEntity
  8
MAIN0
  6
CONTINUOUS
 62
3
100
AcDbLine
 10
251.5960445092122
 20
411.3333333333344
 30
0.0000000000000000
 11
192.3960027968575
 21
411.3333333333344
 31
0.0000000000000000
  0
LINE
  5
1AA
100
AcDbEntity
  8
MAIN0
  6
CONTINUOUS
 62
3
100
AcDbLine
 10
194.3960027968575
 20
411.3333333333344
 30
0.0000000000000000
 11
194.3960027968575
 21
548.6666666666677
 31
0.0000000000000000
  0
LINE
  5
1AB
100
AcDbEntity
  8
MAIN0
  6
CONTINUOUS
 62
3
100
AcDbLine
 10
193.1960027491738
 20
415.3333333333344
 30
0.0000000000000000
 11
194.3960027968575
 21
411.3333333333344
 31
0.0000000000000000
  0
LINE
  5
1AC
100
AcDbEntity
  8
MAIN0
  6
CONTINUOUS
 62
3
100
AcDbLine
 10
194.3960027968575
 20
411.3333333333344
 30
0.0000000000000000
 11
195.5960028445413
 21
415.3333333333344
 31
0.0000000000000000
  0
LINE
  5
1AD
100
AcDbEntity
  8
MAIN0
  6
CONTINUOUS
 62
3
100
AcDbLine
 10
193.1960027491738
 20
544.6666666666677
 30
0.0000000000000000
 11
194.3960027968575
 21
548.6666666666677
 31
0.0000000000000000
  0
LINE
  5
1AE
100
AcDbEntity
  8
MAIN0
  6
CONTINUOUS
 62
3
100
AcDbLine
 10
194.3960027968575
 20
548.6666666666677
 30
0.0000000000000000
 11
195.5960028445413
 21
544.6666666666677
 31
0.0000000000000000
  0
MTEXT
  5
1AF
100
AcDbEntity
  8
MAIN0
  6
CONTINUOUS
 62
3
100
AcDbMText
 10
193.3960027968575
 20
480.0000000000010
 30
0.0000000000000000
 40
6.199999809265137
 41
0.0000000000000000
 71
     8
 72
     1
  1
{\U+2205103}
 11
6.123233995736766e-017
 21
1.000000000000000
 31
0.0000000000000000
  7
STANDARD
  0
LINE
  5
1B0
100
AcDbEntity
  8
MAIN0
  6
CONTINUOUS
 62
3
100
AcDbLine
 10
251.5960445092125
 20
548.6666666666677
 30
0.0000000000000000
 11
192.3960027968575
 21
548.6666666666677
 31
0.0000000000000000
  0
LINE
  5
1B1
100
AcDbEntity
  8
MAIN0
  6
CONTINUOUS
 62
3
100
AcDbLine
 10
354.3960028087786
 20
404.4333333333785
 30
0.0000000000000000
 11
387.0626694635243
 21
404.4333333333712
 31
0.0000000000000000
  0
LINE
  5
1B2
100
AcDbEntity
  8
MAIN0
  6
CONTINUOUS
 62
3
100
AcDbLine
 10
385.0626694635243
 20
404.4333333333717
 30
0.0000000000000000
 11
385.0626694635243
 21
377.7666666662971
 31
0.0000000000000000
  0
LINE
  5
1B3
100
AcDbEntity
  8
MAIN0
  6
CONTINUOUS
 62
3
100
AcDbLine
 10
386.2626695112081
 20
400.4333333333717
 30
0.0000000000000000
 11
385.0626694635243
 21
404.4333333333717
 31
0.0000000000000000
  0
LINE
  5
1B4
100
AcDbEntity
  8
MAIN0
  6
CONTINUOUS
 62
3
100
AcDbLine
 10
385.0626694635243
 20
404.4333333333717
 30
0.0000000000000000
 11
383.8626694158406
 21
400.4333333333717
 31
0.0000000000000000
  0
LINE
  5
1B5
100
AcDbEntity
  8
MAIN0
  6
CONTINUOUS
 62
3
100
AcDbLine
 10
386.2626695112081
 20
381.7666666662971
 30
0.0000000000000000
 11
385.0626694635243
 21
377.7666666662971
 31
0.0000000000000000
  0
LINE
  5
1B6
100
AcDbEntity
  8
MAIN0
  6
CONTINUOUS
 62
3
100
AcDbLine
 10
385.0626694635243
 20
377.7666666662971
 30
0.0000000000000000
 11
383.8626694158406
 21
381.7666666662971
 31
0.0000000000000000
  0
MTEXT
  5
1B7
100
AcDbEntity
  8
MAIN0
  6
CONTINUOUS
 62
3
100
AcDbMText
 10
384.0626694635243
 20
391.0999999998344
 30
0.0000000000000000
 40
6.199999809265137
 41
0.0000000000000000
 71
     8
 72
     1
  1
{\U+220520}
 11
6.123233995736766e-017
 21
1.000000000000000
 31
0.0000000000000000
  7
STANDARD
  0
LINE
  5
1B8
100
AcDbEntity
  8
MAIN0
  6
CONTINUOUS
 62
3
100
AcDbLine
 10
354.3960028087734
 20
377.7666666662971
 30
0.0000000000000000
 11
387.0626694635243
 21
377.7666666662971
 31
0.0000000000000000
  0
LINE
  5
1B9
100
AcDbEntity
  8
MAIN0
  6
CONTINUOUS
 62
3
100
AcDbLine
 10
305.0626694635243
 20
411.0912967682339
 30
0.0000000000000000
 11
305.0626694635243
 21
379.0999999996374
 31
0.0000000000000000
  0
LINE
  5
1BA
100
AcDbEntity
  8
MAIN0
  6
CONTINUOUS
 62
3
100
AcDbLine
 10
306.2626695112081
 20
404.1000000000454
 30
0.0000000000000000
 11
305.0626694635243
 21
400.1000000000454
 31
0.0000000000000000
  0
LINE
  5
1BB
100
AcDbEntity
  8
MAIN0
  6
CONTINUOUS
 62
3
100
AcDbLine
 10
305.0626694635243
 20
400.1000000000454
 30
0.0000000000000000
 11
303.8626694158406
 21
404.1000000000454
 31
0.0000000000000000
  0
LINE
  5
1BC
100
AcDbEntity
  8
MAIN0
  6
CONTINUOUS
 62
3
100
AcDbLine
 10
306.2626695112081
 20
378.0999999996374
 30
0.0000000000000000
 11
305.0626694635243
 21
382.0999999996374
 31
0.0000000000000000
  0
LINE
  5
1BD
100
AcDbEntity
  8
MAIN0
  6
CONTINUOUS
 62
3
100
AcDbLine
 10
305.0626694635243
 20
382.0999999996374
 30
0.0000000000000000
 11
303.8626694158406
 21
378.0999999996374
 31
0.0000000000000000
  0
MTEXT
  5
1BE
100
AcDbEntity
  8
MAIN0
  6
CONTINUOUS
 62
3
100
AcDbMText
 10
304.0626694635243
 20
412.0825941974090
 30
0.0000000000000000
 40
6.199999809265137
 41
0.0000000000000000
 71
     8
 72
     1
  1
{\U+220513.5}
 11
6.123233995736766e-017
 21
1.000000000000000
 31
0.0000000000000000
  7
STANDARD
  0
LINE
  5
1BF
100
AcDbEntity
  8
MAIN0
  6
CONTINUOUS
 62
3
100
AcDbLine
 10
234.3960027968577
 20
453.1323488502304
 30
0.0000000000000000
 11
257.0626694635243
 21
453.1323488502304
 31
0.0000000000000000
  0
LINE
  5
1C0
100
AcDbEntity
  8
MAIN0
  6
CONTINUOUS
 62
3
100
AcDbLine
 10
238.3960027968577
 20
454.3323488979141
 30
0.0000000000000000
 11
234.3960027968577
 21
453.1323488502304
 31
0.0000000000000000
  0
LINE
  5
1C1
100
AcDbEntity
  8
MAIN0
  6
CONTINUOUS
 62
3
100
AcDbLine
 10
234.3960027968577
 20
453.1323488502304
 30
0.0000000000000000
 11
238.3960027968577
 21
451.9323488025466
 31
0.0000000000000000
  0
LINE
  5
1C2
100
AcDbEntity
  8
MAIN0
  6
CONTINUOUS
 62
3
100
AcDbLine
 10
253.0626694635243
 20
454.3323488979141
 30
0.0000000000000000
 11
257.0626694635243
 21
453.1323488502304
 31
0.0000000000000000
  0
LINE
  5
1C3
100
AcDbEntity
  8
MAIN0
  6
CONTINUOUS
 62
3
100
AcDbLine
 10
257.0626694635243
 20
453.1323488502304
 30
0.0000000000000000
 11
253.0626694635243
 21
451.9323488025466
 31
0.0000000000000000
  0
MTEXT
  5
1C4
100
AcDbEntity
  8
MAIN0
  6
CONTINUOUS
 62
3
100
AcDbMText
 10
245.7293361301911
 20
454.1323488502304
 30
0.0000000000000000
 40
6.199999809265137
 41
0.0000000000000000
 71
     8
 72
     1
  1
{\H0.69x;{17}}
 11
1.000000000000000
 21
0.0000000000000000
 31
0.0000000000000000
  7
STANDARD
  0
LINE
  5
1C5
100
AcDbEntity
  8
MAIN0
  6
CONTINUOUS
 62
3
100
AcDbLine
 10
407.1960028087785
 20
503.3333333333344
 30
0.0000000000000000
 11
447.0626694635243
 21
503.3333333333344
 31
0.0000000000000000
  0
LINE
  5
1C6
100
AcDbEntity
  8
MAIN0
  6
CONTINUOUS
 62
3
100
AcDbLine
 10
445.0626694635243
 20
503.3333333333344
 30
0.0000000000000000
 11
445.0626694635243
 21
456.6666666666678
 31
0.0000000000000000
  0
LINE
  5
1C7
100
AcDbEntity
  8
MAIN0
  6
CONTINUOUS
 62
3
100
AcDbLine
 10
446.2626695112081
 20
499.3333333333344
 30
0.0000000000000000
 11
445.0626694635243
 21
503.3333333333344
 31
0.0000000000000000
  0
LINE
  5
1C8
100
AcDbEntity
  8
MAIN0
  6
CONTINUOUS
 62
3
100
AcDbLine
 10
445.0626694635243
 20
503.3333333333344
 30
0.0000000000000000
 11
443.8626694158406
 21
499.3333333333344
 31
0.0000000000000000
  0
LINE
  5
1C9
100
AcDbEntity
  8
MAIN0
  6
CONTINUOUS
 62
3
100
AcDbLine
 10
446.2626695112081
 20
460.6666666666678
 30
0.0000000000000000
 11
445.0626694635243
 21
456.6666666666678
 31
0.0000000000000000
  0
LINE
  5
1CA
100
AcDbEntity
  8
MAIN0
  6
CONTINUOUS
 62
3
100
AcDbLine
 10
445.0626694635243
 20
456.6666666666678
 30
0.0000000000000000
 11
443.8626694158406
 21
460.6666666666678
 31
0.0000000000000000
  0
MTEXT
  5
1CB
100
AcDbEntity
  8
MAIN0
  6
CONTINUOUS
 62
3
100
AcDbMText
 10
444.0626694635243
 20
480.0000000000011
 30
0.0000000000000000
 40
6.199999809265137
 41
0.0000000000000000
 71
     8
 72
     1
  1
{\H0.69x;{35}}
 11
6.123233995736766e-017
 21
1.000000000000000
 31
0.0000000000000000
  7
STANDARD
  0
LINE
  5
1CC
100
AcDbEntity
  8
MAIN0
  6
CONTINUOUS
 62
3
100
AcDbLine
 10
407.1960028087786
 20
456.6666666666678
 30
0.0000000000000000
 11
447.0626694635243
 21
456.6666666666678
 31
0.0000000000000000
  0
LINE
  5
1CD
100
AcDbEntity
  8
MAIN0
  6
CONTINUOUS
 62
3
100
AcDbLine
 10
365.0626697252346
 20
640.0000000000009
 30
0.0000000000000000
 11
386.3960030585679
 21
640.0000000000009
 31
0.0000000000000000
  0
LINE
  5
1CE
100
AcDbEntity
  8
MAIN0
  6
CONTINUOUS
 62
3
100
AcDbLine
 10
369.0626697252346
 20
641.2000000476846
 30
0.0000000000000000
 11
365.0626697252346
 21
640.0000000000009
 31
0.0000000000000000
  0
LINE
  5
1CF
100
AcDbEntity
  8
MAIN0
  6
CONTINUOUS
 62
3
100
AcDbLine
 10
365.0626697252346
 20
640.0000000000009
 30
0.0000000000000000
 11
369.0626697252346
 21
638.7999999523172
 31
0.0000000000000000
  0
LINE
  5
1D0
100
AcDbEntity
  8
MAIN0
  6
CONTINUOUS
 62
3
100
AcDbLine
 10
382.3960030585679
 20
641.2000000476846
 30
0.0000000000000000
 11
386.3960030585679
 21
640.0000000000009
 31
0.0000000000000000
  0
LINE
  5
1D1
100
AcDbEntity
  8
MAIN0
  6
CONTINUOUS
 62
3
100
AcDbLine
 10
386.3960030585679
 20
640.0000000000009
 30
0.0000000000000000
 11
382.3960030585679
 21
638.7999999523172
 31
0.0000000000000000
  0
MTEXT
  5
1D2
100
AcDbEntity
  8
MAIN0
  6
CONTINUOUS
 62
3
100
AcDbMText
 10
375.7293363919013
 20
641.0000000000009
 30
0.0000000000000000
 40
6.199999809265137
 41
0.0000000000000000
 71
     8
 72
     1
  1
{\H0.69x;{16}}
 11
1.000000000000000
 21
0.0000000000000000
 31
0.0000000000000000
  7
STANDARD
  0
LINE
  5
1D3
100
AcDbEntity
  8
MAIN0
  6
CONTINUOUS
 62
3
100
AcDbLine
 10
386.3960030585679
 20
610.1333333456369
 30
0.0000000000000000
 11
386.3960030585679
 21
642.0000000000009
 31
0.0000000000000000
  0
LINE
  5
1D4
100
AcDbEntity
  8
MAIN0
  6
CONTINUOUS
 62
3
100
AcDbLine
 10
386.3960030585679
 20
600.0000000000009
 30
0.0000000000000000
 11
407.7293363919013
 21
600.0000000000009
 31
0.0000000000000000
  0
LINE
  5
1D5
100
AcDbEntity
  8
MAIN0
  6
CONTINUOUS
 62
3
100
AcDbLine
 10
390.3960030585679
 20
601.2000000476846
 30
0.0000000000000000
 11
386.3960030585679
 21
600.0000000000009
 31
0.0000000000000000
  0
LINE
  5
1D6
100
AcDbEntity
  8
MAIN0
  6
CONTINUOUS
 62
3
100
AcDbLine
 10
386.3960030585679
 20
600.0000000000009
 30
0.0000000000000000
 11
390.3960030585679
 21
598.7999999523172
 31
0.0000000000000000
  0
LINE
  5
1D7
100
AcDbEntity
  8
MAIN0
  6
CONTINUOUS
 62
3
100
AcDbLine
 10
403.7293363919013
 20
601.2000000476846
 30
0.0000000000000000
 11
407.7293363919013
 21
600.0000000000009
 31
0.0000000000000000
  0
LINE
  5
1D8
100
AcDbEntity
  8
MAIN0
  6
CONTINUOUS
 62
3
100
AcDbLine
 10
407.7293363919013
 20
600.0000000000009
 30
0.0000000000000000
 11
403.7293363919013
 21
598.7999999523172
 31
0.0000000000000000
  0
MTEXT
  5
1D9
100
AcDbEntity
  8
MAIN0
  6
CONTINUOUS
 62
3
100
AcDbMText
 10
397.0626697252346
 20
601.0000000000009
 30
0.0000000000000000
 40
6.199999809265137
 41
0.0000000000000000
 71
     8
 72
     1
  1
{\H0.69x;{16}}
 11
1.000000000000000
 21
0.0000000000000000
 31
0.0000000000000000
  7
STANDARD
  0
LINE
  5
1DA
100
AcDbEntity
  8
MAIN0
  6
CONTINUOUS
 62
3
100
AcDbLine
 10
407.7293363919013
 20
579.4666666789702
 30
0.0000000000000000
 11
407.7293363919013
 21
602.0000000000009
 31
0.0000000000000000
  0
LINE
  5
1DB
100
AcDbEntity
  8
MAIN0
  6
CONTINUOUS
 62
3
100
AcDbLine
 10
363.8626697371589
 20
676.0000000000441
 30
0.0000000000000000
 11
427.0626694635243
 21
676.0000000000441
 31
0.0000000000000000
  0
LINE
  5
1DC
100
AcDbEntity
  8
MAIN0
  6
CONTINUOUS
 62
3
100
AcDbLine
 10
425.0626694635243
 20
676.0000000000441
 30
0.0000000000000000
 11
425.0626694635243
 21
622.6666666670492
 31
0.0000000000000000
  0
LINE
  5
1DD
100
AcDbEntity
  8
MAIN0
  6
CONTINUOUS
 62
3
100
AcDbLine
 10
426.2626695112081
 20
672.0000000000441
 30
0.0000000000000000
 11
425.0626694635243
 21
676.0000000000441
 31
0.0000000000000000
  0
LINE
  5
1DE
100
AcDbEntity
  8
MAIN0
  6
CONTINUOUS
 62
3
100
AcDbLine
 10
425.0626694635243
 20
676.0000000000441
 30
0.0000000000000000
 11
423.8626694158406
 21
672.0000000000441
 31
0.0000000000000000
  0
LINE
  5
1DF
100
AcDbEntity
  8
MAIN0
  6
CONTINUOUS
 62
3
100
AcDbLine
 10
426.2626695112081
 20
626.6666666670492
 30
0.0000000000000000
 11
425.0626694635243
 21
622.6666666670492
 31
0.0000000000000000
  0
LINE
  5
1E0
100
AcDbEntity
  8
MAIN0
  6
CONTINUOUS
 62
3
100
AcDbLine
 10
425.0626694635243
 20
622.6666666670492
 30
0.0000000000000000
 11
423.8626694158406
 21
626.6666666670492
 31
0.0000000000000000
  0
MTEXT
  5
1E1
100
AcDbEntity
  8
MAIN0
  6
CONTINUOUS
 62
3
100
AcDbMText
 10
424.0626694635243
 20
649.3333333335467
 30
0.0000000000000000
 40
6.199999809265137
 41
0.0000000000000000
 71
     8
 72
     1
  1
{\H0.69x;{40}}
 11
6.123233995736766e-017
 21
1.000000000000000
 31
0.0000000000000000
  7
STANDARD
  0
LINE
  5
1E2
100
AcDbEntity
  8
MAIN0
  6
CONTINUOUS
 62
3
100
AcDbLine
 10
385.1960030704889
 20
622.6666666670492
 30
0.0000000000000000
 11
427.0626694635243
 21
622.6666666670492
 31
0.0000000000000000
  0
LINE
  5
1E3
100
AcDbEntity
  8
MAIN0
  6
CONTINUOUS
 62
3
100
AcDbLine
 10
425.0626694635243
 20
622.6666666670492
 30
0.0000000000000000
 11
425.0626694635243
 21
580.0000000003826
 31
0.0000000000000000
  0
LINE
  5
1E4
100
AcDbEntity
  8
MAIN0
  6
CONTINUOUS
 62
3
100
AcDbLine
 10
426.2626695112081
 20
618.6666666670492
 30
0.0000000000000000
 11
425.0626694635243
 21
622.6666666670492
 31
0.0000000000000000
  0
LINE
  5
1E5
100
AcDbEntity
  8
MAIN0
  6
CONTINUOUS
 62
3
100
AcDbLine
 10
425.0626694635243
 20
622.6666666670492
 30
0.0000000000000000
 11
423.8626694158406
 21
618.6666666670492
 31
0.0000000000000000
  0
LINE
  5
1E6
100
AcDbEntity
  8
MAIN0
  6
CONTINUOUS
 62
3
100
AcDbLine
 10
426.2626695112081
 20
584.0000000003826
 30
0.0000000000000000
 11
425.0626694635243
 21
580.0000000003826
 31
0.0000000000000000
  0
LINE
  5
1E7
100
AcDbEntity
  8
MAIN0
  6
CONTINUOUS
 62
3
100
AcDbLine
 10
425.0626694635243
 20
580.0000000003826
 30
0.0000000000000000
 11
423.8626694158406
 21
584.0000000003826
 31
0.0000000000000000
  0
MTEXT
  5
1E8
100
AcDbEntity
  8
MAIN0
  6
CONTINUOUS
 62
3
100
AcDbMText
 10
424.0626694635243
 20
601.3333333337159
 30
0.0000000000000000
 40
6.199999809265137
 41
0.0000000000000000
 71
     8
 72
     1
  1
{\H0.69x;{32}}
 11
6.123233995736766e-017
 21
1.000000000000000
 31
0.0000000000000000
  7
STANDARD
  0
LINE
  5
1E9
100
AcDbEntity
  8
MAIN0
  6
CONTINUOUS
 62
3
100
AcDbLine
 10
407.1960030704890
 20
580.0000000003826
 30
0.0000000000000000
 11
427.0626694635243
 21
580.0000000003826
 31
0.0000000000000000
  0
LINE
  5
1EA
100
AcDbEntity
  8
MAIN0
  6
CONTINUOUS
 62
3
100
AcDbLine
 10
425.0626694635243
 20
580.0000000003826
 30
0.0000000000000000
 11
425.0626694635243
 21
542.6666666670492
 31
0.0000000000000000
  0
LINE
  5
1EB
100
AcDbEntity
  8
MAIN0
  6
CONTINUOUS
 62
3
100
AcDbLine
 10
426.2626695112081
 20
576.0000000003826
 30
0.0000000000000000
 11
425.0626694635243
 21
580.0000000003826
 31
0.0000000000000000
  0
LINE
  5
1EC
100
AcDbEntity
  8
MAIN0
  6
CONTINUOUS
 62
3
100
AcDbLine
 10
425.0626694635243
 20
580.0000000003826
 30
0.0000000000000000
 11
423.8626694158406
 21
576.0000000003826
 31
0.0000000000000000
  0
LINE
  5
1ED
100
AcDbEntity
  8
MAIN0
  6
CONTINUOUS
 62
3
100
AcDbLine
 10
426.2626695112081
 20
546.6666666670492
 30
0.0000000000000000
 11
425.0626694635243
 21
542.6666666670492
 31
0.0000000000000000
  0
LINE
  5
1EE
100
AcDbEntity
  8
MAIN0
  6
CONTINUOUS
 62
3
100
AcDbLine
 10
425.0626694635243
 20
542.6666666670492
 30
0.0000000000000000
 11
423.8626694158406
 21
546.6666666670492
 31
0.0000000000000000
  0
MTEXT
  5
1EF
100
AcDbEntity
  8
MAIN0
  6
CONTINUOUS
 62
3
100
AcDbMText
 10
424.0626694635243
 20
561.3333333337159
 30
0.0000000000000000
 40
6.199999809265137
 41
0.0000000000000000
 71
     8
 72
     1
  1
{\H0.69x;{28}}
 11
6.123233995736766e-017
 21
1.000000000000000
 31
0.0000000000000000
  7
STANDARD
  0
LINE
  5
1F0
100
AcDbEntity
  8
MAIN0
  6
CONTINUOUS
 62
3
100
AcDbLine
 10
407.1960030704889
 20
542.6666666670492
 30
0.0000000000000000
 11
427.0626694635243
 21
542.6666666670492
 31
0.0000000000000000
  0
LINE
  5
1F1
100
AcDbEntity
  8
MAIN0
  6
CONTINUOUS
 62
3
100
AcDbLine
 10
407.1960030704889
 20
542.6666666670492
 30
0.0000000000000000
 11
447.0626694635243
 21
542.6666666670492
 31
0.0000000000000000
  0
LINE
  5
1F2
100
AcDbEntity
  8
MAIN0
  6
CONTINUOUS
 62
3
100
AcDbLine
 10
445.0626694635243
 20
542.6666666670492
 30
0.0000000000000000
 11
445.0626694635243
 21
676.0000000000441
 31
0.0000000000000000
  0
LINE
  5
1F3
100
AcDbEntity
  8
MAIN0
  6
CONTINUOUS
 62
3
100
AcDbLine
 10
443.8626694158406
 20
546.6666666670492
 30
0.0000000000000000
 11
445.0626694635243
 21
542.6666666670492
 31
0.0000000000000000
  0
LINE
  5
1F4
100
AcDbEntity
  8
MAIN0
  6
CONTINUOUS
 62
3
100
AcDbLine
 10
445.0626694635243
 20
542.6666666670492
 30
0.0000000000000000
 11
446.2626695112081
 21
546.6666666670492
 31
0.0000000000000000
  0
LINE
  5
1F5
100
AcDbEntity
  8
MAIN0
  6
CONTINUOUS
 62
3
100
AcDbLine
 10
443.8626694158406
 20
672.0000000000441
 30
0.0000000000000000
 11
445.0626694635243
 21
676.0000000000441
 31
0.0000000000000000
  0
LINE
  5
1F6
100
AcDbEntity
  8
MAIN0
  6
CONTINUOUS
 62
3
100
AcDbLine
 10
445.0626694635243
 20
676.0000000000441
 30
0.0000000000000000
 11
446.2626695112081
 21
672.0000000000441
 31
0.0000000000000000
  0
MTEXT
  5
1F7
100
AcDbEntity
  8
MAIN0
  6
CONTINUOUS
 62
3
100
AcDbMText
 10
444.0626694635243
 20
609.3333333335467
 30
0.0000000000000000
 40
6.199999809265137
 41
0.0000000000000000
 71
     8
 72
     1
  1
{\H0.70x;{100}}
 11
6.123233995736766e-017
 21
1.000000000000000
 31
0.0000000000000000
  7
STANDARD
  0
LINE
  5
1F8
100
AcDbEntity
  8
MAIN0
  6
CONTINUOUS
 62
3
100
AcDbLine
 10
363.8626697371589
 20
676.0000000000441
 30
0.0000000000000000
 11
447.0626694635243
 21
676.0000000000441
 31
0.0000000000000000
  0
LINE
  5
1F9
100
AcDbEntity
  8
MAIN0
  6
CONTINUOUS
 62
3
100
AcDbLine
 10
234.3960027968575
 20
678.8000000119218
 30
0.0000000000000000
 11
234.3960027968574
 21
728.6666666666677
 31
0.0000000000000000
  0
LINE
  5
1FA
100
AcDbEntity
  8
MAIN0
  6
CONTINUOUS
 62
3
100
AcDbLine
 10
234.3960027968574
 20
726.6666666666677
 30
0.0000000000000000
 11
354.3960027968575
 21
726.6666666666677
 31
0.0000000000000000
  0
LINE
  5
1FB
100
AcDbEntity
  8
MAIN0
  6
CONTINUOUS
 62
3
100
AcDbLine
 10
238.3960027968574
 20
727.8666667143514
 30
0.0000000000000000
 11
234.3960027968574
 21
726.6666666666677
 31
0.0000000000000000
  0
LINE
  5
1FC
100
AcDbEntity
  8
MAIN0
  6
CONTINUOUS
 62
3
100
AcDbLine
 10
234.3960027968574
 20
726.6666666666677
 30
0.0000000000000000
 11
238.3960027968574
 21
725.4666666189839
 31
0.0000000000000000
  0
LINE
  5
1FD
100
AcDbEntity
  8
MAIN0
  6
CONTINUOUS
 62
3
100
AcDbLine
 10
350.3960027968575
 20
727.8666667143514
 30
0.0000000000000000
 11
354.3960027968575
 21
726.6666666666677
 31
0.0000000000000000
  0
LINE
  5
1FE
100
AcDbEntity
  8
MAIN0
  6
CONTINUOUS
 62
3
100
AcDbLine
 10
354.3960027968575
 20
726.6666666666677
 30
0.0000000000000000
 11
350.3960027968575
 21
725.4666666189839
 31
0.0000000000000000
  0
MTEXT
  5
1FF
100
AcDbEntity
  8
MAIN0
  6
CONTINUOUS
 62
3
100
AcDbMText
 10
294.3960027968574
 20
727.6666666666677
 30
0.0000000000000000
 40
6.199999809265137
 41
0.0000000000000000
 71
     8
 72
     1
  1
{\H0.69x;{90}}
 11
1.000000000000000
 21
0.0000000000000000
 31
0.0000000000000000
  7
STANDARD
  0
LINE
  5
200
100
AcDbEntity
  8
MAIN0
  6
CONTINUOUS
 62
3
100
AcDbLine
 10
354.3960027968575
 20
678.1333333452552
 30
0.0000000000000000
 11
354.3960027968575
 21
728.6666666666677
 31
0.0000000000000000
  0
LINE
  5
201
100
AcDbEntity
  8
MAIN0
  6
CONTINUOUS
 62
3
100
AcDbLine
 10
234.3960027968575
 20
678.8000000119218
 30
0.0000000000000000
 11
234.3960027968575
 21
708.6666666666677
 31
0.0000000000000000
  0
LINE
  5
202
100
AcDbEntity
  8
MAIN0
  6
CONTINUOUS
 62
3
100
AcDbLine
 10
234.3960027968574
 20
706.6666666666677
 30
0.0000000000000000
 11
305.0626694635242
 21
706.6666666666677
 31
0.0000000000000000
  0
LINE
  5
203
100
AcDbEntity
  8
MAIN0
  6
CONTINUOUS
 62
3
100
AcDbLine
 10
238.3960027968574
 20
707.8666667143514
 30
0.0000000000000000
 11
234.3960027968574
 21
706.6666666666677
 31
0.0000000000000000
  0
LINE
  5
204
100
AcDbEntity
  8
MAIN0
  6
CONTINUOUS
 62
3
100
AcDbLine
 10
234.3960027968574
 20
706.6666666666677
 30
0.0000000000000000
 11
238.3960027968574
 21
705.4666666189839
 31
0.0000000000000000
  0
LINE
  5
205
100
AcDbEntity
  8
MAIN0
  6
CONTINUOUS
 62
3
100
AcDbLine
 10
301.0626694635242
 20
707.8666667143514
 30
0.0000000000000000
 11
305.0626694635242
 21
706.6666666666677
 31
0.0000000000000000
  0
LINE
  5
206
100
AcDbEntity
  8
MAIN0
  6
CONTINUOUS
 62
3
100
AcDbLine
 10
305.0626694635242
 20
706.6666666666677
 30
0.0000000000000000
 11
301.0626694635242
 21
705.4666666189839
 31
0.0000000000000000
  0
MTEXT
  5
207
100
AcDbEntity
  8
MAIN0
  6
CONTINUOUS
 62
3
100
AcDbMText
 10
269.7293361301908
 20
707.6666666666677
 30
0.0000000000000000
 40
6.199999809265137
 41
0.0000000000000000
 71
     8
 72
     1
  1
{\H0.69x;{53}}
 11
1.000000000000000
 21
0.0000000000000000
 31
0.0000000000000000
  7
STANDARD
  0
LINE
  5
208
100
AcDbEntity
  8
MAIN0
  6
CONTINUOUS
 62
3
100
AcDbLine
 10
305.0626694635243
 20
694.1333333452551
 30
0.0000000000000000
 11
305.0626694635243
 21
708.6666666666677
 31
0.0000000000000000
  0
LINE
  5
209
100
AcDbEntity
  8
MAIN0
  6
CONTINUOUS
 62
3
100
AcDbLine
 10
305.0626694635242
 20
706.6666666666677
 30
0.0000000000000000
 11
354.3960027968575
 21
706.6666666666677
 31
0.0000000000000000
  0
LINE
  5
20A
100
AcDbEntity
  8
MAIN0
  6
CONTINUOUS
 62
3
100
AcDbLine
 10
309.0626694635242
 20
707.8666667143514
 30
0.0000000000000000
 11
305.0626694635242
 21
706.6666666666677
 31
0.0000000000000000
  0
LINE
  5
20B
100
AcDbEntity
  8
MAIN0
  6
CONTINUOUS
 62
3
100
AcDbLine
 10
305.0626694635242
 20
706.6666666666677
 30
0.0000000000000000
 11
309.0626694635242
 21
705.4666666189839
 31
0.0000000000000000
  0
LINE
  5
20C
100
AcDbEntity
  8
MAIN0
  6
CONTINUOUS
 62
3
100
AcDbLine
 10
350.3960027968575
 20
707.8666667143514
 30
0.0000000000000000
 11
354.3960027968575
 21
706.6666666666677
 31
0.0000000000000000
  0
LINE
  5
20D
100
AcDbEntity
  8
MAIN0
  6
CONTINUOUS
 62
3
100
AcDbLine
 10
354.3960027968575
 20
706.6666666666677
 30
0.0000000000000000
 11
350.3960027968575
 21
705.4666666189839
 31
0.0000000000000000
  0
MTEXT
  5
20E
100
AcDbEntity
  8
MAIN0
  6
CONTINUOUS
 62
3
100
AcDbMText
 10
329.7293361301909
 20
707.6666666666677
 30
0.0000000000000000
 40
6.199999809265137
 41
0.0000000000000000
 71
     8
 72
     1
  1
{\H0.69x;{37}}
 11
1.000000000000000
 21
0.0000000000000000
 31
0.0000000000000000
  7
STANDARD
  0
LINE
  5
20F
100
AcDbEntity
  8
MAIN0
  6
CONTINUOUS
 62
3
100
AcDbLine
 10
354.3960027968575
 20
678.1333333452552
 30
0.0000000000000000
 11
354.3960027968575
 21
708.6666666666677
 31
0.0000000000000000
  0
LINE
  5
210
100
AcDbEntity
  8
MAIN0
  6
CONTINUOUS
 62
3
100
AcDbLine
 10
250.7319914800852
 20
600.0000000000010
 30
0.0000000000000000
 11
250.7319914800852
 21
640.0000000000010
 31
0.0000000000000000
  0
LINE
  5
211
100
AcDbEntity
  8
MAIN0
  6
CONTINUOUS
 62
3
100
AcDbLine
 10
249.5319914324014
 20
604.0000000000010
 30
0.0000000000000000
 11
250.7319914800852
 21
600.0000000000010
 31
0.0000000000000000
  0
LINE
  5
212
100
AcDbEntity
  8
MAIN0
  6
CONTINUOUS
 62
3
100
AcDbLine
 10
250.7319914800852
 20
600.0000000000010
 30
0.0000000000000000
 11
251.9319915277689
 21
604.0000000000010
 31
0.0000000000000000
  0
LINE
  5
213
100
AcDbEntity
  8
MAIN0
  6
CONTINUOUS
 62
3
100
AcDbLine
 10
249.5319914324014
 20
636.0000000000010
 30
0.0000000000000000
 11
250.7319914800852
 21
640.0000000000010
 31
0.0000000000000000
  0
LINE
  5
214
100
AcDbEntity
  8
MAIN0
  6
CONTINUOUS
 62
3
100
AcDbLine
 10
250.7319914800852
 20
640.0000000000010
 30
0.0000000000000000
 11
251.9319915277689
 21
636.0000000000010
 31
0.0000000000000000
  0
MTEXT
  5
215
100
AcDbEntity
  8
MAIN0
  6
CONTINUOUS
 62
3
100
AcDbMText
 10
249.7319914800852
 20
620.0000000000010
 30
0.0000000000000000
 40
6.199999809265137
 41
0.0000000000000000
 71
     8
 72
     1
  1
{\U+220530}
 11
6.123233995736766e-017
 21
1.000000000000000
 31
0.0000000000000000
  7
STANDARD
  0
LINE
  5
216
100
AcDbEntity
  8
MAIN0
  6
CONTINUOUS
 62
3
100
AcDbLine
 10
233.1823995843845
 20
409.0833333333343
 30
0.0000000000000000
 11
172.3960027968575
 21
409.0833333333344
 31
0.0000000000000000
  0
ARC
  5
217
100
AcDbEntity
  8
MAIN0
  6
CONTINUOUS
 62
3
100
AcDbCircle
 10
234.3960027897345
 20
409.0833333333343
 30
0.0000000000000000
 40
59.99999999287698
100
AcDbArc
 50
174.2704220480115
 51
192.8545779519843
  0
LINE
  5
218
100
AcDbEntity
  8
MAIN0
  6
CONTINUOUS
 62
3
100
AcDbLine
 10
175.5960028445412
 20
413.0833333333343
 30
0.0000000000000000
 11
174.3960027968575
 21
409.0833333333343
 31
0.0000000000000000
  0
LINE
  5
219
100
AcDbEntity
  8
MAIN0
  6
CONTINUOUS
 62
3
100
AcDbLine
 10
174.3960027968575
 20
409.0833333333343
 30
0.0000000000000000
 11
173.1960027491738
 21
413.0833333333343
 31
0.0000000000000000
  0
LINE
  5
21A
100
AcDbEntity
  8
MAIN0
  6
CONTINUOUS
 62
3
100
AcDbLine
 10
176.5461994180883
 20
397.8209959464241
 30
0.0000000000000000
 11
174.8593280704440
 21
401.6412662471931
 31
0.0000000000000000
  0
LINE
  5
21B
100
AcDbEntity
  8
MAIN0
  6
CONTINUOUS
 62
3
100
AcDbLine
 10
174.8593280704440
 20
401.6412662471931
 30
0.0000000000000000
 11
174.1647323344029
 21
397.5233132511143
 31
0.0000000000000000
  0
MTEXT
  5
21C
100
AcDbEntity
  8
MAIN0
  6
CONTINUOUS
 62
3
100
AcDbMText
 10
173.5138785281131
 20
405.2929580849617
 30
0.0000000000000000
 40
6.199999809265137
 41
0.0000000000000000
 71
     8
 72
     1
  1
{\H0.56x;{7\U+00B007′30″}}
 11
-0.06213729916090623
 21
0.9980676109627985
 31
0.0000000000000000
  7
KNJYOKO
  0
LINE
  5
21D
100
AcDbEntity
  8
MAIN0
  6
CONTINUOUS
 62
3
100
AcDbLine
 10
233.6021804553440
 20
408.9841057715858
 30
0.0000000000000000
 11
172.8747722462320
 21
401.3931973442923
 31
0.0000000000000000
  0
SPLINE
  5
21E
100
AcDbEntity
  8
MAIN0
  6
CONTINUOUS
 62
3
100
AcDbSpline
210
0.0000000000000000
220
0.0000000000000000
230
1.000000000000000
 70
     8
 71
     3
 72
    11
 73
     7
 74
     0
 42
1.000000000000000e-007
 43
1.000000000000000e-007
 12
-0.06448576401184702
 22
-1.341807062363774
 32
0.0000000000000000
 13
-0.1300966917159059
 23
-1.322030366184313
 33
0.0000000000000000
 40
0.0000000000000000
 40
0.0000000000000000
 40
0.0000000000000000
 40
0.0000000000000000
 40
71.54739335916598
 40
118.3822802291191
 40
238.6171993096423
 40
301.7199987653060
 40
301.7199987653060
 40
301.7199987653060
 40
301.7199987653060
 10
257.9578758202915
 20
680.0000000000009
 30
0.0000000000000000
 10
256.4199463790175
 20
647.9990674323183
 30
0.0000000000000000
 10
253.8752891170043
 20
595.0503408755985
 30
0.0000000000000000
 10
284.1033623461070
 20
491.7628692536230
 30
0.0000000000000000
 10
259.3409086171989
 20
388.6006160811404
 30
0.0000000000000000
 10
251.3903650677658
 20
307.8079390238764
 30
0.0000000000000000
 10
248.6538765853678
 20
280.0000000000010
 30
0.0000000000000000
  0
POINT
  5
21F
100
AcDbEntity
  8
MAIN0
  6
CONTINUOUS
 62
3
100
AcDbPoint
 10
271.7293361301910
 20
523.3333333333341
 30
0.0000000000000000
  0
LINE
  5
220
100
AcDbEntity
  8
MAIN0
  6
CONTINUOUS
 62
3
100
AcDbLine
 10
259.7293361301910
 20
523.3333333333344
 30
0.0000000000000000
 11
271.7293361301910
 21
523.3333333333341
 31
0.0000000000000000
  0
LINE
  5
221
100
AcDbEntity
  8
MAIN0
  6
HIDDEN
 62
3
100
AcDbLine
 10
271.7293361301910
 20
523.3333333333341
 30
0.0000000000000000
 11
354.3960027968577
 21
523.3333333333344
 31
0.0000000000000000
  0
POINT
  5
222
100
AcDbEntity
  8
MAIN0
  6
CONTINUOUS
 62
3
100
AcDbPoint
 10
269.7806217694358
 20
436.6666666665385
 30
0.0000000000000000
  0
LINE
  5
223
100
AcDbEntity
  8
MAIN0
  6
CONTINUOUS
 62
3
100
AcDbLine
 10
259.7293361301910
 20
436.6666666666677
 30
0.0000000000000000
 11
269.7806217694358
 21
436.6666666665385
 31
0.0000000000000000
  0
LINE
  5
224
100
AcDbEntity
  8
MAIN0
  6
HIDDEN
 62
3
100
AcDbLine
 10
269.7806217694358
 20
436.6666666665385
 30
0.0000000000000000
 11
354.3960027968577
 21
436.6666666666677
 31
0.0000000000000000
  0
LINE
  5
225
100
AcDbEntity
  8
MAIN0
  6
CENTER
 62
3
100
AcDbLine
 10
852.8020681110168
 20
626.1354014460899
 30
0.0000000000000000
 11
750.7923692781949
 21
524.1257026131085
 31
0.0000000000000000
  0
LINE
  5
226
100
AcDbEntity
  8
MAIN0
  6
CENTER
 62
3
100
AcDbLine
 10
926.6666666666670
 20
479.9999999999997
 30
0.0000000000000000
 11
486.6666666666670
 21
480.0000000000008
 31
0.0000000000000000
  0
ARC
  5
227
100
AcDbEntity
  8
MAIN0
  6
CONTINUOUS
 62
3
100
AcDbCircle
 10
795.2907165751568
 20
391.3759500898599
 30
0.0000000000000000
 40
10.66666666666662
100
AcDbArc
 50
44.99999999995537
 51
224.9999999999547
  0
ARC
  5
228
100
AcDbEntity
  8
MAIN0
  6
CONTINUOUS
 62
3
100
AcDbCircle
 10
819.8037516562713
 20
366.8629150087070
 30
0.0000000000000000
 40
10.66666666666668
100
AcDbArc
 50
224.9999999999557
 51
404.9999999999549
  0
LINE
  5
229
100
AcDbEntity
  8
MAIN0
  6
CONTINUOUS
 62
3
100
AcDbLine
 10
827.3462239889333
 20
374.4053873413576
 30
0.0000000000000000
 11
802.8331889078188
 21
398.9184224225107
 31
0.0000000000000000
  0
LINE
  5
22A
100
AcDbEntity
  8
MAIN0
  6
CONTINUOUS
 62
3
100
AcDbLine
 10
812.2612793236083
 20
359.3204426760565
 30
0.0000000000000000
 11
787.7482442424939
 21
383.8334777572095
 31
0.0000000000000000
  0
LINE
  5
22B
100
AcDbEntity
  8
MAIN0
  6
CONTINUOUS
 62
3
100
AcDbLine
 10
827.3462239889342
 20
585.5946126586423
 30
0.0000000000000000
 11
802.8331889078196
 21
561.0815775774895
 31
0.0000000000000000
  0
ARC
  5
22C
100
AcDbEntity
  8
MAIN0
  6
CONTINUOUS
 62
3
100
AcDbCircle
 10
795.2907165751572
 20
568.6240499101400
 30
0.0000000000000000
 40
10.66666666666662
100
AcDbArc
 50
135.0000000000451
 51
315.0000000000444
  0
LINE
  5
22D
100
AcDbEntity
  8
MAIN0
  6
CONTINUOUS
 62
3
100
AcDbLine
 10
812.2612793236094
 20
600.6795573239434
 30
0.0000000000000000
 11
787.7482442424948
 21
576.1665222427906
 31
0.0000000000000000
  0
ARC
  5
22E
100
AcDbEntity
  8
MAIN0
  6
CONTINUOUS
 62
3
100
AcDbCircle
 10
819.8037516562717
 20
593.1370849912929
 30
0.0000000000000000
 40
10.66666666666668
100
AcDbArc
 50
315.0000000000449
 51
495.0000000000441
  0
POINT
  5
22F
100
AcDbEntity
  8
MAIN0
  6
CONTINUOUS
 62
3
100
AcDbPoint
 10
848.0880229031095
 20
338.5786437618237
 30
0.0000000000000000
  0
POINT
  5
230
100
AcDbEntity
  8
MAIN0
  6
CONTINUOUS
 62
3
100
AcDbPoint
 10
827.3462239889216
 20
359.3204426760443
 30
0.0000000000000000
  0
POINT
  5
231
100
AcDbEntity
  8
MAIN0
  6
CONTINUOUS
 62
3
100
AcDbPoint
 10
787.7482442425062
 20
398.9184224225222
 30
0.0000000000000000
  0
POINT
  5
232
100
AcDbEntity
  8
MAIN0
  6
CONTINUOUS
 62
3
100
AcDbPoint
 10
862.1333333315222
 20
479.9999999999998
 30
0.0000000000000000
  0
ARC
  5
233
100
AcDbEntity
  8
MAIN0
  6
CENTER
 62
3
100
AcDbCircle
 10
706.6666666666669
 20
480.0000000000002
 30
0.0000000000000000
 40
88.89999999999999
100
AcDbArc
 50
303.3921334789071
 51
326.6078665200900
  0
ARC
  5
234
100
AcDbEntity
  8
MAIN0
  6
CENTER
 62
3
100
AcDbCircle
 10
706.6666666666669
 20
480.0000000000002
 30
0.0000000000000000
 40
88.90000000000003
100
AcDbArc
 50
33.39213347890698
 51
56.60786652009006
  0
LINE
  5
235
100
AcDbEntity
  8
MAIN0
  6
CONTINUOUS
 62
3
100
AcDbLine
 10
773.6104336005355
 20
494.0000000000001
 30
0.0000000000000000
 11
747.6761506646128
 21
494.0000000000001
 31
0.0000000000000000
  0
LINE
  5
236
100
AcDbEntity
  8
MAIN0
  6
CONTINUOUS
 62
3
100
AcDbLine
 10
906.1760649415351
 20
493.9999999999997
 30
0.0000000000000000
 11
898.3895663964787
 21
493.9999999999997
 31
0.0000000000000000
  0
LINE
  5
237
100
AcDbEntity
  8
MAIN0
  6
CONTINUOUS
 62
3
100
AcDbLine
 10
773.6104336005355
 20
466.0000000000001
 30
0.0000000000000000
 11
747.6761506646127
 21
466.0000000000001
 31
0.0000000000000000
  0
LINE
  5
238
100
AcDbEntity
  8
MAIN0
  6
CONTINUOUS
 62
3
100
AcDbLine
 10
906.1760649415351
 20
465.9999999999997
 30
0.0000000000000000
 11
898.3895663964786
 21
465.9999999999997
 31
0.0000000000000000
  0
LINE
  5
239
100
AcDbEntity
  8
MAIN0
  6
CONTINUOUS
 62
3
100
AcDbLine
 10
887.7228997309176
 20
503.3333333330438
 30
0.0000000000000000
 11
905.3008922058953
 21
503.3333333330438
 31
0.0000000000000000
  0
LINE
  5
23A
100
AcDbEntity
  8
MAIN0
  6
CONTINUOUS
 62
3
100
AcDbLine
 10
784.2771002662178
 20
503.3333333330779
 30
0.0000000000000000
 11
743.1815038338414
 21
503.3333333330779
 31
0.0000000000000000
  0
LINE
  5
23B
100
AcDbEntity
  8
MAIN0
  6
CONTINUOUS
 62
3
100
AcDbLine
 10
887.7228997309173
 20
456.6666666669557
 30
0.0000000000000000
 11
905.3008922058953
 21
456.6666666669556
 31
0.0000000000000000
  0
LINE
  5
23C
100
AcDbEntity
  8
MAIN0
  6
CONTINUOUS
 62
3
100
AcDbLine
 10
784.2771002662179
 20
456.6666666669221
 30
0.0000000000000000
 11
743.1815038338411
 21
456.6666666669224
 31
0.0000000000000000
  0
LINE
  5
23D
100
AcDbEntity
  8
MAIN0
  6
CONTINUOUS
 62
3
100
AcDbLine
 10
720.6666666666672
 20
546.9437669338688
 30
0.0000000000000000
 11
720.6666666666670
 21
521.0094839979460
 31
0.0000000000000000
  0
LINE
  5
23E
100
AcDbEntity
  8
MAIN0
  6
CONTINUOUS
 62
3
100
AcDbLine
 10
729.9999999997450
 20
557.6104335995515
 30
0.0000000000000000
 11
729.9999999997448
 21
516.5148371671745
 31
0.0000000000000000
  0
LINE
  5
23F
100
AcDbEntity
  8
MAIN0
  6
CONTINUOUS
 62
3
100
AcDbLine
 10
720.6666666666675
 20
679.5796213180654
 30
0.0000000000000000
 11
720.6666666666675
 21
671.7228997298116
 31
0.0000000000000000
  0
LINE
  5
240
100
AcDbEntity
  8
MAIN0
  6
CONTINUOUS
 62
3
100
AcDbLine
 10
729.9999999997117
 20
661.0562330642499
 30
0.0000000000000000
 11
729.9999999997117
 21
678.8304019915738
 31
0.0000000000000000
  0
LINE
  5
241
100
AcDbEntity
  8
MAIN0
  6
CONTINUOUS
 62
3
100
AcDbLine
 10
729.9999999997109
 20
298.9437669357504
 30
0.0000000000000000
 11
729.9999999997109
 21
281.1695980084265
 31
0.0000000000000000
  0
LINE
  5
242
100
AcDbEntity
  8
MAIN0
  6
CONTINUOUS
 62
3
100
AcDbLine
 10
720.6666666666667
 20
280.4203786819350
 30
0.0000000000000000
 11
720.6666666666667
 21
288.2771002701886
 31
0.0000000000000000
  0
LINE
  5
243
100
AcDbEntity
  8
MAIN0
  6
CONTINUOUS
 62
3
100
AcDbLine
 10
729.9999999997447
 20
402.3895664004487
 30
0.0000000000000000
 11
729.9999999997442
 21
443.4851628328256
 31
0.0000000000000000
  0
LINE
  5
244
100
AcDbEntity
  8
MAIN0
  6
CONTINUOUS
 62
3
100
AcDbLine
 10
720.6666666666667
 20
413.0562330661317
 30
0.0000000000000000
 11
720.6666666666670
 21
438.9905160020543
 31
0.0000000000000000
  0
CIRCLE
  5
245
100
AcDbEntity
  8
MAIN0
  6
CONTINUOUS
 62
3
100
AcDbCircle
 10
706.6666666666669
 20
480.0000000000002
 30
0.0000000000000000
 40
200.0000000000000
  0
ARC
  5
246
100
AcDbEntity
  8
MAIN0
  6
CONTINUOUS
 62
3
100
AcDbCircle
 10
706.6666666666669
 20
480.0000000000002
 30
0.0000000000000000
 40
173.3333333333333
100
AcDbArc
 50
7.736380039869157
 51
82.26361995995313
  0
ARC
  5
247
100
AcDbEntity
  8
MAIN0
  6
CONTINUOUS
 62
3
100
AcDbCircle
 10
706.6666666666669
 20
480.0000000000002
 30
0.0000000000000000
 40
173.3333333333333
100
AcDbArc
 50
277.7363800400495
 51
352.2636199601305
  0
ARC
  5
248
100
AcDbEntity
  8
MAIN0
  6
CONTINUOUS
 62
3
100
AcDbCircle
 10
706.6666666666669
 20
480.0000000000002
 30
0.0000000000000000
 40
120.0000000000000
100
AcDbArc
 50
319.3167887187166
 51
348.7877285824745
  0
ARC
  5
249
100
AcDbEntity
  8
MAIN0
  6
CONTINUOUS
 62
3
100
AcDbCircle
 10
706.6666666666669
 20
480.0000000000002
 30
0.0000000000000000
 40
120.0000000000000
100
AcDbArc
 50
281.2122714177813
 51
310.6832112802164
  0
ARC
  5
24A
100
AcDbEntity
  8
MAIN0
  6
CONTINUOUS
 62
3
100
AcDbCircle
 10
706.6666666666669
 20
480.0000000000002
 30
0.0000000000000000
 40
146.6666666666667
100
AcDbArc
 50
319.1706479113980
 51
350.8458667154621
  0
ARC
  5
24B
100
AcDbEntity
  8
MAIN0
  6
CONTINUOUS
 62
3
100
AcDbCircle
 10
706.6666666666669
 20
480.0000000000002
 30
0.0000000000000000
 40
146.6666666666667
100
AcDbArc
 50
279.1541332847486
 51
310.8293520876749
  0
ARC
  5
24C
100
AcDbEntity
  8
MAIN0
  6
CONTINUOUS
 62
3
100
AcDbCircle
 10
706.6666666666669
 20
480.0000000000002
 30
0.0000000000000000
 40
146.6666666666667
100
AcDbArc
 50
49.17064791232485
 51
80.84586671525464
  0
ARC
  5
24D
100
AcDbEntity
  8
MAIN0
  6
CONTINUOUS
 62
3
100
AcDbCircle
 10
706.6666666666669
 20
480.0000000000002
 30
0.0000000000000000
 40
146.6666666666667
100
AcDbArc
 50
9.154133284537533
 51
40.82935208860175
  0
ARC
  5
24E
100
AcDbEntity
  8
MAIN0
  6
CONTINUOUS
 62
3
100
AcDbCircle
 10
706.6666666666669
 20
480.0000000000002
 30
0.0000000000000000
 40
120.0000000000000
100
AcDbArc
 50
49.31678871978324
 51
78.78772858222278
  0
ARC
  5
24F
100
AcDbEntity
  8
MAIN0
  6
CONTINUOUS
 62
3
100
AcDbCircle
 10
706.6666666666669
 20
480.0000000000002
 30
0.0000000000000000
 40
120.0000000000000
100
AcDbArc
 50
11.21227141752522
 51
40.68321128128308
  0
ARC
  5
250
100
AcDbEntity
  8
MAIN0
  6
CONTINUOUS
 62
3
100
AcDbCircle
 10
706.6666666666669
 20
480.0000000000002
 30
0.0000000000000000
 40
66.66666666666666
100
AcDbArc
 50
20.48731511448810
 51
69.51268488551153
  0
ARC
  5
251
100
AcDbEntity
  8
MAIN0
  6
CONTINUOUS
 62
3
100
AcDbCircle
 10
706.6666666666669
 20
480.0000000000002
 30
0.0000000000000000
 40
66.66666666666666
100
AcDbArc
 50
290.4873151144881
 51
339.5126848855116
  0
POINT
  5
252
100
AcDbEntity
  8
MAIN0
  6
CONTINUOUS
 62
3
100
AcDbPoint
 10
848.0880229027388
 20
338.5786437614531
 30
0.0000000000000000
  0
ARC
  5
253
100
AcDbEntity
  8
MAIN0
  6
CONTINUOUS
 62
3
100
AcDbCircle
 10
706.6666666666669
 20
480.0000000000002
 30
0.0000000000000000
 40
93.33333333333333
100
AcDbArc
 50
52.91583618834837
 51
75.52248781423174
  0
ARC
  5
254
100
AcDbEntity
  8
MAIN0
  6
CONTINUOUS
 62
3
100
AcDbCircle
 10
706.6666666666669
 20
480.0000000000002
 30
0.0000000000000000
 40
93.33333333333333
100
AcDbArc
 50
14.47751218576785
 51
37.08416381018415
  0
ARC
  5
255
100
AcDbEntity
  8
MAIN0
  6
CONTINUOUS
 62
3
100
AcDbCircle
 10
706.6666666666669
 20
480.0000000000002
 30
0.0000000000000000
 40
93.33333333333333
100
AcDbArc
 50
322.9158361883484
 51
345.5224878142319
  0
ARC
  5
256
100
AcDbEntity
  8
MAIN0
  6
CONTINUOUS
 62
3
100
AcDbCircle
 10
706.6666666666669
 20
480.0000000000002
 30
0.0000000000000000
 40
93.33333333333333
100
AcDbArc
 50
284.4775121860967
 51
307.0841638101841
  0
CIRCLE
  5
257
100
AcDbEntity
  8
MAIN0
  6
CONTINUOUS
 62
3
100
AcDbCircle
 10
769.5284595133459
 20
417.1382071517111
 30
0.0000000000000000
 40
13.33333333333333
  0
CIRCLE
  5
258
100
AcDbEntity
  8
MAIN0
  6
CONTINUOUS
 62
3
100
AcDbCircle
 10
769.5284595133459
 20
417.1382071517111
 30
0.0000000000000000
 40
9.000000000000000
  0
CIRCLE
  5
259
100
AcDbEntity
  8
MAIN0
  6
CONTINUOUS
 62
3
100
AcDbCircle
 10
769.5284595149559
 20
542.8617928466792
 30
0.0000000000000000
 40
13.33333333333333
  0
CIRCLE
  5
25A
100
AcDbEntity
  8
MAIN0
  6
CONTINUOUS
 62
3
100
AcDbCircle
 10
769.5284595149559
 20
542.8617928466792
 30
0.0000000000000000
 40
9.000000000000000
  0
MTEXT
  5
25B
100
AcDbEntity
  8
MAIN0
  6
CONTINUOUS
 62
3
100
AcDbMText
 10
740.8819100737588
 20
293.9275603624222
 30
0.0000000000000000
 40
6.199999809265137
 41
0.0000000000000000
 71
     1
 72
     1
  1
{\H0.81x;{4}}
 11
1.000000000000000
 21
0.0000000000000000
 31
0.0000000000000000
  7
STANDARD
  0
MTEXT
  5
25C
100
AcDbEntity
  8
MAIN0
  6
CONTINUOUS
 62
3
100
AcDbMText
 10
895.1139787862499
 20
512.6661228217903
 30
0.0000000000000000
 40
6.199999809265137
 41
0.0000000000000000
 71
     1
 72
     1
  1
{\H0.81x;{3}}
 11
6.123233995736766e-017
 21
1.000000000000000
 31
0.0000000000000000
  7
STANDARD
  0
LINE
  5
25D
100
AcDbEntity
  8
MAIN0
  6
CONTINUOUS
 62
3
100
AcDbLine
 10
1007.402061416152
 20
438.4934895310786
 30
0.0000000000000000
 11
1027.399816904092
 21
468.8999966252931
 31
0.0000000000000000
  0
LINE
  5
25E
100
AcDbEntity
  8
MAIN0
  6
CONTINUOUS
 62
3
100
AcDbLine
 10
1011.048092418796
 20
446.2211029665959
 30
0.0000000000000000
 11
1014.248657158700
 21
448.9037109253032
 31
0.0000000000000000
  0
LINE
  5
25F
100
AcDbEntity
  8
MAIN0
  6
CONTINUOUS
 62
3
100
AcDbLine
 10
1014.248657158700
 20
448.9037109253032
 30
0.0000000000000000
 11
1013.053291064491
 21
444.9023236639580
 31
0.0000000000000000
  0
LINE
  5
260
100
AcDbEntity
  8
MAIN0
  6
CONTINUOUS
 62
3
100
AcDbLine
 10
1026.946708935509
 20
470.3948856791187
 30
0.0000000000000000
 11
1025.751342841299
 21
466.3934984177735
 31
0.0000000000000000
  0
LINE
  5
261
100
AcDbEntity
  8
MAIN0
  6
CONTINUOUS
 62
3
100
AcDbLine
 10
1025.751342841299
 20
466.3934984177735
 30
0.0000000000000000
 11
1028.951907581204
 21
469.0761063764808
 31
0.0000000000000000
  0
MTEXT
  5
262
100
AcDbEntity
  8
MAIN0
  6
CONTINUOUS
 62
3
100
AcDbMText
 10
1005.214880033208
 20
436.9877538498863
 30
0.0000000000000000
 40
6.199999809265137
 41
0.0000000000000000
 71
     8
 72
     1
  1
{\U+220515.7}
 11
0.5494913542642924
 21
0.8354994025065451
 31
0.0000000000000000
  7
STANDARD
  0
LINE
  5
263
100
AcDbEntity
  8
MAIN0
  6
CONTINUOUS
 62
3
100
AcDbLine
 10
258.9293361182700
 20
523.3333333333344
 30
0.0000000000000000
 11
212.3960027968575
 21
523.3333333333344
 31
0.0000000000000000
  0
LINE
  5
264
100
AcDbEntity
  8
MAIN0
  6
CONTINUOUS
 62
3
100
AcDbLine
 10
214.3960027968575
 20
523.3333333333344
 30
0.0000000000000000
 11
214.3960027968575
 21
436.6666666666677
 31
0.0000000000000000
  0
LINE
  5
265
100
AcDbEntity
  8
MAIN0
  6
CONTINUOUS
 62
3
100
AcDbLine
 10
215.5960028445412
 20
519.3333333333344
 30
0.0000000000000000
 11
214.3960027968575
 21
523.3333333333344
 31
0.0000000000000000
  0
LINE
  5
266
100
AcDbEntity
  8
MAIN0
  6
CONTINUOUS
 62
3
100
AcDbLine
 10
214.3960027968575
 20
523.3333333333344
 30
0.0000000000000000
 11
213.1960027491738
 21
519.3333333333344
 31
0.0000000000000000
  0
LINE
  5
267
100
AcDbEntity
  8
MAIN0
  6
CONTINUOUS
 62
3
100
AcDbLine
 10
215.5960028445412
 20
440.6666666666677
 30
0.0000000000000000
 11
214.3960027968575
 21
436.6666666666677
 31
0.0000000000000000
  0
LINE
  5
268
100
AcDbEntity
  8
MAIN0
  6
CONTINUOUS
 62
3
100
AcDbLine
 10
214.3960027968575
 20
436.6666666666677
 30
0.0000000000000000
 11
213.1960027491738
 21
440.6666666666677
 31
0.0000000000000000
  0
MTEXT
  5
269
100
AcDbEntity
  8
MAIN0
  6
CONTINUOUS
 62
3
100
AcDbMText
 10
213.3960027968575
 20
480.0000000000010
 30
0.0000000000000000
 40
6.199999809265137
 41
0.0000000000000000
 71
     8
 72
     1
  1
{\H0.70x;{\U+220565}}
 11
6.123233995736766e-017
 21
1.000000000000000
 31
0.0000000000000000
  7
STANDARD
  0
LINE
  5
26A
100
AcDbEntity
  8
MAIN0
  6
CONTINUOUS
 62
3
100
AcDbLine
 10
258.9293361182701
 20
436.6666666666677
 30
0.0000000000000000
 11
212.3960027968575
 21
436.6666666666677
 31
0.0000000000000000
  0
MTEXT
  5
26B
100
AcDbEntity
  8
MAIN0
  6
CONTINUOUS
 62
3
100
AcDbMText
 10
583.4199266066080
 20
568.7453834630547
 30
0.0000000000000000
 40
8.000000000000000
 41
0.0000000000000000
 71
     1
 72
     1
  1
{\H0.93x;{KITAGAWA}}
 11
-0.4226182617406999
 21
-0.9063077870366497
 31
0.0000000000000000
  7
STANDARD
  0
MTEXT
  5
26C
100
AcDbEntity
  8
MAIN0
  6
CONTINUOUS
 62
3
100
AcDbMText
 10
571.6422204752955
 20
569.2693937968654
 30
0.0000000000000000
 40
8.000000000000000
 41
0.0000000000000000
 71
     1
 72
     1
  1
{\H0.92x;{IA6-300}}
 11
-0.4226182617406999
 21
-0.9063077870366497
 31
0.0000000000000000
  7
STANDARD
  0
MTEXT
  5
26D
100
AcDbEntity
  8
MAIN0
  6
CONTINUOUS
 62
3
100
AcDbMText
 10
550.5315588967609
 20
567.6421534109035
 30
0.0000000000000000
 40
6.000000000000000
 41
0.0000000000000000
 71
     1
 72
     1
  1
{\H0.92x;{JAPAN}}
 11
-0.4226182617406992
 21
-0.9063077870366501
 31
0.0000000000000000
  7
STANDARD
  0
POINT
  5
26E
100
AcDbEntity
  8
MAIN0
  6
CONTINUOUS
 62
3
100
AcDbPoint
 10
264.1297764640466
 20
400.1000000334402
 30
0.0000000000000000
  0
LINE
  5
26F
100
AcDbEntity
  8
MAIN0
  6
CONTINUOUS
 62
3
100
AcDbLine
 10
235.1960027968577
 20
400.1000000000454
 30
0.0000000000000000
 11
264.1297764640466
 21
400.1000000334402
 31
0.0000000000000000
  0
LINE
  5
270
100
AcDbEntity
  8
MAIN0
  6
HIDDEN
 62
3
100
AcDbLine
 10
264.1297764640466
 20
400.1000000334402
 30
0.0000000000000000
 11
335.7293361301910
 21
400.1000000000454
 31
0.0000000000000000
  0
POINT
  5
271
100
AcDbEntity
  8
MAIN0
  6
CONTINUOUS
 62
3
100
AcDbPoint
 10
261.1532786079146
 20
382.1000001247098
 30
0.0000000000000000
  0
LINE
  5
272
100
AcDbEntity
  8
MAIN0
  6
CONTINUOUS
 62
3
100
AcDbLine
 10
235.1960027968542
 20
382.0999999996767
 30
0.0000000000000000
 11
261.1532786079146
 21
382.1000001247098
 31
0.0000000000000000
  0
LINE
  5
273
100
AcDbEntity
  8
MAIN0
  6
HIDDEN
 62
3
100
AcDbLine
 10
261.1532786079146
 20
382.1000001247098
 30
0.0000000000000000
 11
335.7293361301875
 21
382.0999999996374
 31
0.0000000000000000
  0
LINE
  5
274
100
AcDbEntity
  8
MAIN0
  6
CONTINUOUS
 62
3
100
AcDbLine
 10
354.3960027968577
 20
440.3070727543432
 30
0.0000000000000000
 11
407.7293361301910
 21
440.3070727543432
 31
0.0000000000000000
  0
LINE
  5
275
100
AcDbEntity
  8
MAIN0
  6
CONTINUOUS
 62
3
100
AcDbLine
 10
358.3960027968577
 20
441.5070728020269
 30
0.0000000000000000
 11
354.3960027968577
 21
440.3070727543432
 31
0.0000000000000000
  0
LINE
  5
276
100
AcDbEntity
  8
MAIN0
  6
CONTINUOUS
 62
3
100
AcDbLine
 10
354.3960027968577
 20
440.3070727543432
 30
0.0000000000000000
 11
358.3960027968577
 21
439.1070727066594
 31
0.0000000000000000
  0
LINE
  5
277
100
AcDbEntity
  8
MAIN0
  6
CONTINUOUS
 62
3
100
AcDbLine
 10
403.7293361301910
 20
441.5070728020269
 30
0.0000000000000000
 11
407.7293361301910
 21
440.3070727543432
 31
0.0000000000000000
  0
LINE
  5
278
100
AcDbEntity
  8
MAIN0
  6
CONTINUOUS
 62
3
100
AcDbLine
 10
407.7293361301910
 20
440.3070727543432
 30
0.0000000000000000
 11
403.7293361301910
 21
439.1070727066594
 31
0.0000000000000000
  0
MTEXT
  5
279
100
AcDbEntity
  8
MAIN0
  6
CONTINUOUS
 62
3
100
AcDbMText
 10
381.0626694635243
 20
441.3070727543432
 30
0.0000000000000000
 40
6.199999809265137
 41
0.0000000000000000
 71
     8
 72
     1
  1
{\H0.69x;{40}}
 11
1.000000000000000
 21
0.0000000000000000
 31
0.0000000000000000
  7
STANDARD
  0
LINE
  5
27A
100
AcDbEntity
  8
MAIN0
  6
CONTINUOUS
 62
3
100
AcDbLine
 10
407.7293361301910
 20
457.1999999880802
 30
0.0000000000000000
 11
407.7293361301910
 21
438.3070727543432
 31
0.0000000000000000
  0
LINE
  5
27B
100
AcDbEntity
  8
MAIN0
  6
CONTINUOUS
 62
3
100
AcDbLine
 10
335.7293361301911
 20
376.9666666543831
 30
0.0000000000000000
 11
335.7293361301911
 21
364.8691439046011
 31
0.0000000000000000
  0
LINE
  5
27C
100
AcDbEntity
  8
MAIN0
  6
CONTINUOUS
 62
3
100
AcDbLine
 10
335.7293361301911
 20
366.8691439046011
 30
0.0000000000000000
 11
354.3960027968577
 21
366.8691439046011
 31
0.0000000000000000
  0
LINE
  5
27D
100
AcDbEntity
  8
MAIN0
  6
CONTINUOUS
 62
3
100
AcDbLine
 10
339.7293361301911
 20
368.0691439522848
 30
0.0000000000000000
 11
335.7293361301911
 21
366.8691439046011
 31
0.0000000000000000
  0
LINE
  5
27E
100
AcDbEntity
  8
MAIN0
  6
CONTINUOUS
 62
3
100
AcDbLine
 10
335.7293361301911
 20
366.8691439046011
 30
0.0000000000000000
 11
339.7293361301911
 21
365.6691438569173
 31
0.0000000000000000
  0
LINE
  5
27F
100
AcDbEntity
  8
MAIN0
  6
CONTINUOUS
 62
3
100
AcDbLine
 10
350.3960027968577
 20
368.0691439522848
 30
0.0000000000000000
 11
354.3960027968577
 21
366.8691439046011
 31
0.0000000000000000
  0
LINE
  5
280
100
AcDbEntity
  8
MAIN0
  6
CONTINUOUS
 62
3
100
AcDbLine
 10
354.3960027968577
 20
366.8691439046011
 30
0.0000000000000000
 11
350.3960027968577
 21
365.6691438569173
 31
0.0000000000000000
  0
MTEXT
  5
281
100
AcDbEntity
  8
MAIN0
  6
CONTINUOUS
 62
3
100
AcDbMText
 10
345.0626694635243
 20
367.8691439046011
 30
0.0000000000000000
 40
6.199999809265137
 41
0.0000000000000000
 71
     8
 72
     1
  1
{\H0.69x;{14}}
 11
1.000000000000000
 21
0.0000000000000000
 31
0.0000000000000000
  7
STANDARD
  0
LINE
  5
282
100
AcDbEntity
  8
MAIN0
  6
CONTINUOUS
 62
3
100
AcDbLine
 10
233.5960027849368
 20
596.0000000000010
 30
0.0000000000000000
 11
152.3960027968575
 21
596.0000000000010
 31
0.0000000000000000
  0
LINE
  5
283
100
AcDbEntity
  8
MAIN0
  6
CONTINUOUS
 62
3
100
AcDbLine
 10
154.3960027968575
 20
596.0000000000010
 30
0.0000000000000000
 11
154.3960027968575
 21
364.0000094208133
 31
0.0000000000000000
  0
LINE
  5
284
100
AcDbEntity
  8
MAIN0
  6
CONTINUOUS
 62
3
100
AcDbLine
 10
155.5960028445413
 20
592.0000000000010
 30
0.0000000000000000
 11
154.3960027968575
 21
596.0000000000010
 31
0.0000000000000000
  0
LINE
  5
285
100
AcDbEntity
  8
MAIN0
  6
CONTINUOUS
 62
3
100
AcDbLine
 10
154.3960027968575
 20
596.0000000000010
 30
0.0000000000000000
 11
153.1960027491738
 21
592.0000000000010
 31
0.0000000000000000
  0
LINE
  5
286
100
AcDbEntity
  8
MAIN0
  6
CONTINUOUS
 62
3
100
AcDbLine
 10
155.5960028445413
 20
368.0000094208133
 30
0.0000000000000000
 11
154.3960027968575
 21
364.0000094208133
 31
0.0000000000000000
  0
LINE
  5
287
100
AcDbEntity
  8
MAIN0
  6
CONTINUOUS
 62
3
100
AcDbLine
 10
154.3960027968575
 20
364.0000094208133
 30
0.0000000000000000
 11
153.1960027491738
 21
368.0000094208133
 31
0.0000000000000000
  0
MTEXT
  5
288
100
AcDbEntity
  8
MAIN0
  6
CONTINUOUS
 62
3
100
AcDbMText
 10
153.3960027968575
 20
480.0000047104072
 30
0.0000000000000000
 40
6.199999809265137
 41
0.0000000000000000
 71
     8
 72
     1
  1
{\H0.70x;{\U+2205174}}
 11
6.123233995736766e-017
 21
1.000000000000000
 31
0.0000000000000000
  7
STANDARD
  0
LINE
  5
289
100
AcDbEntity
  8
MAIN0
  6
CONTINUOUS
 62
3
100
AcDbLine
 10
233.5960027849368
 20
364.0000094208133
 30
0.0000000000000000
 11
152.3960027968575
 21
364.0000094208133
 31
0.0000000000000000
  0
LINE
  5
28A
100
AcDbEntity
  8
MAIN0
  6
CONTINUOUS
 62
3
100
AcDbLine
 10
235.5960027849368
 20
280.0000000000010
 30
0.0000000000000000
 11
212.3960027968575
 21
280.0000000000010
 31
0.0000000000000000
  0
LINE
  5
28B
100
AcDbEntity
  8
MAIN0
  6
CONTINUOUS
 62
3
100
AcDbLine
 10
214.3960027968575
 20
280.0000000000010
 30
0.0000000000000000
 11
214.3960027968575
 21
297.3333333333344
 31
0.0000000000000000
  0
LINE
  5
28C
100
AcDbEntity
  8
MAIN0
  6
CONTINUOUS
 62
3
100
AcDbLine
 10
213.1960027491738
 20
284.0000000000010
 30
0.0000000000000000
 11
214.3960027968575
 21
280.0000000000010
 31
0.0000000000000000
  0
LINE
  5
28D
100
AcDbEntity
  8
MAIN0
  6
CONTINUOUS
 62
3
100
AcDbLine
 10
214.3960027968575
 20
280.0000000000010
 30
0.0000000000000000
 11
215.5960028445412
 21
284.0000000000010
 31
0.0000000000000000
  0
LINE
  5
28E
100
AcDbEntity
  8
MAIN0
  6
CONTINUOUS
 62
3
100
AcDbLine
 10
213.1960027491738
 20
293.3333333333344
 30
0.0000000000000000
 11
214.3960027968575
 21
297.3333333333344
 31
0.0000000000000000
  0
LINE
  5
28F
100
AcDbEntity
  8
MAIN0
  6
CONTINUOUS
 62
3
100
AcDbLine
 10
214.3960027968575
 20
297.3333333333344
 30
0.0000000000000000
 11
215.5960028445412
 21
293.3333333333344
 31
0.0000000000000000
  0
MTEXT
  5
290
100
AcDbEntity
  8
MAIN0
  6
CONTINUOUS
 62
3
100
AcDbMText
 10
213.3960027968575
 20
288.6666666666677
 30
0.0000000000000000
 40
6.199999809265137
 41
0.0000000000000000
 71
     8
 72
     1
  1
{\H0.69x;{13}}
 11
6.123233995736766e-017
 21
1.000000000000000
 31
0.0000000000000000
  7
STANDARD
  0
LINE
  5
291
100
AcDbEntity
  8
MAIN0
  6
CONTINUOUS
 62
3
100
AcDbLine
 10
233.5960027849368
 20
297.3333333333344
 30
0.0000000000000000
 11
212.3960027968575
 21
297.3333333333344
 31
0.0000000000000000
  0
LINE
  5
292
100
AcDbEntity
  8
MAIN0
  6
CONTINUOUS
 62
3
100
AcDbLine
 10
706.6666666666667
 20
480.0000000000001
 30
0.0000000000000000
 11
630.2718842778143
 21
525.4647910339406
 31
0.0000000000000000
  0
LINE
  5
293
100
AcDbEntity
  8
MAIN0
  6
CONTINUOUS
 62
3
100
AcDbLine
 10
633.0955218272716
 20
522.3879304417565
 30
0.0000000000000000
 11
630.2718842778143
 21
525.4647910339406
 31
0.0000000000000000
  0
LINE
  5
294
100
AcDbEntity
  8
MAIN0
  6
CONTINUOUS
 62
3
100
AcDbLine
 10
630.2718842778143
 20
525.4647910339406
 30
0.0000000000000000
 11
634.3229178094686
 21
524.4503318480424
 31
0.0000000000000000
  0
MTEXT
  5
295
100
AcDbEntity
  8
MAIN0
  6
CONTINUOUS
 62
3
100
AcDbMText
 10
685.0049256050847
 20
494.0552338421588
 30
0.0000000000000000
 40
6.199999809265137
 41
0.0000000000000000
 71
     8
 72
     1
  1
{Ｒ66.675}
 11
0.8593338851389476
 21
-0.5114149722602985
 31
0.0000000000000000
  7
KNJYOKO
  0
POINT
  5
296
100
AcDbEntity
  8
MAIN0
  6
CONTINUOUS
 62
3
100
AcDbPoint
 10
884.7818445685650
 20
570.9669357567633
 30
0.0000000000000000
  0
POINT
  5
297
100
AcDbEntity
  8
MAIN0
  6
CONTINUOUS
 62
3
100
AcDbPoint
 10
861.0331541816452
 20
558.8380109891949
 30
0.0000000000000000
  0
POINT
  5
298
100
AcDbEntity
  8
MAIN0
  6
CONTINUOUS
 62
3
100
AcDbPoint
 10
837.2844637947255
 20
546.7090862216265
 30
0.0000000000000000
  0
POINT
  5
299
100
AcDbEntity
  8
MAIN0
  6
CONTINUOUS
 62
3
100
AcDbPoint
 10
813.5357734078057
 20
534.5801614540582
 30
0.0000000000000000
  0
POINT
  5
29A
100
AcDbEntity
  8
MAIN0
  6
CONTINUOUS
 62
3
100
AcDbPoint
 10
789.7870830208858
 20
522.4512366864896
 30
0.0000000000000000
  0
POINT
  5
29B
100
AcDbEntity
  8
MAIN0
  6
CONTINUOUS
 62
3
100
AcDbPoint
 10
766.0383926339659
 20
510.3223119189212
 30
0.0000000000000000
  0
LINE
  5
29C
100
AcDbEntity
  8
MAIN0
  6
CONTINUOUS
 62
3
100
AcDbLine
 10
766.0383926339662
 20
510.3223119189213
 30
0.0000000000000000
 11
647.2949406993672
 21
449.6776880810794
 31
0.0000000000000000
  0
LINE
  5
29D
100
AcDbEntity
  8
MAIN0
  6
CONTINUOUS
 62
3
100
AcDbLine
 10
763.0218907121570
 20
507.4342820939087
 30
0.0000000000000000
 11
766.0383926339662
 21
510.3223119189213
 31
0.0000000000000000
  0
LINE
  5
29E
100
AcDbEntity
  8
MAIN0
  6
CONTINUOUS
 62
3
100
AcDbLine
 10
766.0383926339662
 20
510.3223119189213
 30
0.0000000000000000
 11
761.9302874396994
 21
509.5716643136635
 31
0.0000000000000000
  0
LINE
  5
29F
100
AcDbEntity
  8
MAIN0
  6
CONTINUOUS
 62
3
100
AcDbLine
 10
651.4030458936339
 20
450.4283356863373
 30
0.0000000000000000
 11
647.2949406993672
 21
449.6776880810794
 31
0.0000000000000000
  0
LINE
  5
2A0
100
AcDbEntity
  8
MAIN0
  6
CONTINUOUS
 62
3
100
AcDbLine
 10
647.2949406993672
 20
449.6776880810794
 30
0.0000000000000000
 11
650.3114426211764
 21
452.5657179060920
 31
0.0000000000000000
  0
MTEXT
  5
2A1
100
AcDbEntity
  8
MAIN0
  6
CONTINUOUS
 62
3
100
AcDbMText
 10
731.5206681895970
 20
493.8162979080331
 30
0.0000000000000000
 40
6.199999809265137
 41
0.0000000000000000
 71
     8
 72
     1
  1
{\U+2205100}
 11
0.8905758895094929
 21
0.4548346787838145
 31
0.0000000000000000
  7
STANDARD
  0
LINE
  5
2A2
100
AcDbEntity
  8
MAIN0
  6
CONTINUOUS
 62
3
100
AcDbLine
 10
766.0383926339659
 20
510.3223119189212
 30
0.0000000000000000
 11
789.7870830208858
 21
522.4512366864897
 31
0.0000000000000000
  0
LINE
  5
2A3
100
AcDbEntity
  8
MAIN0
  6
CONTINUOUS
 62
3
100
AcDbLine
 10
769.0548945557752
 20
513.2103417439338
 30
0.0000000000000000
 11
766.0383926339659
 21
510.3223119189212
 31
0.0000000000000000
  0
LINE
  5
2A4
100
AcDbEntity
  8
MAIN0
  6
CONTINUOUS
 62
3
100
AcDbLine
 10
766.0383926339659
 20
510.3223119189212
 30
0.0000000000000000
 11
770.1464978282327
 21
511.0729595241791
 31
0.0000000000000000
  0
LINE
  5
2A5
100
AcDbEntity
  8
MAIN0
  6
CONTINUOUS
 62
3
100
AcDbLine
 10
785.6789778266191
 20
521.7005890812318
 30
0.0000000000000000
 11
789.7870830208858
 21
522.4512366864897
 31
0.0000000000000000
  0
LINE
  5
2A6
100
AcDbEntity
  8
MAIN0
  6
CONTINUOUS
 62
3
100
AcDbLine
 10
789.7870830208858
 20
522.4512366864897
 30
0.0000000000000000
 11
786.7705810990766
 21
519.5632068614771
 31
0.0000000000000000
  0
MTEXT
  5
2A7
100
AcDbEntity
  8
MAIN0
  6
CONTINUOUS
 62
3
100
AcDbMText
 10
777.4579031486421
 20
517.2773501922148
 30
0.0000000000000000
 40
6.199999809265137
 41
0.0000000000000000
 71
     8
 72
     1
  1
{\H0.69x;{20}}
 11
0.8905758895094919
 21
0.4548346787838163
 31
0.0000000000000000
  7
STANDARD
  0
LINE
  5
2A8
100
AcDbEntity
  8
MAIN0
  6
CONTINUOUS
 62
3
100
AcDbLine
 10
789.7870830208859
 20
522.4512366864897
 30
0.0000000000000000
 11
813.5357734078058
 21
534.5801614540580
 31
0.0000000000000000
  0
LINE
  5
2A9
100
AcDbEntity
  8
MAIN0
  6
CONTINUOUS
 62
3
100
AcDbLine
 10
792.8035849426951
 20
525.3392665115023
 30
0.0000000000000000
 11
789.7870830208859
 21
522.4512366864897
 31
0.0000000000000000
  0
LINE
  5
2AA
100
AcDbEntity
  8
MAIN0
  6
CONTINUOUS
 62
3
100
AcDbLine
 10
789.7870830208859
 20
522.4512366864897
 30
0.0000000000000000
 11
793.8951882151526
 21
523.2018842917476
 31
0.0000000000000000
  0
LINE
  5
2AB
100
AcDbEntity
  8
MAIN0
  6
CONTINUOUS
 62
3
100
AcDbLine
 10
809.4276682135391
 20
533.8295138488002
 30
0.0000000000000000
 11
813.5357734078058
 21
534.5801614540580
 31
0.0000000000000000
  0
LINE
  5
2AC
100
AcDbEntity
  8
MAIN0
  6
CONTINUOUS
 62
3
100
AcDbLine
 10
813.5357734078058
 20
534.5801614540580
 30
0.0000000000000000
 11
810.5192714859966
 21
531.6921316290454
 31
0.0000000000000000
  0
MTEXT
  5
2AD
100
AcDbEntity
  8
MAIN0
  6
CONTINUOUS
 62
3
100
AcDbMText
 10
801.2065935355620
 20
529.4062749597833
 30
0.0000000000000000
 40
6.199999809265137
 41
0.0000000000000000
 71
     8
 72
     1
  1
{\H0.69x;{20}}
 11
0.8905758895094920
 21
0.4548346787838162
 31
0.0000000000000000
  7
STANDARD
  0
LINE
  5
2AE
100
AcDbEntity
  8
MAIN0
  6
CONTINUOUS
 62
3
100
AcDbLine
 10
813.5357734078059
 20
534.5801614540582
 30
0.0000000000000000
 11
837.2844637947258
 21
546.7090862216267
 31
0.0000000000000000
  0
LINE
  5
2AF
100
AcDbEntity
  8
MAIN0
  6
CONTINUOUS
 62
3
100
AcDbLine
 10
816.5522753296151
 20
537.4681912790708
 30
0.0000000000000000
 11
813.5357734078059
 21
534.5801614540582
 31
0.0000000000000000
  0
LINE
  5
2B0
100
AcDbEntity
  8
MAIN0
  6
CONTINUOUS
 62
3
100
AcDbLine
 10
813.5357734078059
 20
534.5801614540582
 30
0.0000000000000000
 11
817.6438786020726
 21
535.3308090593160
 31
0.0000000000000000
  0
LINE
  5
2B1
100
AcDbEntity
  8
MAIN0
  6
CONTINUOUS
 62
3
100
AcDbLine
 10
833.1763586004590
 20
545.9584386163688
 30
0.0000000000000000
 11
837.2844637947258
 21
546.7090862216267
 31
0.0000000000000000
  0
LINE
  5
2B2
100
AcDbEntity
  8
MAIN0
  6
CONTINUOUS
 62
3
100
AcDbLine
 10
837.2844637947258
 20
546.7090862216267
 30
0.0000000000000000
 11
834.2679618729165
 21
543.8210563966140
 31
0.0000000000000000
  0
MTEXT
  5
2B3
100
AcDbEntity
  8
MAIN0
  6
CONTINUOUS
 62
3
100
AcDbMText
 10
824.9552839224820
 20
541.5351997273519
 30
0.0000000000000000
 40
6.199999809265137
 41
0.0000000000000000
 71
     8
 72
     1
  1
{\H0.69x;{20}}
 11
0.8905758895094920
 21
0.4548346787838162
 31
0.0000000000000000
  7
STANDARD
  0
LINE
  5
2B4
100
AcDbEntity
  8
MAIN0
  6
CONTINUOUS
 62
3
100
AcDbLine
 10
837.2844637947255
 20
546.7090862216265
 30
0.0000000000000000
 11
861.0331541816454
 21
558.8380109891949
 31
0.0000000000000000
  0
LINE
  5
2B5
100
AcDbEntity
  8
MAIN0
  6
CONTINUOUS
 62
3
100
AcDbLine
 10
840.3009657165347
 20
549.5971160466391
 30
0.0000000000000000
 11
837.2844637947255
 21
546.7090862216265
 31
0.0000000000000000
  0
LINE
  5
2B6
100
AcDbEntity
  8
MAIN0
  6
CONTINUOUS
 62
3
100
AcDbLine
 10
837.2844637947255
 20
546.7090862216265
 30
0.0000000000000000
 11
841.3925689889923
 21
547.4597338268844
 31
0.0000000000000000
  0
LINE
  5
2B7
100
AcDbEntity
  8
MAIN0
  6
CONTINUOUS
 62
3
100
AcDbLine
 10
856.9250489873787
 20
558.0873633839370
 30
0.0000000000000000
 11
861.0331541816454
 21
558.8380109891949
 31
0.0000000000000000
  0
LINE
  5
2B8
100
AcDbEntity
  8
MAIN0
  6
CONTINUOUS
 62
3
100
AcDbLine
 10
861.0331541816454
 20
558.8380109891949
 30
0.0000000000000000
 11
858.0166522598362
 21
555.9499811641823
 31
0.0000000000000000
  0
MTEXT
  5
2B9
100
AcDbEntity
  8
MAIN0
  6
CONTINUOUS
 62
3
100
AcDbMText
 10
848.7039743094017
 20
553.6641244949202
 30
0.0000000000000000
 40
6.199999809265137
 41
0.0000000000000000
 71
     8
 72
     1
  1
{\H0.69x;{20}}
 11
0.8905758895094925
 21
0.4548346787838150
 31
0.0000000000000000
  7
STANDARD
  0
LINE
  5
2BA
100
AcDbEntity
  8
MAIN0
  6
CONTINUOUS
 62
3
100
AcDbLine
 10
861.0331541816454
 20
558.8380109891950
 30
0.0000000000000000
 11
884.7818445685651
 21
570.9669357567634
 31
0.0000000000000000
  0
LINE
  5
2BB
100
AcDbEntity
  8
MAIN0
  6
CONTINUOUS
 62
3
100
AcDbLine
 10
864.0496561034546
 20
561.7260408142076
 30
0.0000000000000000
 11
861.0331541816454
 21
558.8380109891950
 31
0.0000000000000000
  0
LINE
  5
2BC
100
AcDbEntity
  8
MAIN0
  6
CONTINUOUS
 62
3
100
AcDbLine
 10
861.0331541816454
 20
558.8380109891950
 30
0.0000000000000000
 11
865.1412593759121
 21
559.5886585944529
 31
0.0000000000000000
  0
LINE
  5
2BD
100
AcDbEntity
  8
MAIN0
  6
CONTINUOUS
 62
3
100
AcDbLine
 10
880.6737393742984
 20
570.2162881515055
 30
0.0000000000000000
 11
884.7818445685651
 21
570.9669357567634
 31
0.0000000000000000
  0
LINE
  5
2BE
100
AcDbEntity
  8
MAIN0
  6
CONTINUOUS
 62
3
100
AcDbLine
 10
884.7818445685651
 20
570.9669357567634
 30
0.0000000000000000
 11
881.7653426467559
 21
568.0789059317508
 31
0.0000000000000000
  0
MTEXT
  5
2BF
100
AcDbEntity
  8
MAIN0
  6
CONTINUOUS
 62
3
100
AcDbMText
 10
872.4526646963215
 20
565.7930492624887
 30
0.0000000000000000
 40
6.199999809265137
 41
0.0000000000000000
 71
     8
 72
     1
  1
{\H0.69x;{20}}
 11
0.8905758895094920
 21
0.4548346787838161
 31
0.0000000000000000
  7
STANDARD
  0
LINE
  5
2C0
100
AcDbEntity
  8
MAIN0
  6
CONTINUOUS
 62
3
100
AcDbLine
 10
853.3677535443950
 20
626.7010868794689
 30
0.0000000000000000
 11
860.5832719689898
 21
633.9166053040751
 31
0.0000000000000000
  0
ARC
  5
2C1
100
AcDbEntity
  8
MAIN0
  6
CONTINUOUS
 62
3
100
AcDbCircle
 10
706.6666666666666
 20
480.0000000015112
 30
0.0000000000000000
 40
215.6709506931423
100
AcDbArc
 50
45.00000000004479
 51
89.99999999999984
  0
LINE
  5
2C2
100
AcDbEntity
  8
MAIN0
  6
CONTINUOUS
 62
3
100
AcDbLine
 10
855.4921031107288
 20
634.4822906953029
 30
0.0000000000000000
 11
859.1690584066179
 21
632.5023917417010
 31
0.0000000000000000
  0
LINE
  5
2C3
100
AcDbEntity
  8
MAIN0
  6
CONTINUOUS
 62
3
100
AcDbLine
 10
859.1690584066179
 20
632.5023917417010
 30
0.0000000000000000
 11
857.1891594530101
 21
636.1793470375869
 31
0.0000000000000000
  0
LINE
  5
2C4
100
AcDbEntity
  8
MAIN0
  6
CONTINUOUS
 62
3
100
AcDbLine
 10
710.6666666666672
 20
694.4709506469699
 30
0.0000000000000000
 11
706.6666666666672
 21
695.6709506946536
 31
0.0000000000000000
  0
LINE
  5
2C5
100
AcDbEntity
  8
MAIN0
  6
CONTINUOUS
 62
3
100
AcDbLine
 10
706.6666666666672
 20
695.6709506946536
 30
0.0000000000000000
 11
710.6666666666672
 21
696.8709507423373
 31
0.0000000000000000
  0
MTEXT
  5
2C6
100
AcDbEntity
  8
MAIN0
  6
CONTINUOUS
 62
3
100
AcDbMText
 10
789.5830497716476
 20
680.1778566367000
 30
0.0000000000000000
 40
6.199999809265137
 41
0.0000000000000000
 71
     8
 72
     1
  1
{\H0.57x;{45\U+00B0}}
 11
0.9238795325114357
 21
-0.3826834323647302
 31
0.0000000000000000
  7
STANDARD
  0
ARC
  5
2C7
100
AcDbEntity
  8
MAIN0
  6
CONTINUOUS
 62
3
100
AcDbCircle
 10
706.6666666666666
 20
480.0000000000001
 30
0.0000000000000000
 40
215.6709506946535
100
AcDbArc
 50
89.99999999999984
 51
164.9999999999166
  0
LINE
  5
2C8
100
AcDbEntity
  8
MAIN0
  6
CONTINUOUS
 62
3
100
AcDbLine
 10
702.6666666666672
 20
694.4709506469699
 30
0.0000000000000000
 11
706.6666666666672
 21
695.6709506946536
 31
0.0000000000000000
  0
LINE
  5
2C9
100
AcDbEntity
  8
MAIN0
  6
CONTINUOUS
 62
3
100
AcDbLine
 10
706.6666666666672
 20
695.6709506946536
 30
0.0000000000000000
 11
702.6666666666672
 21
696.8709507423373
 31
0.0000000000000000
  0
LINE
  5
2CA
100
AcDbEntity
  8
MAIN0
  6
CONTINUOUS
 62
3
100
AcDbLine
 10
500.5389126284868
 20
539.3728699541350
 30
0.0000000000000000
 11
498.3445254104657
 21
535.8197495154465
 31
0.0000000000000000
  0
LINE
  5
2CB
100
AcDbEntity
  8
MAIN0
  6
CONTINUOUS
 62
3
100
AcDbLine
 10
498.3445254104657
 20
535.8197495154465
 30
0.0000000000000000
 11
498.2206905532761
 21
539.9940356870674
 31
0.0000000000000000
  0
MTEXT
  5
2CC
100
AcDbEntity
  8
MAIN0
  6
CONTINUOUS
 62
3
100
AcDbMText
 10
586.6553462326925
 20
660.3984031044038
 30
0.0000000000000000
 40
6.199999809265137
 41
0.0000000000000000
 71
     8
 72
     1
  1
{\H0.57x;{75\U+00B0}}
 11
0.8325915519641242
 21
0.5538874502983175
 31
0.0000000000000000
  7
STANDARD
  0
LINE
  5
2CD
100
AcDbEntity
  8
MAIN0
  6
CONTINUOUS
 62
3
100
AcDbLine
 10
602.4432699986022
 20
507.9265749697991
 30
0.0000000000000000
 11
496.4126737578885
 21
536.3373876056543
 31
0.0000000000000000
  0
POINT
  5
2CE
100
AcDbEntity
  8
MAIN0
  6
CONTINUOUS
 62
3
100
AcDbPoint
 10
611.1139885289048
 20
503.3333333330784
 30
0.0000000000000000
  0
POINT
  5
2CF
100
AcDbEntity
  8
MAIN0
  6
CONTINUOUS
 62
3
100
AcDbPoint
 10
523.5526781377286
 20
503.3333333330450
 30
0.0000000000000000
  0
POINT
  5
2D0
100
AcDbEntity
  8
MAIN0
  6
CONTINUOUS
 62
3
100
AcDbPoint
 10
624.0000000000000
 20
480.0000000000004
 30
0.0000000000000000
  0
LINE
  5
2D1
100
AcDbEntity
  8
MAIN0
  6
CONTINUOUS
 62
3
100
AcDbLine
 10
683.3333333330738
 20
557.6104336007949
 30
0.0000000000000000
 11
683.3333333330457
 21
661.0562330628569
 31
0.0000000000000000
  0
LINE
  5
2D2
100
AcDbEntity
  8
MAIN0
  6
CONTINUOUS
 62
3
100
AcDbLine
 10
697.3333333328695
 20
542.2771002676659
 30
0.0000000000000000
 11
684.2761423746561
 21
555.3342912258795
 31
0.0000000000000000
  0
LINE
  5
2D3
100
AcDbEntity
  8
MAIN0
  6
CONTINUOUS
 62
3
100
AcDbLine
 10
697.3333333333339
 20
676.3895663964787
 30
0.0000000000000000
 11
684.2761423746274
 21
663.3323754377723
 31
0.0000000000000000
  0
ARC
  5
2D4
100
AcDbEntity
  8
MAIN0
  6
CONTINUOUS
 62
3
100
AcDbCircle
 10
706.6666666666683
 20
787.9999999987583
 30
0.0000000000000000
 40
112.0000000000000
100
AcDbArc
 50
265.2198081528003
 51
274.7801918471986
  0
ARC
  5
2D5
100
AcDbEntity
  8
MAIN0
  6
CONTINUOUS
 62
3
100
AcDbCircle
 10
706.6666666666681
 20
766.6666666654249
 30
0.0000000000000000
 40
112.0000000000000
100
AcDbArc
 50
257.9753008192839
 51
282.0246991807155
  0
ARC
  5
2D6
100
AcDbEntity
  8
MAIN0
  6
CONTINUOUS
 62
3
100
AcDbCircle
 10
706.6666666666680
 20
738.6666666654249
 30
0.0000000000000000
 40
112.0000000000000
100
AcDbArc
 50
257.9753008192881
 51
282.0246991807115
  0
ARC
  5
2D7
100
AcDbEntity
  8
MAIN0
  6
CONTINUOUS
 62
3
100
AcDbCircle
 10
706.6666666666680
 20
734.6666666654249
 30
0.0000000000000000
 40
112.0000000000000
100
AcDbArc
 50
257.9753008192888
 51
282.0246991807109
  0
ARC
  5
2D8
100
AcDbEntity
  8
MAIN0
  6
CONTINUOUS
 62
3
100
AcDbCircle
 10
706.6666666666679
 20
721.3333542842966
 30
0.0000000000000000
 40
112.0000000000000
100
AcDbArc
 50
257.9753008192907
 51
282.0246991807090
  0
ARC
  5
2D9
100
AcDbEntity
  8
MAIN0
  6
CONTINUOUS
 62
3
100
AcDbCircle
 10
706.6666666666678
 20
695.9999999987583
 30
0.0000000000000000
 40
112.0000000000000
100
AcDbArc
 50
257.9753008192951
 51
282.0246991807054
  0
ARC
  5
2DA
100
AcDbEntity
  8
MAIN0
  6
CONTINUOUS
 62
3
100
AcDbCircle
 10
706.6666666666679
 20
691.9999999975165
 30
0.0000000000000000
 40
112.0000000000000
100
AcDbArc
 50
257.9753008192956
 51
282.0246991807048
  0
ARC
  5
2DB
100
AcDbEntity
  8
MAIN0
  6
CONTINUOUS
 62
3
100
AcDbCircle
 10
706.6666666666663
 20
430.6666666654250
 30
0.0000000000000000
 40
112.0000000000000
100
AcDbArc
 50
85.21980815256235
 51
94.78019184743698
  0
LINE
  5
2DC
100
AcDbEntity
  8
MAIN0
  6
CONTINUOUS
 62
3
100
AcDbLine
 10
684.2761423746274
 20
663.3323754377723
 30
0.0000000000000000
 11
683.3333333330457
 21
661.0562330628568
 31
0.0000000000000000
  0
LINE
  5
2DD
100
AcDbEntity
  8
MAIN0
  6
CONTINUOUS
 62
3
100
AcDbLine
 10
684.2761423746564
 20
555.3342912258795
 30
0.0000000000000000
 11
683.3333333330739
 21
557.6104336007950
 31
0.0000000000000000
  0
LINE
  5
2DE
100
AcDbEntity
  8
MAIN0
  6
CONTINUOUS
 62
3
100
AcDbLine
 10
629.0562330658718
 20
456.6666666664074
 30
0.0000000000000000
 11
525.6104336038097
 21
456.6666666663794
 31
0.0000000000000000
  0
LINE
  5
2DF
100
AcDbEntity
  8
MAIN0
  6
CONTINUOUS
 62
3
100
AcDbLine
 10
644.3895663990006
 20
470.6666666662032
 30
0.0000000000000000
 11
631.3323754407871
 21
457.6094757079898
 31
0.0000000000000000
  0
LINE
  5
2E0
100
AcDbEntity
  8
MAIN0
  6
CONTINUOUS
 62
3
100
AcDbLine
 10
510.2771002701879
 20
470.6666666666678
 30
0.0000000000000000
 11
523.3342912288942
 21
457.6094757079611
 31
0.0000000000000000
  0
LINE
  5
2E1
100
AcDbEntity
  8
MAIN0
  6
CONTINUOUS
 62
3
100
AcDbLine
 10
523.3342912288944
 20
457.6094757079611
 30
0.0000000000000000
 11
525.6104336038097
 21
456.6666666663793
 31
0.0000000000000000
  0
LINE
  5
2E2
100
AcDbEntity
  8
MAIN0
  6
CONTINUOUS
 62
3
100
AcDbLine
 10
631.3323754407873
 20
457.6094757079899
 30
0.0000000000000000
 11
629.0562330658719
 21
456.6666666664074
 31
0.0000000000000000
  0
LINE
  5
2E3
100
AcDbEntity
  8
MAIN0
  6
CONTINUOUS
 62
3
100
AcDbLine
 10
629.0562330658719
 20
503.3333333335934
 30
0.0000000000000000
 11
525.6104336038098
 21
503.3333333336220
 31
0.0000000000000000
  0
LINE
  5
2E4
100
AcDbEntity
  8
MAIN0
  6
CONTINUOUS
 62
3
100
AcDbLine
 10
644.3895663990007
 20
489.3333333337976
 30
0.0000000000000000
 11
631.3323754407873
 21
502.3905242920112
 31
0.0000000000000000
  0
LINE
  5
2E5
100
AcDbEntity
  8
MAIN0
  6
CONTINUOUS
 62
3
100
AcDbLine
 10
510.2771002701879
 20
489.3333333333339
 30
0.0000000000000000
 11
523.3342912288945
 21
502.3905242920404
 31
0.0000000000000000
  0
LINE
  5
2E6
100
AcDbEntity
  8
MAIN0
  6
CONTINUOUS
 62
3
100
AcDbLine
 10
523.3342912288945
 20
502.3905242920404
 30
0.0000000000000000
 11
525.6104336038098
 21
503.3333333336221
 31
0.0000000000000000
  0
LINE
  5
2E7
100
AcDbEntity
  8
MAIN0
  6
CONTINUOUS
 62
3
100
AcDbLine
 10
631.3323754407873
 20
502.3905242920110
 30
0.0000000000000000
 11
629.0562330658719
 21
503.3333333335934
 31
0.0000000000000000
  0
ARC
  5
2E8
100
AcDbEntity
  8
MAIN0
  6
CONTINUOUS
 62
3
100
AcDbCircle
 10
756.0000000012417
 20
479.9999999999998
 30
0.0000000000000000
 40
112.0000000000000
100
AcDbArc
 50
175.2198081525627
 51
184.7801918474370
  0
ARC
  5
2E9
100
AcDbEntity
  8
MAIN0
  6
CONTINUOUS
 62
3
100
AcDbCircle
 10
494.6666666691501
 20
480.0000000000002
 30
0.0000000000000000
 40
112.0000000000000
100
AcDbArc
 50
347.9753008192956
 51
372.0246991807041
  0
ARC
  5
2EA
100
AcDbEntity
  8
MAIN0
  6
CONTINUOUS
 62
3
100
AcDbCircle
 10
490.6666666679084
 20
480.0000000000014
 30
0.0000000000000000
 40
112.0000000000000
100
AcDbArc
 50
347.9753008192951
 51
372.0246991807046
  0
ARC
  5
2EB
100
AcDbEntity
  8
MAIN0
  6
CONTINUOUS
 62
3
100
AcDbCircle
 10
465.3333123823702
 20
480.0000000000015
 30
0.0000000000000000
 40
112.0000000000000
100
AcDbArc
 50
347.9753008192907
 51
372.0246991807090
  0
ARC
  5
2EC
100
AcDbEntity
  8
MAIN0
  6
CONTINUOUS
 62
3
100
AcDbCircle
 10
448.0000000012417
 20
480.0000000000003
 30
0.0000000000000000
 40
112.0000000000000
100
AcDbArc
 50
347.9753008192882
 51
372.0246991807115
  0
ARC
  5
2ED
100
AcDbEntity
  8
MAIN0
  6
CONTINUOUS
 62
3
100
AcDbCircle
 10
452.0000000012417
 20
480.0000000000016
 30
0.0000000000000000
 40
112.0000000000000
100
AcDbArc
 50
347.9753008192888
 51
372.0246991807109
  0
ARC
  5
2EE
100
AcDbEntity
  8
MAIN0
  6
CONTINUOUS
 62
3
100
AcDbCircle
 10
420.0000000012417
 20
480.0000000000003
 30
0.0000000000000000
 40
112.0000000000000
100
AcDbArc
 50
347.9753008192839
 51
372.0246991807159
  0
ARC
  5
2EF
100
AcDbEntity
  8
MAIN0
  6
CONTINUOUS
 62
3
100
AcDbCircle
 10
398.6666666679084
 20
480.0000000000019
 30
0.0000000000000000
 40
112.0000000000000
100
AcDbArc
 50
355.2198081528004
 51
364.7801918471993
  0
LINE
  5
2F0
100
AcDbEntity
  8
MAIN0
  6
CONTINUOUS
 62
3
100
AcDbLine
 10
683.3333333330733
 20
402.3895663992055
 30
0.0000000000000000
 11
683.3333333330446
 21
298.9437669371434
 31
0.0000000000000000
  0
LINE
  5
2F1
100
AcDbEntity
  8
MAIN0
  6
CONTINUOUS
 62
3
100
AcDbLine
 10
697.3333333328690
 20
417.7228997323344
 30
0.0000000000000000
 11
684.2761423746555
 21
404.6657087741208
 31
0.0000000000000000
  0
LINE
  5
2F2
100
AcDbEntity
  8
MAIN0
  6
CONTINUOUS
 62
3
100
AcDbLine
 10
697.3333333333328
 20
283.6104336035216
 30
0.0000000000000000
 11
684.2761423746263
 21
296.6676245622281
 31
0.0000000000000000
  0
LINE
  5
2F3
100
AcDbEntity
  8
MAIN0
  6
CONTINUOUS
 62
3
100
AcDbLine
 10
684.2761423746262
 20
296.6676245622281
 30
0.0000000000000000
 11
683.3333333330445
 21
298.9437669371436
 31
0.0000000000000000
  0
LINE
  5
2F4
100
AcDbEntity
  8
MAIN0
  6
CONTINUOUS
 62
3
100
AcDbLine
 10
684.2761423746558
 20
404.6657087741208
 30
0.0000000000000000
 11
683.3333333330734
 21
402.3895663992054
 31
0.0000000000000000
  0
ARC
  5
2F5
100
AcDbEntity
  8
MAIN0
  6
CONTINUOUS
 62
3
100
AcDbCircle
 10
706.6666666666667
 20
529.3333333345753
 30
0.0000000000000000
 40
112.0000000000000
100
AcDbArc
 50
265.2198081525626
 51
274.7801918474373
  0
ARC
  5
2F6
100
AcDbEntity
  8
MAIN0
  6
CONTINUOUS
 62
3
100
AcDbCircle
 10
706.6666666666665
 20
268.0000000024837
 30
0.0000000000000000
 40
112.0000000000000
100
AcDbArc
 50
77.97530081929467
 51
102.0246991807041
  0
ARC
  5
2F7
100
AcDbEntity
  8
MAIN0
  6
CONTINUOUS
 62
3
100
AcDbCircle
 10
706.6666666666653
 20
264.0000000012420
 30
0.0000000000000000
 40
112.0000000000000
100
AcDbArc
 50
77.97530081929351
 51
102.0246991807046
  0
ARC
  5
2F8
100
AcDbEntity
  8
MAIN0
  6
CONTINUOUS
 62
3
100
AcDbCircle
 10
706.6666666666652
 20
238.6666457157038
 30
0.0000000000000000
 40
112.0000000000000
100
AcDbArc
 50
77.97530081928979
 51
102.0246991807090
  0
ARC
  5
2F9
100
AcDbEntity
  8
MAIN0
  6
CONTINUOUS
 62
3
100
AcDbCircle
 10
706.6666666666663
 20
221.3333333345753
 30
0.0000000000000000
 40
112.0000000000000
100
AcDbArc
 50
77.97530081928797
 51
102.0246991807115
  0
ARC
  5
2FA
100
AcDbEntity
  8
MAIN0
  6
CONTINUOUS
 62
3
100
AcDbCircle
 10
706.6666666666650
 20
225.3333333345753
 30
0.0000000000000000
 40
112.0000000000000
100
AcDbArc
 50
77.97530081928791
 51
102.0246991807109
  0
ARC
  5
2FB
100
AcDbEntity
  8
MAIN0
  6
CONTINUOUS
 62
3
100
AcDbCircle
 10
706.6666666666663
 20
193.3333333345753
 30
0.0000000000000000
 40
112.0000000000000
100
AcDbArc
 50
77.97530081928399
 51
102.0246991807158
  0
ARC
  5
2FC
100
AcDbEntity
  8
MAIN0
  6
CONTINUOUS
 62
3
100
AcDbCircle
 10
706.6666666666647
 20
172.0000000012420
 30
0.0000000000000000
 40
112.0000000000000
100
AcDbArc
 50
85.21980815280011
 51
94.78019184719933
  0
LINE
  5
2FD
100
AcDbEntity
  8
MAIN0
  6
HIDDEN
 62
3
100
AcDbLine
 10
321.6360027968448
 20
677.3333333333474
 30
0.0000000000000000
 11
288.4626694635113
 21
677.3333333333148
 31
0.0000000000000000
  0
POINT
  5
2FE
100
AcDbEntity
  8
MAIN0
  6
CONTINUOUS
 62
3
100
AcDbPoint
 10
317.3960027968446
 20
677.3333333333433
 30
0.0000000000000000
  0
POINT
  5
2FF
100
AcDbEntity
  8
MAIN0
  6
CONTINUOUS
 62
3
100
AcDbPoint
 10
292.7293361301780
 20
677.3333333333193
 30
0.0000000000000000
  0
LINE
  5
300
100
AcDbEntity
  8
MAIN0
  6
CONTINUOUS
 62
3
100
AcDbLine
 10
386.3960030585679
 20
584.0000000002640
 30
0.0000000000000000
 11
386.3960030585679
 21
609.3333333337159
 31
0.0000000000000000
  0
LINE
  5
301
100
AcDbEntity
  8
MAIN0
  6
CONTINUOUS
 62
3
100
AcDbLine
 10
365.0626697252346
 20
625.3333333347661
 30
0.0000000000000000
 11
365.0626697252346
 21
654.6666666667561
 31
0.0000000000000000
  0
LINE
  5
302
100
AcDbEntity
  8
MAIN0
  6
CONTINUOUS
 62
3
100
AcDbLine
 10
365.0626697252347
 20
654.6666666667560
 30
0.0000000000000000
 11
364.3960030585680
 21
655.3333333334197
 31
0.0000000000000000
  0
LINE
  5
303
100
AcDbEntity
  8
MAIN0
  6
CONTINUOUS
 62
3
100
AcDbLine
 10
385.7293363919013
 20
610.0000000003826
 30
0.0000000000000000
 11
385.7293363919013
 21
621.3333333337159
 31
0.0000000000000000
  0
LINE
  5
304
100
AcDbEntity
  8
MAIN0
  6
CONTINUOUS
 62
3
100
AcDbLine
 10
386.3960030585678
 20
609.3333333337158
 30
0.0000000000000000
 11
385.7293363919011
 21
610.0000000003824
 31
0.0000000000000000
  0
LINE
  5
305
100
AcDbEntity
  8
MAIN0
  6
CONTINUOUS
 62
3
100
AcDbLine
 10
385.7293363919013
 20
621.3333333337159
 30
0.0000000000000000
 11
384.3960030585679
 21
622.6666666670492
 31
0.0000000000000000
  0
LINE
  5
306
100
AcDbEntity
  8
MAIN0
  6
CONTINUOUS
 62
3
100
AcDbLine
 10
407.7293363919013
 20
578.6666666670492
 30
0.0000000000000000
 11
406.3960030585680
 21
580.0000000003826
 31
0.0000000000000000
  0
LINE
  5
307
100
AcDbEntity
  8
MAIN0
  6
CONTINUOUS
 62
3
100
AcDbLine
 10
384.4492270611533
 20
579.8251254011286
 30
0.0000000000000000
 11
386.3960030585685
 21
584.0000000002652
 31
0.0000000000000000
  0
LINE
  5
308
100
AcDbEntity
  8
MAIN0
  6
CONTINUOUS
 62
3
100
AcDbLine
 10
386.2211284595236
 20
578.0532240027584
 30
0.0000000000000000
 11
390.3960030591128
 21
580.0000000003822
 31
0.0000000000000000
  0
ARC
  5
309
100
AcDbEntity
  8
MAIN0
  6
CONTINUOUS
 62
3
100
AcDbCircle
 10
385.6576374438690
 20
579.2616343854738
 30
0.0000000000000000
 40
1.333333333333333
100
AcDbArc
 50
154.9999999999887
 51
294.9999999999851
  0
LINE
  5
30A
100
AcDbEntity
  8
MAIN0
  6
CONTINUOUS
 62
3
100
AcDbLine
 10
363.1158937278193
 20
622.4917920677958
 30
0.0000000000000000
 11
365.0626697252345
 21
626.6666666669325
 31
0.0000000000000000
  0
LINE
  5
30B
100
AcDbEntity
  8
MAIN0
  6
CONTINUOUS
 62
3
100
AcDbLine
 10
364.8877951261896
 20
620.7198906694255
 30
0.0000000000000000
 11
369.0626697257787
 21
622.6666666670494
 31
0.0000000000000000
  0
ARC
  5
30C
100
AcDbEntity
  8
MAIN0
  6
CONTINUOUS
 62
3
100
AcDbCircle
 10
364.3243041105349
 20
621.9283010521409
 30
0.0000000000000000
 40
1.333333333333333
100
AcDbArc
 50
154.9999999999887
 51
294.9999999999980
  0
LINE
  5
30D
100
AcDbEntity
  8
MAIN0
  6
CENTER
 62
3
100
AcDbLine
 10
394.3960030585680
 20
574.6643178163739
 30
0.0000000000000000
 11
394.3960030585680
 21
583.7683107410817
 31
0.0000000000000000
  0
LINE
  5
30E
100
AcDbEntity
  8
MAIN0
  6
CONTINUOUS
 62
3
100
AcDbLine
 10
395.3960030586032
 20
580.0000000005596
 30
0.0000000000000000
 11
394.3960030585839
 21
578.2679491929549
 31
0.0000000000000000
  0
LINE
  5
30F
100
AcDbEntity
  8
MAIN0
  6
CONTINUOUS
 62
3
100
AcDbLine
 10
394.3960030585680
 20
578.2679491929811
 30
0.0000000000000000
 11
393.3960030585641
 21
580.0000000005590
 31
0.0000000000000000
  0
LINE
  5
310
100
AcDbEntity
  8
MAIN0
  6
CONTINUOUS
 62
3
100
AcDbLine
 10
401.0626697252343
 20
578.2679491930531
 30
0.0000000000000000
 11
400.0626697252304
 21
580.0000000006311
 31
0.0000000000000000
  0
LINE
  5
311
100
AcDbEntity
  8
MAIN0
  6
CONTINUOUS
 62
3
100
AcDbLine
 10
402.0626697252694
 20
580.0000000006318
 30
0.0000000000000000
 11
401.0626697252502
 21
578.2679491930271
 31
0.0000000000000000
  0
LINE
  5
312
100
AcDbEntity
  8
MAIN0
  6
CENTER
 62
3
100
AcDbLine
 10
401.0626697252346
 20
574.6643178163739
 30
0.0000000000000000
 11
401.0626697252346
 21
583.7683107410817
 31
0.0000000000000000
  0
LINE
  5
313
100
AcDbEntity
  8
MAIN0
  6
CONTINUOUS
 62
3
100
AcDbLine
 10
406.3960030585681
 20
580.0000000003826
 30
0.0000000000000000
 11
402.0626697251257
 21
580.0000000003826
 31
0.0000000000000000
  0
LINE
  5
314
100
AcDbEntity
  8
MAIN0
  6
CONTINUOUS
 62
3
100
AcDbLine
 10
393.3960030586659
 20
580.0000000003826
 30
0.0000000000000000
 11
390.3960030591135
 21
580.0000000003826
 31
0.0000000000000000
  0
LINE
  5
315
100
AcDbEntity
  8
MAIN0
  6
CONTINUOUS
 62
3
100
AcDbLine
 10
400.0626697253738
 20
580.0000000003826
 30
0.0000000000000000
 11
395.3960030585010
 21
580.0000000003826
 31
0.0000000000000000
  0
LINE
  5
316
100
AcDbEntity
  8
MAIN0
  6
CONTINUOUS
 62
3
100
AcDbLine
 10
369.0626697257783
 20
622.6666666670492
 30
0.0000000000000000
 11
371.3960030586658
 21
622.6666666670492
 31
0.0000000000000000
  0
LINE
  5
317
100
AcDbEntity
  8
MAIN0
  6
CONTINUOUS
 62
3
100
AcDbLine
 10
363.0626697252346
 20
676.0000000000473
 30
0.0000000000000000
 11
364.3960030585679
 21
674.6666666667205
 31
0.0000000000000000
  0
LINE
  5
318
100
AcDbEntity
  8
MAIN0
  6
CONTINUOUS
 62
3
100
AcDbLine
 10
364.3960030585679
 20
674.6666666667204
 30
0.0000000000000000
 11
364.3960030585679
 21
652.6666666667529
 31
0.0000000000000000
  0
LINE
  5
319
100
AcDbEntity
  8
MAIN0
  6
CONTINUOUS
 62
3
100
AcDbLine
 10
407.7293363919013
 20
544.0000000003826
 30
0.0000000000000000
 11
407.7293363919013
 21
578.6666666670493
 31
0.0000000000000000
  0
LINE
  5
31A
100
AcDbEntity
  8
MAIN0
  6
CONTINUOUS
 62
3
100
AcDbLine
 10
407.7293363919012
 20
544.0000000003826
 30
0.0000000000000000
 11
406.3960030585679
 21
542.6666666670492
 31
0.0000000000000000
  0
LINE
  5
31B
100
AcDbEntity
  8
MAIN0
  6
CONTINUOUS
 62
3
100
AcDbLine
 10
400.7293363919013
 20
542.6666666670492
 30
0.0000000000000000
 11
399.7293363919013
 21
544.3987174746180
 31
0.0000000000000000
  0
LINE
  5
31C
100
AcDbEntity
  8
MAIN0
  6
CONTINUOUS
 62
3
100
AcDbLine
 10
399.7293363919013
 20
544.3987174746181
 30
0.0000000000000000
 11
398.7293363919013
 21
542.6666666670492
 31
0.0000000000000000
  0
LINE
  5
31D
100
AcDbEntity
  8
MAIN0
  6
CENTER
 62
3
100
AcDbLine
 10
399.7293363919013
 20
546.2270230418321
 30
0.0000000000000000
 11
399.7293363919013
 21
540.3182268322023
 31
0.0000000000000000
  0
LINE
  5
31E
100
AcDbEntity
  8
MAIN0
  6
CONTINUOUS
 62
3
100
AcDbLine
 10
394.0626697252347
 20
542.6666666670492
 30
0.0000000000000000
 11
393.0626697252347
 21
544.3987174746181
 31
0.0000000000000000
  0
LINE
  5
31F
100
AcDbEntity
  8
MAIN0
  6
CONTINUOUS
 62
3
100
AcDbLine
 10
393.0626697252346
 20
544.3987174746180
 30
0.0000000000000000
 11
392.0626697252346
 21
542.6666666670492
 31
0.0000000000000000
  0
LINE
  5
320
100
AcDbEntity
  8
MAIN0
  6
CONTINUOUS
 62
3
100
AcDbLine
 10
387.3960030585679
 20
542.6666666670492
 30
0.0000000000000000
 11
386.3960030585679
 21
544.3987174746180
 31
0.0000000000000000
  0
LINE
  5
321
100
AcDbEntity
  8
MAIN0
  6
CONTINUOUS
 62
3
100
AcDbLine
 10
386.3960030585680
 20
544.3987174746180
 30
0.0000000000000000
 11
385.3960030585680
 21
542.6666666670492
 31
0.0000000000000000
  0
LINE
  5
322
100
AcDbEntity
  8
MAIN0
  6
CENTER
 62
3
100
AcDbLine
 10
393.0626697252346
 20
546.2270230418320
 30
0.0000000000000000
 11
393.0626697252346
 21
540.3182268322022
 31
0.0000000000000000
  0
LINE
  5
323
100
AcDbEntity
  8
MAIN0
  6
CENTER
 62
3
100
AcDbLine
 10
386.3960030585679
 20
546.2270230418320
 30
0.0000000000000000
 11
386.3960030585679
 21
540.3182268322022
 31
0.0000000000000000
  0
LINE
  5
324
100
AcDbEntity
  8
MAIN0
  6
CONTINUOUS
 62
3
100
AcDbLine
 10
380.7293363919014
 20
542.6666666670304
 30
0.0000000000000000
 11
379.7293363919014
 21
544.3987174745993
 31
0.0000000000000000
  0
LINE
  5
325
100
AcDbEntity
  8
MAIN0
  6
CONTINUOUS
 62
3
100
AcDbLine
 10
379.7293363919013
 20
544.3987174745993
 30
0.0000000000000000
 11
378.7293363919013
 21
542.6666666670304
 31
0.0000000000000000
  0
LINE
  5
326
100
AcDbEntity
  8
MAIN0
  6
CONTINUOUS
 62
3
100
AcDbLine
 10
374.0626697252346
 20
542.6666666670304
 30
0.0000000000000000
 11
373.0626697252346
 21
544.3987174745993
 31
0.0000000000000000
  0
LINE
  5
327
100
AcDbEntity
  8
MAIN0
  6
CONTINUOUS
 62
3
100
AcDbLine
 10
373.0626697252346
 20
544.3987174745993
 30
0.0000000000000000
 11
372.0626697252346
 21
542.6666666670304
 31
0.0000000000000000
  0
LINE
  5
328
100
AcDbEntity
  8
MAIN0
  6
CENTER
 62
3
100
AcDbLine
 10
379.7293363919013
 20
546.2270230418133
 30
0.0000000000000000
 11
379.7293363919013
 21
540.3182268321834
 31
0.0000000000000000
  0
LINE
  5
329
100
AcDbEntity
  8
MAIN0
  6
CENTER
 62
3
100
AcDbLine
 10
373.0626697252346
 20
546.2270230418133
 30
0.0000000000000000
 11
373.0626697252346
 21
540.3182268321834
 31
0.0000000000000000
  0
LINE
  5
32A
100
AcDbEntity
  8
MAIN0
  6
CONTINUOUS
 62
3
100
AcDbLine
 10
367.3960030585681
 20
542.6666666670304
 30
0.0000000000000000
 11
366.3960030585681
 21
544.3987174745993
 31
0.0000000000000000
  0
LINE
  5
32B
100
AcDbEntity
  8
MAIN0
  6
CONTINUOUS
 62
3
100
AcDbLine
 10
366.3960030585680
 20
544.3987174745993
 30
0.0000000000000000
 11
365.3960030585680
 21
542.6666666670304
 31
0.0000000000000000
  0
LINE
  5
32C
100
AcDbEntity
  8
MAIN0
  6
CONTINUOUS
 62
3
100
AcDbLine
 10
360.7293363919013
 20
542.6666666670303
 30
0.0000000000000000
 11
359.7293363919013
 21
544.3987174745993
 31
0.0000000000000000
  0
LINE
  5
32D
100
AcDbEntity
  8
MAIN0
  6
CONTINUOUS
 62
3
100
AcDbLine
 10
359.7293363919013
 20
544.3987174745993
 30
0.0000000000000000
 11
358.7293363919013
 21
542.6666666670304
 31
0.0000000000000000
  0
LINE
  5
32E
100
AcDbEntity
  8
MAIN0
  6
CENTER
 62
3
100
AcDbLine
 10
366.3960030585679
 20
546.2270230418133
 30
0.0000000000000000
 11
366.3960030585679
 21
540.3182268321834
 31
0.0000000000000000
  0
LINE
  5
32F
100
AcDbEntity
  8
MAIN0
  6
CENTER
 62
3
100
AcDbLine
 10
359.7293363919013
 20
546.2270230418131
 30
0.0000000000000000
 11
359.7293363919013
 21
540.3182268321834
 31
0.0000000000000000
  0
LINE
  5
330
100
AcDbEntity
  8
MAIN0
  6
CENTER
 62
3
100
AcDbLine
 10
372.3960030585679
 20
617.3309844830405
 30
0.0000000000000000
 11
372.3960030585679
 21
626.4349774077484
 31
0.0000000000000000
  0
LINE
  5
331
100
AcDbEntity
  8
MAIN0
  6
CONTINUOUS
 62
3
100
AcDbLine
 10
373.3960030586031
 20
622.6666666672263
 30
0.0000000000000000
 11
372.3960030585839
 21
620.9346158596217
 31
0.0000000000000000
  0
LINE
  5
332
100
AcDbEntity
  8
MAIN0
  6
CONTINUOUS
 62
3
100
AcDbLine
 10
372.3960030585678
 20
620.9346158596476
 30
0.0000000000000000
 11
371.3960030585639
 21
622.6666666672254
 31
0.0000000000000000
  0
LINE
  5
333
100
AcDbEntity
  8
MAIN0
  6
CONTINUOUS
 62
3
100
AcDbLine
 10
379.0626697252342
 20
620.9346158597198
 30
0.0000000000000000
 11
378.0626697252304
 21
622.6666666672977
 31
0.0000000000000000
  0
LINE
  5
334
100
AcDbEntity
  8
MAIN0
  6
CONTINUOUS
 62
3
100
AcDbLine
 10
380.0626697252694
 20
622.6666666672984
 30
0.0000000000000000
 11
379.0626697252502
 21
620.9346158596937
 31
0.0000000000000000
  0
LINE
  5
335
100
AcDbEntity
  8
MAIN0
  6
CENTER
 62
3
100
AcDbLine
 10
379.0626697252345
 20
617.3309844830405
 30
0.0000000000000000
 11
379.0626697252345
 21
626.4349774077484
 31
0.0000000000000000
  0
LINE
  5
336
100
AcDbEntity
  8
MAIN0
  6
CONTINUOUS
 62
3
100
AcDbLine
 10
380.0626697252695
 20
622.6666666670492
 30
0.0000000000000000
 11
384.3960030585679
 21
622.6666666670492
 31
0.0000000000000000
  0
LINE
  5
337
100
AcDbEntity
  8
MAIN0
  6
CONTINUOUS
 62
3
100
AcDbLine
 10
373.3960030586032
 20
622.6666666670492
 30
0.0000000000000000
 11
378.0626697252303
 21
622.6666666670492
 31
0.0000000000000000
  0
LINE
  5
338
100
AcDbEntity
  8
MAIN0
  6
CONTINUOUS
 62
3
100
AcDbLine
 10
357.3960030585679
 20
676.0000000000335
 30
0.0000000000000000
 11
356.3960030585763
 21
674.2679491924596
 31
0.0000000000000000
  0
LINE
  5
339
100
AcDbEntity
  8
MAIN0
  6
CONTINUOUS
 62
3
100
AcDbLine
 10
356.3960030585765
 20
674.2679491924596
 30
0.0000000000000000
 11
355.3960030585680
 21
676.0000000000237
 31
0.0000000000000000
  0
LINE
  5
33A
100
AcDbEntity
  8
MAIN0
  6
CENTER
 62
3
100
AcDbLine
 10
356.3960030585680
 20
678.0976356395127
 30
0.0000000000000000
 11
356.3960030585680
 21
672.1888394298827
 31
0.0000000000000000
  0
LINE
  5
33B
100
AcDbEntity
  8
MAIN0
  6
CONTINUOUS
 62
3
100
AcDbLine
 10
357.3960030585662
 20
676.0000000000302
 30
0.0000000000000000
 11
363.0626697252380
 21
676.0000000000441
 31
0.0000000000000000
  0
LINE
  5
33C
100
AcDbEntity
  8
MAIN0
  6
CONTINUOUS
 62
3
100
AcDbLine
 10
354.3960027968576
 20
676.0000000000230
 30
0.0000000000000000
 11
355.3960030585668
 21
676.0000000000255
 31
0.0000000000000000
  0
POINT
  5
33D
100
AcDbEntity
  8
MAIN0
  6
CONTINUOUS
 62
3
100
AcDbPoint
 10
365.0626697252346
 20
654.6666666667560
 30
0.0000000000000000
  0
POINT
  5
33E
100
AcDbEntity
  8
MAIN0
  6
CONTINUOUS
 62
3
100
AcDbPoint
 10
386.3960030585678
 20
609.3333333337159
 30
0.0000000000000000
  0
LINE
  5
33F
100
AcDbEntity
  8
MAIN0
  6
CONTINUOUS
 62
3
100
AcDbLine
 10
400.7293363919013
 20
542.6666666670492
 30
0.0000000000000000
 11
406.3960030585679
 21
542.6666666670492
 31
0.0000000000000000
  0
LINE
  5
340
100
AcDbEntity
  8
MAIN0
  6
CONTINUOUS
 62
3
100
AcDbLine
 10
394.0626697252346
 20
542.6666666670492
 30
0.0000000000000000
 11
398.7293363919013
 21
542.6666666670492
 31
0.0000000000000000
  0
LINE
  5
341
100
AcDbEntity
  8
MAIN0
  6
CONTINUOUS
 62
3
100
AcDbLine
 10
387.3960030585678
 20
542.6666666670492
 30
0.0000000000000000
 11
392.0626697252346
 21
542.6666666670492
 31
0.0000000000000000
  0
LINE
  5
342
100
AcDbEntity
  8
MAIN0
  6
CONTINUOUS
 62
3
100
AcDbLine
 10
380.7293363918904
 20
542.6666666670492
 30
0.0000000000000000
 11
385.3960030585680
 21
542.6666666670492
 31
0.0000000000000000
  0
LINE
  5
343
100
AcDbEntity
  8
MAIN0
  6
CONTINUOUS
 62
3
100
AcDbLine
 10
374.0626697252237
 20
542.6666666670492
 30
0.0000000000000000
 11
378.7293363919121
 21
542.6666666670492
 31
0.0000000000000000
  0
LINE
  5
344
100
AcDbEntity
  8
MAIN0
  6
CONTINUOUS
 62
3
100
AcDbLine
 10
367.3960030585570
 20
542.6666666670492
 30
0.0000000000000000
 11
372.0626697252454
 21
542.6666666670492
 31
0.0000000000000000
  0
LINE
  5
345
100
AcDbEntity
  8
MAIN0
  6
CONTINUOUS
 62
3
100
AcDbLine
 10
360.7293363918903
 20
542.6666666670492
 30
0.0000000000000000
 11
365.3960030585789
 21
542.6666666670492
 31
0.0000000000000000
  0
LINE
  5
346
100
AcDbEntity
  8
MAIN0
  6
CONTINUOUS
 62
3
100
AcDbLine
 10
354.3960027968577
 20
542.6666666670492
 30
0.0000000000000000
 11
358.7293363919122
 21
542.6666666670492
 31
0.0000000000000000
  0
LINE
  5
347
100
AcDbEntity
  8
MAIN0
  6
CONTINUOUS
 62
3
100
AcDbLine
 10
354.3960027968576
 20
663.3323754382639
 30
0.0000000000000000
 11
364.3960030585679
 21
663.3323754382639
 31
0.0000000000000000
  0
LINE
  5
348
100
AcDbEntity
  8
MAIN0
  6
CONTINUOUS
 62
3
100
AcDbLine
 10
354.3960027968576
 20
555.3342912259210
 30
0.0000000000000000
 11
407.7293363919013
 21
555.3342912259210
 31
0.0000000000000000
  0
POINT
  5
349
100
AcDbEntity
  8
MAIN0
  6
CONTINUOUS
 62
3
100
AcDbPoint
 10
354.3960027968577
 20
391.1000000000453
 30
0.0000000000000000
  0
POINT
  5
34A
100
AcDbEntity
  8
MAIN0
  6
CONTINUOUS
 62
3
100
AcDbPoint
 10
335.7293361301910
 20
391.1000000000453
 30
0.0000000000000000
  0
LINE
  5
34B
100
AcDbEntity
  8
MAIN0
  6
HIDDEN
 62
3
100
AcDbLine
 10
335.7293361301911
 20
377.7666666663040
 30
0.0000000000000000
 11
335.7293361301910
 21
404.4333333333786
 31
0.0000000000000000
  0
LINE
  5
34C
100
AcDbEntity
  8
MAIN0
  6
HIDDEN
 62
3
100
AcDbLine
 10
335.7293361301910
 20
404.4333333333786
 30
0.0000000000000000
 11
353.5960027968577
 21
404.4333333333786
 31
0.0000000000000000
  0
LINE
  5
34D
100
AcDbEntity
  8
MAIN0
  6
HIDDEN
 62
3
100
AcDbLine
 10
353.5960027968577
 20
404.4333333333786
 30
0.0000000000000000
 11
354.3960027968577
 21
405.2333333333787
 31
0.0000000000000000
  0
LINE
  5
34E
100
AcDbEntity
  8
MAIN0
  6
CONTINUOUS
 62
3
100
AcDbLine
 10
235.1960027968577
 20
382.0999999996766
 30
0.0000000000000000
 11
234.3960027968577
 21
381.2999999996766
 31
0.0000000000000000
  0
LINE
  5
34F
100
AcDbEntity
  8
MAIN0
  6
HIDDEN
 62
3
100
AcDbLine
 10
353.5960027968525
 20
377.7666666662972
 30
0.0000000000000000
 11
354.3960027968522
 21
376.9666666662969
 31
0.0000000000000000
  0
POINT
  5
350
100
AcDbEntity
  8
MAIN0
  6
CONTINUOUS
 62
3
100
AcDbPoint
 10
802.2193448044288
 20
503.3333333330779
 30
0.0000000000000000
  0
POINT
  5
351
100
AcDbEntity
  8
MAIN0
  6
CONTINUOUS
 62
3
100
AcDbPoint
 10
889.7806551956051
 20
503.3333333330439
 30
0.0000000000000000
  0
POINT
  5
352
100
AcDbEntity
  8
MAIN0
  6
CONTINUOUS
 62
3
100
AcDbPoint
 10
789.3333333333335
 20
479.9999999999999
 30
0.0000000000000000
  0
LINE
  5
353
100
AcDbEntity
  8
MAIN0
  6
CONTINUOUS
 62
3
100
AcDbLine
 10
730.0000000002600
 20
557.6104336007948
 30
0.0000000000000000
 11
730.0000000002887
 21
661.0562330628568
 31
0.0000000000000000
  0
LINE
  5
354
100
AcDbEntity
  8
MAIN0
  6
CONTINUOUS
 62
3
100
AcDbLine
 10
716.0000000004641
 20
542.2771002676659
 30
0.0000000000000000
 11
729.0571909586777
 21
555.3342912258794
 31
0.0000000000000000
  0
LINE
  5
355
100
AcDbEntity
  8
MAIN0
  6
CONTINUOUS
 62
3
100
AcDbLine
 10
716.0000000000005
 20
676.3895663964787
 30
0.0000000000000000
 11
729.0571909587070
 21
663.3323754377722
 31
0.0000000000000000
  0
LINE
  5
356
100
AcDbEntity
  8
MAIN0
  6
CONTINUOUS
 62
3
100
AcDbLine
 10
729.0571909587070
 20
663.3323754377722
 30
0.0000000000000000
 11
730.0000000002887
 21
661.0562330628567
 31
0.0000000000000000
  0
LINE
  5
357
100
AcDbEntity
  8
MAIN0
  6
CONTINUOUS
 62
3
100
AcDbLine
 10
729.0571909586774
 20
555.3342912258795
 30
0.0000000000000000
 11
730.0000000002599
 21
557.6104336007948
 31
0.0000000000000000
  0
LINE
  5
358
100
AcDbEntity
  8
MAIN0
  6
CONTINUOUS
 62
3
100
AcDbLine
 10
784.2771002674615
 20
456.6666666664070
 30
0.0000000000000000
 11
887.7228997295237
 21
456.6666666663784
 31
0.0000000000000000
  0
LINE
  5
359
100
AcDbEntity
  8
MAIN0
  6
CONTINUOUS
 62
3
100
AcDbLine
 10
768.9437669343325
 20
470.6666666662028
 30
0.0000000000000000
 11
782.0009578925460
 21
457.6094757079893
 31
0.0000000000000000
  0
LINE
  5
35A
100
AcDbEntity
  8
MAIN0
  6
CONTINUOUS
 62
3
100
AcDbLine
 10
903.0562330631456
 20
470.6666666666666
 30
0.0000000000000000
 11
889.9990421044390
 21
457.6094757079601
 31
0.0000000000000000
  0
LINE
  5
35B
100
AcDbEntity
  8
MAIN0
  6
CONTINUOUS
 62
3
100
AcDbLine
 10
889.9990421044389
 20
457.6094757079600
 30
0.0000000000000000
 11
887.7228997295235
 21
456.6666666663784
 31
0.0000000000000000
  0
LINE
  5
35C
100
AcDbEntity
  8
MAIN0
  6
CONTINUOUS
 62
3
100
AcDbLine
 10
782.0009578925461
 20
457.6094757079895
 30
0.0000000000000000
 11
784.2771002674615
 21
456.6666666664070
 31
0.0000000000000000
  0
LINE
  5
35D
100
AcDbEntity
  8
MAIN0
  6
CONTINUOUS
 62
3
100
AcDbLine
 10
784.2771002674617
 20
503.3333333335930
 30
0.0000000000000000
 11
887.7228997295238
 21
503.3333333336211
 31
0.0000000000000000
  0
LINE
  5
35E
100
AcDbEntity
  8
MAIN0
  6
CONTINUOUS
 62
3
100
AcDbLine
 10
768.9437669343325
 20
489.3333333337973
 30
0.0000000000000000
 11
782.0009578925462
 21
502.3905242920108
 31
0.0000000000000000
  0
LINE
  5
35F
100
AcDbEntity
  8
MAIN0
  6
CONTINUOUS
 62
3
100
AcDbLine
 10
903.0562330631456
 20
489.3333333333328
 30
0.0000000000000000
 11
889.9990421044391
 21
502.3905242920395
 31
0.0000000000000000
  0
LINE
  5
360
100
AcDbEntity
  8
MAIN0
  6
CONTINUOUS
 62
3
100
AcDbLine
 10
889.9990421044390
 20
502.3905242920394
 30
0.0000000000000000
 11
887.7228997295235
 21
503.3333333336211
 31
0.0000000000000000
  0
LINE
  5
361
100
AcDbEntity
  8
MAIN0
  6
CONTINUOUS
 62
3
100
AcDbLine
 10
782.0009578925464
 20
502.3905242920105
 30
0.0000000000000000
 11
784.2771002674617
 21
503.3333333335930
 31
0.0000000000000000
  0
ARC
  5
362
100
AcDbEntity
  8
MAIN0
  6
CONTINUOUS
 62
3
100
AcDbCircle
 10
657.3333333320918
 20
480.0000000000001
 30
0.0000000000000000
 40
112.0000000000000
100
AcDbArc
 50
355.2198081525626
 51
364.7801918474370
  0
ARC
  5
363
100
AcDbEntity
  8
MAIN0
  6
CONTINUOUS
 62
3
100
AcDbCircle
 10
918.6666666641833
 20
479.9999999999990
 30
0.0000000000000000
 40
112.0000000000000
100
AcDbArc
 50
167.9753008192956
 51
192.0246991807041
  0
ARC
  5
364
100
AcDbEntity
  8
MAIN0
  6
CONTINUOUS
 62
3
100
AcDbCircle
 10
922.6666666654251
 20
480.0000000000002
 30
0.0000000000000000
 40
112.0000000000000
100
AcDbArc
 50
167.9753008192951
 51
192.0246991807046
  0
ARC
  5
365
100
AcDbEntity
  8
MAIN0
  6
CONTINUOUS
 62
3
100
AcDbCircle
 10
948.0000209509632
 20
480.0000000000002
 30
0.0000000000000000
 40
112.0000000000000
100
AcDbArc
 50
167.9753008192907
 51
192.0246991807090
  0
ARC
  5
366
100
AcDbEntity
  8
MAIN0
  6
CONTINUOUS
 62
3
100
AcDbCircle
 10
965.3333333320917
 20
479.9999999999989
 30
0.0000000000000000
 40
112.0000000000000
100
AcDbArc
 50
167.9753008192882
 51
192.0246991807115
  0
ARC
  5
367
100
AcDbEntity
  8
MAIN0
  6
CONTINUOUS
 62
3
100
AcDbCircle
 10
961.3333333320917
 20
480.0000000000002
 30
0.0000000000000000
 40
112.0000000000000
100
AcDbArc
 50
167.9753008192888
 51
192.0246991807109
  0
ARC
  5
368
100
AcDbEntity
  8
MAIN0
  6
CONTINUOUS
 62
3
100
AcDbCircle
 10
993.3333333320917
 20
479.9999999999988
 30
0.0000000000000000
 40
112.0000000000000
100
AcDbArc
 50
167.9753008192839
 51
192.0246991807158
  0
ARC
  5
369
100
AcDbEntity
  8
MAIN0
  6
CONTINUOUS
 62
3
100
AcDbCircle
 10
1014.666666665425
 20
480.0000000000002
 30
0.0000000000000000
 40
112.0000000000000
100
AcDbArc
 50
175.2198081528003
 51
184.7801918471993
  0
LINE
  5
36A
100
AcDbEntity
  8
MAIN0
  6
CONTINUOUS
 62
3
100
AcDbLine
 10
730.0000000002598
 20
402.3895663992054
 30
0.0000000000000000
 11
730.0000000002879
 21
298.9437669371433
 31
0.0000000000000000
  0
LINE
  5
36B
100
AcDbEntity
  8
MAIN0
  6
CONTINUOUS
 62
3
100
AcDbLine
 10
716.0000000004640
 20
417.7228997323344
 30
0.0000000000000000
 11
729.0571909586774
 21
404.6657087741208
 31
0.0000000000000000
  0
LINE
  5
36C
100
AcDbEntity
  8
MAIN0
  6
CONTINUOUS
 62
3
100
AcDbLine
 10
715.9999999999996
 20
283.6104336035216
 30
0.0000000000000000
 11
729.0571909587062
 21
296.6676245622280
 31
0.0000000000000000
  0
LINE
  5
36D
100
AcDbEntity
  8
MAIN0
  6
CONTINUOUS
 62
3
100
AcDbLine
 10
729.0571909587061
 20
296.6676245622280
 30
0.0000000000000000
 11
730.0000000002877
 21
298.9437669371434
 31
0.0000000000000000
  0
LINE
  5
36E
100
AcDbEntity
  8
MAIN0
  6
CONTINUOUS
 62
3
100
AcDbLine
 10
729.0571909586774
 20
404.6657087741207
 30
0.0000000000000000
 11
730.0000000002599
 21
402.3895663992053
 31
0.0000000000000000
  0
LINE
  5
36F
100
AcDbEntity
  8
MAIN0
  6
HIDDEN
 62
3
100
AcDbLine
 10
292.7293361302040
 20
677.3333333333433
 30
0.0000000000000000
 11
294.7293361301537
 21
674.6666666665115
 31
0.0000000000000000
  0
LINE
  5
370
100
AcDbEntity
  8
MAIN0
  6
HIDDEN
 62
3
100
AcDbLine
 10
294.7026694634482
 20
674.6666666665115
 30
0.0000000000000000
 11
315.3693361301334
 21
674.6666666665115
 31
0.0000000000000000
  0
ARC
  5
371
100
AcDbEntity
  8
MAIN0
  6
HIDDEN
 62
3
100
AcDbCircle
 10
299.3799818261626
 20
682.9034188869886
 30
0.0000000000000000
 40
9.458995323539455
100
AcDbArc
 50
240.5500021273719
 51
299.4499978750089
  0
LINE
  5
372
100
AcDbEntity
  8
MAIN0
  6
HIDDEN
 62
3
100
AcDbLine
 10
294.7293361301535
 20
674.6666666665115
 30
0.0000000000000000
 11
304.0306275225956
 21
651.9999999999989
 31
0.0000000000000000
  0
LINE
  5
373
100
AcDbEntity
  8
MAIN0
  6
HIDDEN
 62
3
100
AcDbLine
 10
294.7293361301409
 20
652.0000000000080
 30
0.0000000000000000
 11
294.7293361301535
 21
674.6666666665115
 31
0.0000000000000000
  0
LINE
  5
374
100
AcDbEntity
  8
MAIN0
  6
HIDDEN
 62
3
100
AcDbLine
 10
294.7293361301409
 20
652.0000000000080
 30
0.0000000000000000
 11
304.0306275225359
 21
674.6666666666656
 31
0.0000000000000000
  0
LINE
  5
375
100
AcDbEntity
  8
MAIN0
  6
HIDDEN
 62
3
100
AcDbLine
 10
304.0306275225958
 20
651.9999999999986
 30
0.0000000000000000
 11
304.0306275225360
 21
674.6666666666655
 31
0.0000000000000000
  0
LINE
  5
376
100
AcDbEntity
  8
MAIN0
  6
HIDDEN
 62
3
100
AcDbLine
 10
306.0947114046997
 20
651.9999999999968
 30
0.0000000000000000
 11
306.0947114047029
 21
674.6666666666636
 31
0.0000000000000000
  0
LINE
  5
377
100
AcDbEntity
  8
MAIN0
  6
HIDDEN
 62
3
100
AcDbLine
 10
306.0947114047030
 20
674.6666666666635
 30
0.0000000000000000
 11
315.3960027968259
 21
651.9999999999878
 31
0.0000000000000000
  0
ARC
  5
378
100
AcDbEntity
  8
MAIN0
  6
HIDDEN
 62
3
100
AcDbCircle
 10
310.7453571009056
 20
682.9034188869949
 30
0.0000000000000000
 40
9.458995323539455
100
AcDbArc
 50
240.5500021259157
 51
299.4499978722095
  0
LINE
  5
379
100
AcDbEntity
  8
MAIN0
  6
HIDDEN
 62
3
100
AcDbLine
 10
315.3960027968389
 20
674.6666666665115
 30
0.0000000000000000
 11
317.3960027968707
 21
677.3333333333193
 31
0.0000000000000000
  0
LINE
  5
37A
100
AcDbEntity
  8
MAIN0
  6
HIDDEN
 62
3
100
AcDbLine
 10
315.3960027968259
 20
651.9999999999877
 30
0.0000000000000000
 11
315.3960027968388
 21
674.6666666665115
 31
0.0000000000000000
  0
LINE
  5
37B
100
AcDbEntity
  8
MAIN0
  6
HIDDEN
 62
3
100
AcDbLine
 10
306.0947114046995
 20
651.9999999999967
 30
0.0000000000000000
 11
315.3960027968388
 21
674.6666666665116
 31
0.0000000000000000
  0
LINE
  5
37C
100
AcDbEntity
  8
MAIN0
  6
HIDDEN
 62
3
100
AcDbLine
 10
294.7293361301411
 20
652.0000000000078
 30
0.0000000000000000
 11
315.3960027968259
 21
651.9999999999877
 31
0.0000000000000000
  0
LINE
  5
37D
100
AcDbEntity
  8
MAIN0
  6
CONTINUOUS
 62
3
100
AcDbLine
 10
490.3650192857219
 20
366.3184828269392
 30
0.0000000000000000
 11
582.4799103849664
 21
274.2035917282037
 31
0.0000000000000000
  0
LINE
  5
37E
100
AcDbEntity
  8
MAIN0
  6
CONTINUOUS
 62
3
100
AcDbLine
 10
478.5068786046841
 20
287.6669555162849
 30
0.0000000000000000
 11
514.3336221849004
 21
251.8402119362644
 31
0.0000000000000000
  0
LINE
  5
37F
100
AcDbEntity
  8
MAIN0
  6
CENTER
 62
3
100
AcDbLine
 10
485.6981212125766
 20
259.0314545440538
 30
0.0000000000000000
 11
546.6666666675471
 21
319.9999999991195
 31
0.0000000000000000
  0
LINE
  5
380
100
AcDbEntity
  8
MAIN0
  6
CONTINUOUS
 62
3
100
AcDbLine
 10
485.1065418957677
 20
284.8385283915620
 30
0.0000000000000000
 11
511.5051950600413
 21
311.2371815558767
 31
0.0000000000000000
  0
LINE
  5
381
100
AcDbEntity
  8
MAIN0
  6
CONTINUOUS
 62
3
100
AcDbLine
 10
511.5051950601376
 20
258.4398752273369
 30
0.0000000000000000
 11
537.9038482244109
 21
284.8385283916516
 31
0.0000000000000000
  0
LINE
  5
382
100
AcDbEntity
  8
MAIN0
  6
CONTINUOUS
 62
3
100
AcDbLine
 10
478.5068786046735
 20
293.3238097657823
 30
0.0000000000000000
 11
502.0771046442927
 21
316.8940358054384
 31
0.0000000000000000
  0
LINE
  5
383
100
AcDbEntity
  8
MAIN0
  6
CONTINUOUS
 62
3
100
AcDbLine
 10
519.9904764343874
 20
251.8402119362748
 30
0.0000000000000000
 11
543.5607024739416
 21
275.4104379758654
 31
0.0000000000000000
  0
ARC
  5
384
100
AcDbEntity
  8
MAIN0
  6
CONTINUOUS
 62
3
100
AcDbCircle
 10
481.3353057294221
 20
290.4953826410382
 30
0.0000000000000000
 40
4.000000000000000
100
AcDbArc
 50
135.0000000000449
 51
225.0000000001581
  0
ARC
  5
385
100
AcDbEntity
  8
MAIN0
  6
CONTINUOUS
 62
3
100
AcDbCircle
 10
517.1620493096393
 20
254.6686390610188
 30
0.0000000000000000
 40
4.000000000000000
100
AcDbArc
 50
225.0000000001581
 51
315.0000000000454
  0
ARC
  5
386
100
AcDbEntity
  8
MAIN0
  6
CONTINUOUS
 62
3
100
AcDbCircle
 10
513.3908131433037
 20
256.5542571441741
 30
0.0000000000000000
 40
2.666666666666667
100
AcDbArc
 50
135.0000000000451
 51
225.0000000001585
  0
ARC
  5
387
100
AcDbEntity
  8
MAIN0
  6
CONTINUOUS
 62
3
100
AcDbCircle
 10
483.2209238125943
 20
286.7241464747170
 30
0.0000000000000000
 40
2.666666666666667
100
AcDbArc
 50
225.0000000001591
 51
315.0000000000451
  0
LINE
  5
388
100
AcDbEntity
  8
MAIN0
  6
CONTINUOUS
 62
3
100
AcDbLine
 10
511.5051950600407
 20
311.2371815558762
 30
0.0000000000000000
 11
537.9038482244110
 21
284.8385283916513
 31
0.0000000000000000
  0
ARC
  5
389
100
AcDbEntity
  8
MAIN0
  6
CONTINUOUS
 62
3
100
AcDbCircle
 10
551.1031748066039
 20
267.8679656432148
 30
0.0000000000000000
 40
10.66666666666667
100
AcDbArc
 50
45.00000000015832
 51
135.0000000000449
  0
ARC
  5
38A
100
AcDbEntity
  8
MAIN0
  6
CONTINUOUS
 62
3
100
AcDbCircle
 10
494.5346323116299
 20
324.4365081380894
 30
0.0000000000000000
 40
10.66666666666667
100
AcDbArc
 50
315.0000000000445
 51
404.9999999999312
  0
LINE
  5
38B
100
AcDbEntity
  8
MAIN0
  6
CONTINUOUS
 62
3
100
AcDbLine
 10
502.0771046443015
 20
331.9789804707202
 30
0.0000000000000000
 11
480.4436024345300
 21
353.6124826806089
 31
0.0000000000000000
  0
LINE
  5
38C
100
AcDbEntity
  8
MAIN0
  6
CONTINUOUS
 62
3
100
AcDbLine
 10
538.8466572660270
 20
261.2683023521347
 30
0.0000000000000000
 11
559.3390240955940
 21
240.7759355226814
 31
0.0000000000000000
  0
ARC
  5
38D
100
AcDbEntity
  8
MAIN0
  6
CONTINUOUS
 62
3
100
AcDbCircle
 10
534.1326120581300
 20
256.5542571442112
 30
0.0000000000000000
 40
6.666666666666666
100
AcDbArc
 50
45.00000000015923
 51
135.0000000000446
  0
ARC
  5
38E
100
AcDbEntity
  8
MAIN0
  6
CONTINUOUS
 62
3
100
AcDbCircle
 10
483.2209238126529
 20
307.4659453895980
 30
0.0000000000000000
 40
6.666666666666666
100
AcDbArc
 50
315.0000000000448
 51
404.9999999999301
  0
LINE
  5
38F
100
AcDbEntity
  8
MAIN0
  6
CONTINUOUS
 62
3
100
AcDbLine
 10
487.9349690205692
 20
312.1799905974934
 30
0.0000000000000000
 11
469.1651380524409
 21
330.9498215657056
 31
0.0000000000000000
  0
LINE
  5
390
100
AcDbEntity
  8
MAIN0
  6
CONTINUOUS
 62
3
100
AcDbLine
 10
516.6906447887573
 20
306.0517318271902
 30
0.0000000000000000
 11
533.6612075372216
 21
323.0222945756810
 31
0.0000000000000000
  0
LINE
  5
391
100
AcDbEntity
  8
MAIN0
  6
CONTINUOUS
 62
3
100
AcDbLine
 10
532.7183984956946
 20
290.0239781203375
 30
0.0000000000000000
 11
549.6889612441589
 21
306.9945408688283
 31
0.0000000000000000
  0
LINE
  5
392
100
AcDbEntity
  8
MAIN0
  6
CONTINUOUS
 62
3
100
AcDbLine
 10
413.4062436431079
 20
273.5716309848252
 30
0.0000000000000000
 11
494.3229060866765
 21
192.6549685417032
 31
0.0000000000000000
  0
SPLINE
  5
393
100
AcDbEntity
  8
MAIN0
  6
CONTINUOUS
 62
3
100
AcDbSpline
210
0.0000000000000000
220
0.0000000000000000
230
1.000000000000000
 70
     8
 71
     3
 72
    12
 73
     8
 74
     0
 42
1.000000000000000e-007
 43
1.000000000000000e-007
 12
-0.7136518624602672
 22
-1.118877653706832
 32
0.0000000000000000
 13
-1.239222775827301
 23
-0.5204680220080959
 33
0.0000000000000000
 40
0.0000000000000000
 40
0.0000000000000000
 40
0.0000000000000000
 40
0.0000000000000000
 40
12.67717184013598
 40
22.64419488563184
 40
38.20605446281915
 40
81.43452912614693
 40
91.82956833734917
 40
91.82956833734917
 40
91.82956833734917
 40
91.82956833734917
 10
582.4799103849664
 20
274.2035917282039
 30
0.0000000000000000
 10
579.4642146201524
 20
269.4755236334940
 30
0.0000000000000000
 10
574.0775240021380
 20
261.0301624189222
 30
0.0000000000000000
 10
567.8621573654841
 20
244.5294869369808
 30
0.0000000000000000
 10
538.3940778162393
 20
231.0228610754196
 30
0.0000000000000000
 10
520.7673224395546
 20
203.7615051073923
 30
0.0000000000000000
 10
498.6168292018180
 20
194.4583970409250
 30
0.0000000000000000
 10
494.3229060864381
 20
192.6549685419413
 30
0.0000000000000000
  0
SPLINE
  5
394
100
AcDbEntity
  8
MAIN0
  6
CONTINUOUS
 62
3
100
AcDbSpline
210
0.0000000000000000
220
0.0000000000000000
230
1.000000000000000
 70
     8
 71
     3
 72
    10
 73
     6
 74
     0
 42
1.000000000000000e-007
 43
1.000000000000000e-007
 12
-0.8669209486460261
 22
-1.024219720415928
 32
0.0000000000000000
 13
-1.094444353880849
 23
-0.8427954245074876
 33
0.0000000000000000
 40
0.0000000000000000
 40
0.0000000000000000
 40
0.0000000000000000
 40
0.0000000000000000
 40
14.13270734249425
 40
31.07844097746287
 40
91.08458625697298
 40
91.08458625697298
 40
91.08458625697298
 40
91.08458625697298
 10
490.3650192857220
 20
366.3184828269393
 30
0.0000000000000000
 10
486.2810392669580
 20
361.4934836392561
 30
0.0000000000000000
 10
477.3001887554178
 20
350.8830995962892
 30
0.0000000000000000
 10
463.3705557423705
 20
312.0474963649184
 30
0.0000000000000000
 10
435.2973726095458
 20
290.4292658794594
 30
0.0000000000000000
 10
413.4062436431079
 20
273.5716309848252
 30
0.0000000000000000
  0
MTEXT
  5
395
100
AcDbEntity
  8
MAIN0
  6
CONTINUOUS
 62
3
100
AcDbMText
 10
533.3333333333333
 20
212.0000000000000
 30
0.0000000000000000
 40
12.00000000000000
 41
0.0000000000000000
 71
     1
 72
     1
  1
{\H0.86x;{\LE-E'断面}}
 11
1.000000000000000
 21
0.0000000000000000
 31
0.0000000000000000
  7
KNJYOKO
  0
LINE
  5
396
100
AcDbEntity
  8
MAIN0
  6
CONTINUOUS
 62
3
100
AcDbLine
 10
484.5408564623895
 20
284.2728429581830
 30
0.0000000000000000
 11
465.3864598564204
 21
265.1184463521862
 31
0.0000000000000000
  0
LINE
  5
397
100
AcDbEntity
  8
MAIN0
  6
CONTINUOUS
 62
3
100
AcDbLine
 10
466.8006734187924
 20
266.5326599145603
 30
0.0000000000000000
 11
493.1993265831089
 21
240.1340067502817
 31
0.0000000000000000
  0
LINE
  5
398
100
AcDbEntity
  8
MAIN0
  6
CONTINUOUS
 62
3
100
AcDbLine
 10
470.4776287146814
 20
264.5527609609581
 30
0.0000000000000000
 11
466.8006734187924
 21
266.5326599145603
 31
0.0000000000000000
  0
LINE
  5
399
100
AcDbEntity
  8
MAIN0
  6
CONTINUOUS
 62
3
100
AcDbLine
 10
466.8006734187924
 20
266.5326599145603
 30
0.0000000000000000
 11
468.7805723723999
 21
262.8557046186742
 31
0.0000000000000000
  0
LINE
  5
39A
100
AcDbEntity
  8
MAIN0
  6
CONTINUOUS
 62
3
100
AcDbLine
 10
491.2194276295014
 20
243.8109620461678
 30
0.0000000000000000
 11
493.1993265831089
 21
240.1340067502817
 31
0.0000000000000000
  0
LINE
  5
39B
100
AcDbEntity
  8
MAIN0
  6
CONTINUOUS
 62
3
100
AcDbLine
 10
493.1993265831089
 20
240.1340067502817
 30
0.0000000000000000
 11
489.5223712872199
 21
242.1139057038840
 31
0.0000000000000000
  0
MTEXT
  5
39C
100
AcDbEntity
  8
MAIN0
  6
CONTINUOUS
 62
3
100
AcDbMText
 10
480.7071067821367
 20
254.0404401136080
 30
0.0000000000000000
 40
6.199999809265137
 41
0.0000000000000000
 71
     8
 72
     1
  1
{\H0.69x;{28}}
 11
0.7071067811870548
 21
-0.7071067811860402
 31
0.0000000000000000
  7
STANDARD
  0
LINE
  5
39D
100
AcDbEntity
  8
MAIN0
  6
CONTINUOUS
 62
3
100
AcDbLine
 10
510.9395096267594
 20
257.8741897939579
 30
0.0000000000000000
 11
491.7851130207368
 21
238.7197931879076
 31
0.0000000000000000
  0
LINE
  5
39E
100
AcDbEntity
  8
MAIN0
  6
CONTINUOUS
 62
3
100
AcDbLine
 10
510.4630713998194
 20
350.4630714000601
 30
0.0000000000000000
 11
489.2498679642815
 21
329.2498679644065
 31
0.0000000000000000
  0
LINE
  5
39F
100
AcDbEntity
  8
MAIN0
  6
CONTINUOUS
 62
3
100
AcDbLine
 10
512.0187063521477
 20
350.3216500101096
 30
0.0000000000000000
 11
508.3417510562655
 21
348.3417510564947
 31
0.0000000000000000
  0
LINE
  5
3A0
100
AcDbEntity
  8
MAIN0
  6
CONTINUOUS
 62
3
100
AcDbLine
 10
508.3417510562655
 20
348.3417510564947
 30
0.0000000000000000
 11
510.3216500098604
 21
352.0187063523877
 31
0.0000000000000000
  0
LINE
  5
3A1
100
AcDbEntity
  8
MAIN0
  6
CONTINUOUS
 62
3
100
AcDbLine
 10
489.3912893542405
 20
327.6942330120790
 30
0.0000000000000000
 11
491.3711883078353
 21
331.3711883079719
 31
0.0000000000000000
  0
LINE
  5
3A2
100
AcDbEntity
  8
MAIN0
  6
CONTINUOUS
 62
3
100
AcDbLine
 10
491.3711883078353
 20
331.3711883079719
 30
0.0000000000000000
 11
487.6942330119532
 21
329.3912893543570
 31
0.0000000000000000
  0
MTEXT
  5
3A3
100
AcDbEntity
  8
MAIN0
  6
CONTINUOUS
 62
3
100
AcDbMText
 10
499.1493629008620
 20
340.5635764634180
 30
0.0000000000000000
 40
6.199999809265137
 41
0.0000000000000000
 71
     8
 72
     1
  1
{\H0.69x;{18}}
 11
0.7071067811846189
 21
0.7071067811884763
 31
0.0000000000000000
  7
STANDARD
  0
LINE
  5
3A4
100
AcDbEntity
  8
MAIN0
  6
CONTINUOUS
 62
3
100
AcDbLine
 10
510.9395096266604
 20
311.8028669892533
 30
0.0000000000000000
 11
489.9569747454584
 21
332.7854018703413
 31
0.0000000000000000
  0
LINE
  5
3A5
100
AcDbEntity
  8
MAIN0
  6
CONTINUOUS
 62
3
100
AcDbLine
 10
534.2268929705998
 20
323.5879800090600
 30
0.0000000000000000
 11
546.7336700431216
 21
336.0947570816012
 31
0.0000000000000000
  0
LINE
  5
3A6
100
AcDbEntity
  8
MAIN0
  6
CONTINUOUS
 62
3
100
AcDbLine
 10
545.3194564807495
 20
334.6805435192271
 30
0.0000000000000000
 11
561.3472101876571
 21
318.6527898123451
 31
0.0000000000000000
  0
LINE
  5
3A7
100
AcDbEntity
  8
MAIN0
  6
CONTINUOUS
 62
3
100
AcDbLine
 10
548.9964117766386
 20
332.7006445656252
 30
0.0000000000000000
 11
545.3194564807495
 21
334.6805435192271
 31
0.0000000000000000
  0
LINE
  5
3A8
100
AcDbEntity
  8
MAIN0
  6
CONTINUOUS
 62
3
100
AcDbLine
 10
545.3194564807495
 20
334.6805435192271
 30
0.0000000000000000
 11
547.2993554343573
 21
331.0035882233412
 31
0.0000000000000000
  0
LINE
  5
3A9
100
AcDbEntity
  8
MAIN0
  6
CONTINUOUS
 62
3
100
AcDbLine
 10
559.3673112340493
 20
322.3297451082310
 30
0.0000000000000000
 11
561.3472101876571
 21
318.6527898123451
 31
0.0000000000000000
  0
LINE
  5
3AA
100
AcDbEntity
  8
MAIN0
  6
CONTINUOUS
 62
3
100
AcDbLine
 10
561.3472101876571
 20
318.6527898123451
 30
0.0000000000000000
 11
557.6702548917680
 21
320.6326887659470
 31
0.0000000000000000
  0
MTEXT
  5
3AB
100
AcDbEntity
  8
MAIN0
  6
CONTINUOUS
 62
3
100
AcDbMText
 10
554.0404401153893
 20
327.3737734469731
 30
0.0000000000000000
 40
6.199999809265137
 41
0.0000000000000000
 71
     8
 72
     1
  1
{\H0.69x;{17}}
 11
0.7071067811871101
 21
-0.7071067811859849
 31
0.0000000000000000
  7
STANDARD
  0
LINE
  5
3AC
100
AcDbEntity
  8
MAIN0
  6
CONTINUOUS
 62
3
100
AcDbLine
 10
550.2546466775372
 20
307.5602263022073
 30
0.0000000000000000
 11
562.7614237500292
 21
320.0670033747192
 31
0.0000000000000000
  0
LINE
  5
3AD
100
AcDbEntity
  8
MAIN0
  6
CONTINUOUS
 62
3
100
AcDbLine
 10
519.4247910010091
 20
251.2745265028958
 30
0.0000000000000000
 11
499.3275853534003
 21
231.1773208552559
 31
0.0000000000000000
  0
LINE
  5
3AE
100
AcDbEntity
  8
MAIN0
  6
CONTINUOUS
 62
3
100
AcDbLine
 10
502.8631192593336
 20
230.4702140740720
 30
0.0000000000000000
 11
491.0780062395485
 21
242.2553270938389
 31
0.0000000000000000
  0
LINE
  5
3AF
100
AcDbEntity
  8
MAIN0
  6
CONTINUOUS
 62
3
100
AcDbLine
 10
502.7216978693800
 20
228.9145791217441
 30
0.0000000000000000
 11
500.7417989157723
 21
232.5915344176300
 31
0.0000000000000000
  0
LINE
  5
3B0
100
AcDbEntity
  8
MAIN0
  6
CONTINUOUS
 62
3
100
AcDbLine
 10
500.7417989157723
 20
232.5915344176300
 30
0.0000000000000000
 11
504.4187542116614
 21
230.6116354640280
 31
0.0000000000000000
  0
LINE
  5
3B1
100
AcDbEntity
  8
MAIN0
  6
CONTINUOUS
 62
3
100
AcDbLine
 10
489.5223712872207
 20
242.1139057038829
 30
0.0000000000000000
 11
493.1993265831097
 21
240.1340067502809
 31
0.0000000000000000
  0
LINE
  5
3B2
100
AcDbEntity
  8
MAIN0
  6
CONTINUOUS
 62
3
100
AcDbLine
 10
493.1993265831097
 20
240.1340067502809
 30
0.0000000000000000
 11
491.2194276295020
 21
243.8109620461669
 31
0.0000000000000000
  0
MTEXT
  5
3B3
100
AcDbEntity
  8
MAIN0
  6
CONTINUOUS
 62
3
100
AcDbMText
 10
497.6776695306270
 20
237.0698773651426
 30
0.0000000000000000
 40
6.199999809265137
 41
0.0000000000000000
 71
     8
 72
     1
  1
{\H0.67x;{8}}
 11
0.7071067811870944
 21
-0.7071067811860007
 31
0.0000000000000000
  7
STANDARD
  0
LINE
  5
3B4
100
AcDbEntity
  8
MAIN0
  6
CONTINUOUS
 62
3
100
AcDbLine
 10
510.9395096267593
 20
257.8741897939579
 30
0.0000000000000000
 11
491.7851130207376
 21
238.7197931879068
 31
0.0000000000000000
  0
LINE
  5
3B5
100
AcDbEntity
  8
MAIN0
  6
CONTINUOUS
 62
3
100
AcDbLine
 10
484.5408564623895
 20
284.2728429581830
 30
0.0000000000000000
 11
465.3864598564214
 21
265.1184463521851
 31
0.0000000000000000
  0
LINE
  5
3B6
100
AcDbEntity
  8
MAIN0
  6
CONTINUOUS
 62
3
100
AcDbLine
 10
468.9219937623547
 20
264.4113395710014
 30
0.0000000000000000
 11
457.1368807425698
 21
276.1964525907679
 31
0.0000000000000000
  0
LINE
  5
3B7
100
AcDbEntity
  8
MAIN0
  6
CONTINUOUS
 62
3
100
AcDbLine
 10
468.7805723724011
 20
262.8557046186733
 30
0.0000000000000000
 11
466.8006734187934
 21
266.5326599145593
 31
0.0000000000000000
  0
LINE
  5
3B8
100
AcDbEntity
  8
MAIN0
  6
CONTINUOUS
 62
3
100
AcDbLine
 10
466.8006734187934
 20
266.5326599145593
 30
0.0000000000000000
 11
470.4776287146825
 21
264.5527609609573
 31
0.0000000000000000
  0
LINE
  5
3B9
100
AcDbEntity
  8
MAIN0
  6
CONTINUOUS
 62
3
100
AcDbLine
 10
455.5812457902420
 20
276.0550312008119
 30
0.0000000000000000
 11
459.2582010861311
 21
274.0751322472099
 31
0.0000000000000000
  0
LINE
  5
3BA
100
AcDbEntity
  8
MAIN0
  6
CONTINUOUS
 62
3
100
AcDbLine
 10
459.2582010861311
 20
274.0751322472099
 30
0.0000000000000000
 11
457.2783021325233
 21
277.7520875430959
 31
0.0000000000000000
  0
MTEXT
  5
3BB
100
AcDbEntity
  8
MAIN0
  6
CONTINUOUS
 62
3
100
AcDbMText
 10
463.7365440336482
 20
271.0110028620717
 30
0.0000000000000000
 40
6.199999809265137
 41
0.0000000000000000
 71
     8
 72
     1
  1
{\H0.67x;{8}}
 11
0.7071067811870981
 21
-0.7071067811859969
 31
0.0000000000000000
  7
STANDARD
  0
LINE
  5
3BC
100
AcDbEntity
  8
MAIN0
  6
CONTINUOUS
 62
3
100
AcDbLine
 10
477.9411931712953
 20
292.7581243324033
 30
0.0000000000000000
 11
457.8439875237590
 21
272.6609186848357
 31
0.0000000000000000
  0
LINE
  5
3BD
100
AcDbEntity
  8
MAIN0
  6
CONTINUOUS
 62
3
100
AcDbLine
 10
477.9411931713039
 20
288.2326409496619
 30
0.0000000000000000
 11
461.6727034980736
 21
304.5011306228001
 31
0.0000000000000000
  0
LINE
  5
3BE
100
AcDbEntity
  8
MAIN0
  6
CONTINUOUS
 62
3
100
AcDbLine
 10
463.0869170604507
 20
303.0869170604310
 30
0.0000000000000000
 11
491.3711883078346
 21
331.3711883079712
 31
0.0000000000000000
  0
LINE
  5
3BF
100
AcDbEntity
  8
MAIN0
  6
CONTINUOUS
 62
3
100
AcDbLine
 10
465.0668160140453
 20
306.7638723563239
 30
0.0000000000000000
 11
463.0869170604507
 21
303.0869170604310
 31
0.0000000000000000
  0
LINE
  5
3C0
100
AcDbEntity
  8
MAIN0
  6
CONTINUOUS
 62
3
100
AcDbLine
 10
463.0869170604507
 20
303.0869170604310
 30
0.0000000000000000
 11
466.7638723563327
 21
305.0668160140460
 31
0.0000000000000000
  0
LINE
  5
3C1
100
AcDbEntity
  8
MAIN0
  6
CONTINUOUS
 62
3
100
AcDbLine
 10
487.6942330119525
 20
329.3912893543562
 30
0.0000000000000000
 11
491.3711883078346
 21
331.3711883079712
 31
0.0000000000000000
  0
LINE
  5
3C2
100
AcDbEntity
  8
MAIN0
  6
CONTINUOUS
 62
3
100
AcDbLine
 10
491.3711883078346
 20
331.3711883079712
 30
0.0000000000000000
 11
489.3912893542399
 21
327.6942330120782
 31
0.0000000000000000
  0
MTEXT
  5
3C3
100
AcDbEntity
  8
MAIN0
  6
CONTINUOUS
 62
3
100
AcDbMText
 10
472.3794717609981
 20
314.2650898441990
 30
0.0000000000000000
 40
6.199999809265137
 41
0.0000000000000000
 71
     8
 72
     1
  1
{\H0.69x;{30}}
 11
0.7071067811845933
 21
0.7071067811885018
 31
0.0000000000000000
  7
STANDARD
  0
LINE
  5
3C4
100
AcDbEntity
  8
MAIN0
  6
CONTINUOUS
 62
3
100
AcDbLine
 10
510.9395096266604
 20
311.8028669892533
 30
0.0000000000000000
 11
489.9569747454576
 21
332.7854018703405
 31
0.0000000000000000
  0
LINE
  5
3C5
100
AcDbEntity
  8
MAIN0
  6
CONTINUOUS
 62
3
100
AcDbLine
 10
563.6947092241244
 20
270.3613758910340
 30
0.0000000000000000
 11
529.7535837272646
 21
236.4202503939856
 31
0.0000000000000000
  0
LINE
  5
3C6
100
AcDbEntity
  8
MAIN0
  6
CONTINUOUS
 62
3
100
AcDbLine
 10
561.7148102705297
 20
266.6844205951409
 30
0.0000000000000000
 11
563.6947092241244
 21
270.3613758910340
 31
0.0000000000000000
  0
LINE
  5
3C7
100
AcDbEntity
  8
MAIN0
  6
CONTINUOUS
 62
3
100
AcDbLine
 10
563.6947092241244
 20
270.3613758910340
 30
0.0000000000000000
 11
560.0177539282423
 21
268.3814769374189
 31
0.0000000000000000
  0
LINE
  5
3C8
100
AcDbEntity
  8
MAIN0
  6
CONTINUOUS
 62
3
100
AcDbLine
 10
533.4305390231467
 20
238.4001493476007
 30
0.0000000000000000
 11
529.7535837272646
 21
236.4202503939856
 31
0.0000000000000000
  0
LINE
  5
3C9
100
AcDbEntity
  8
MAIN0
  6
CONTINUOUS
 62
3
100
AcDbLine
 10
529.7535837272646
 20
236.4202503939856
 30
0.0000000000000000
 11
531.7334826808593
 21
240.0972056898787
 31
0.0000000000000000
  0
MTEXT
  5
3CA
100
AcDbEntity
  8
MAIN0
  6
CONTINUOUS
 62
3
100
AcDbMText
 10
538.5417639104591
 20
247.0940486603965
 30
0.0000000000000000
 40
6.199999809265137
 41
0.0000000000000000
 71
     8
 72
     1
  1
{\H0.69x;{36}}
 11
0.7071067811845824
 21
0.7071067811885127
 31
0.0000000000000000
  7
STANDARD
  0
LINE
  5
3CB
100
AcDbEntity
  8
MAIN0
  6
CONTINUOUS
 62
3
100
AcDbLine
 10
514.8993076182807
 20
251.2745265028873
 30
0.0000000000000000
 11
531.1677972896417
 21
235.0060368316164
 31
0.0000000000000000
  0
LINE
  5
3CC
100
AcDbEntity
  8
MAIN0
  6
CONTINUOUS
 62
3
100
AcDbLine
 10
514.8993076182806
 20
251.2745265028874
 30
0.0000000000000000
 11
531.1677972896420
 21
235.0060368316167
 31
0.0000000000000000
  0
LINE
  5
3CD
100
AcDbEntity
  8
MAIN0
  6
CONTINUOUS
 62
3
100
AcDbLine
 10
529.7535837272649
 20
236.4202503939858
 30
0.0000000000000000
 11
490.1556039809277
 21
196.8222706474289
 31
0.0000000000000000
  0
LINE
  5
3CE
100
AcDbEntity
  8
MAIN0
  6
CONTINUOUS
 62
3
100
AcDbLine
 10
527.7736847736702
 20
232.7432950980928
 30
0.0000000000000000
 11
529.7535837272649
 21
236.4202503939858
 31
0.0000000000000000
  0
LINE
  5
3CF
100
AcDbEntity
  8
MAIN0
  6
CONTINUOUS
 62
3
100
AcDbLine
 10
529.7535837272649
 20
236.4202503939858
 30
0.0000000000000000
 11
526.0766284313828
 21
234.4403514403708
 31
0.0000000000000000
  0
LINE
  5
3D0
100
AcDbEntity
  8
MAIN0
  6
CONTINUOUS
 62
3
100
AcDbLine
 10
493.8325592768097
 20
198.8021696010439
 30
0.0000000000000000
 11
490.1556039809277
 21
196.8222706474289
 31
0.0000000000000000
  0
LINE
  5
3D1
100
AcDbEntity
  8
MAIN0
  6
CONTINUOUS
 62
3
100
AcDbLine
 10
490.1556039809277
 20
196.8222706474289
 30
0.0000000000000000
 11
492.1355029345224
 21
200.4992259433219
 31
0.0000000000000000
  0
MTEXT
  5
3D2
100
AcDbEntity
  8
MAIN0
  6
CONTINUOUS
 62
3
100
AcDbMText
 10
509.2474870729078
 20
217.3283673018919
 30
0.0000000000000000
 40
6.199999809265137
 41
0.0000000000000000
 71
     8
 72
     1
  1
{\H0.69x;{42}}
 11
0.7071067811845859
 21
0.7071067811885092
 31
0.0000000000000000
  7
STANDARD
  0
LINE
  5
3D3
100
AcDbEntity
  8
MAIN0
  6
CONTINUOUS
 62
3
100
AcDbLine
 10
558.6456471392394
 20
275.4104379758923
 30
0.0000000000000000
 11
574.1261266903775
 21
259.9299584248402
 31
0.0000000000000000
  0
MTEXT
  5
3D4
100
AcDbEntity
  8
MAIN0
  6
CONTINUOUS
 62
3
100
AcDbMText
 10
573.9949700948860
 20
391.1115717986523
 30
0.0000000000000000
 40
10.00000000000000
 41
0.0000000000000000
 71
     1
 72
     1
  1
{\H0.82x;{E}}
 11
0.7071067811887675
 21
-0.7071067811843276
 31
0.0000000000000000
  7
STANDARD
  0
LINE
  5
3D5
100
AcDbEntity
  8
MAIN0
  6
PHANTOM
 62
3
100
AcDbLine
 10
622.7475931394938
 20
362.1579386275128
 30
0.0000000000000000
 11
588.8246052957416
 21
396.0809264710520
 31
0.0000000000000000
  0
MTEXT
  5
3D6
100
AcDbEntity
  8
MAIN0
  6
CONTINUOUS
 62
3
100
AcDbMText
 10
610.7645227167027
 20
354.3420191770675
 30
0.0000000000000000
 40
10.00000000000000
 41
0.0000000000000000
 71
     1
 72
     1
  1
{\H0.88x;{E'}}
 11
0.7071067811887675
 21
-0.7071067811843276
 31
0.0000000000000000
  7
STANDARD
  0
MTEXT
  5
3D7
100
AcDbEntity
  8
MAIN0
  6
CONTINUOUS
 62
3
100
AcDbMText
 10
533.3333333333333
 20
212.0000000000000
 30
0.0000000000000000
 40
12.00000000000000
 41
0.0000000000000000
 71
     1
 72
     1
  1
{\H0.86x;{\LE-E'断面}}
 11
1.000000000000000
 21
0.0000000000000000
 31
0.0000000000000000
  7
KNJYOKO
  0
INSERT
  5
3DD
100
AcDbEntity
  8
MAIN0
  6
CONTINUOUS
 62
3
100
AcDbBlockReference
  2
M2
 10
0.0000000000000000
 20
0.0000000000000000
 30
0.0000000000000000
 50
0.0000000000000000
  0
INSERT
  5
3E3
100
AcDbEntity
  8
MAIN0
  6
CONTINUOUS
 62
3
100
AcDbBlockReference
  2
M3
 10
0.0000000000000000
 20
0.0000000000000000
 30
0.0000000000000000
 50
0.0000000000000000
  0
ARC
  5
3E4
100
AcDbEntity
  8
MAIN0
  6
CENTER
 62
3
100
AcDbCircle
 10
706.6666666666669
 20
480.0000000000002
 30
0.0000000000000000
 40
88.89999999999998
100
AcDbArc
 50
146.6078665210928
 51
176.1557509721023
  0
CIRCLE
  5
3E5
100
AcDbEntity
  8
MAIN0
  6
HIDDEN
 62
3
100
AcDbCircle
 10
620.7958607096019
 20
503.0090131097392
 30
0.0000000000000000
 40
12.86666666666667
  0
CIRCLE
  5
3E6
100
AcDbEntity
  8
MAIN0
  6
HIDDEN
 62
3
100
AcDbCircle
 10
620.7958607096019
 20
503.0090131097392
 30
0.0000000000000000
 40
8.000000000000000
  0
LINE
  5
3E7
100
AcDbEntity
  8
MAIN0
  6
CENTER
 62
3
100
AcDbLine
 10
603.2160106711478
 20
507.7195197306306
 30
0.0000000000000000
 11
638.3757107480561
 21
498.2985064888477
 31
0.0000000000000000
  0
POINT
  5
3E8
100
AcDbEntity
  8
MAIN0
  6
CONTINUOUS
 62
3
100
AcDbPoint
 10
529.2238243594081
 20
708.7650839472954
 30
0.0000000000000000
  0
LINE
  5
3E9
100
AcDbEntity
  8
MAIN0
  6
CONTINUOUS
 62
3
100
AcDbLine
 10
521.2238243594085
 20
700.3650839472954
 30
0.0000000000000000
 11
537.2238243594086
 21
700.3650839472953
 31
0.0000000000000000
  0
LINE
  5
3EA
100
AcDbEntity
  8
MAIN0
  6
CONTINUOUS
 62
3
100
AcDbLine
 10
521.2238243594084
 20
700.3650839472954
 30
0.0000000000000000
 11
529.2238243594084
 21
695.7462817937783
 31
0.0000000000000000
  0
LINE
  5
3EB
100
AcDbEntity
  8
MAIN0
  6
CONTINUOUS
 62
3
100
AcDbLine
 10
529.2238243594081
 20
695.7462817937782
 30
0.0000000000000000
 11
537.2238243594080
 21
700.3650839472950
 31
0.0000000000000000
  0
MTEXT
  5
3EC
100
AcDbEntity
  8
MAIN0
  6
CONTINUOUS
 62
3
100
AcDbMText
 10
874.4065241445229
 20
192.8760684009524
 30
0.0000000000000000
 40
6.199999809265137
 41
0.0000000000000000
 71
     1
 72
     1
  1
{\H0.94x;{バランスは本体外周にて5g以内に修正する}}
 11
1.000000000000000
 21
0.0000000000000000
 31
0.0000000000000000
  7
KNJYOKO
  0
MTEXT
  5
3ED
100
AcDbEntity
  8
MAIN0
  6
CONTINUOUS
 62
3
100
AcDbMText
 10
874.4065241445229
 20
182.8760684009524
 30
0.0000000000000000
 40
6.199999809265137
 41
0.0000000000000000
 71
     1
 72
     1
  1
{\H0.94x;{テーパ部は、借用ゲージに依り仕上げる}}
 11
1.000000000000000
 21
0.0000000000000000
 31
0.0000000000000000
  7
KNJYOKO
  0
INSERT
  5
3FD
100
AcDbEntity
  8
MAIN0
  6
CONTINUOUS
 62
3
100
AcDbBlockReference
  2
M4
 10
0.0000000000000000
 20
0.0000000000000000
 30
0.0000000000000000
 50
0.0000000000000000
  0
MTEXT
  5
3FE
100
AcDbEntity
  8
MAIN0
  6
CONTINUOUS
 62
3
100
AcDbMText
 10
577.1410656696562
 20
127.3927170428455
 30
0.0000000000000000
 40
6.199999809265137
 41
0.0000000000000000
 71
     1
 72
     1
  1
{\H0.81x;{15.0}}
 11
1.000000000000000
 21
0.0000000000000000
 31
0.0000000000000000
  7
STANDARD
  0
MTEXT
  5
3FF
100
AcDbEntity
  8
MAIN0
  6
CONTINUOUS
 62
3
100
AcDbMText
 10
571.1410656696562
 20
116.3927170428452
 30
0.0000000000000000
 40
6.199999809265137
 41
0.0000000000000000
 71
     1
 72
     1
  1
{\H0.88x;{16}}
 11
1.000000000000000
 21
0.0000000000000000
 31
0.0000000000000000
  7
STANDARD
  0
MTEXT
  5
400
100
AcDbEntity
  8
MAIN0
  6
CONTINUOUS
 62
3
100
AcDbMText
 10
577.1410656696562
 20
107.3927170428452
 30
0.0000000000000000
 40
6.199999809265137
 41
0.0000000000000000
 71
     1
 72
     1
  1
{\H0.91x;{1632}}
 11
1.000000000000000
 21
0.0000000000000000
 31
0.0000000000000000
  7
STANDARD
  0
MTEXT
  5
401
100
AcDbEntity
  8
MAIN0
  6
CONTINUOUS
 62
3
100
AcDbMText
 10
571.1410656696562
 20
95.39271704284522
 30
0.0000000000000000
 40
6.199999809265137
 41
0.0000000000000000
 71
     1
 72
     1
  1
{\H0.91x;{2000}}
 11
1.000000000000000
 21
0.0000000000000000
 31
0.0000000000000000
  7
STANDARD
  0
MTEXT
  5
402
100
AcDbEntity
  8
MAIN0
  6
CONTINUOUS
 62
3
100
AcDbMText
 10
571.1410656696562
 20
81.39271704284522
 30
0.0000000000000000
 40
6.199999809265137
 41
0.0000000000000000
 71
     1
 72
     1
  1
{\H0.81x;{39.1}}
 11
1.000000000000000
 21
0.0000000000000000
 31
0.0000000000000000
  7
STANDARD
  0
MTEXT
  5
403
100
AcDbEntity
  8
MAIN0
  6
CONTINUOUS
 62
3
100
AcDbMText
 10
571.1410656696562
 20
136.3927170428455
 30
0.0000000000000000
 40
6.199999809265137
 41
0.0000000000000000
 71
     1
 72
     1
  1
{\H0.90x;{147\P}
 11
1.000000000000000
 21
0.0000000000000000
 31
0.0000000000000000
  7
STANDARD
  0
MTEXT
  5
404
100
AcDbEntity
  8
MAIN0
  6
CONTINUOUS
 62
3
100
AcDbMText
 10
571.1410656696562
 20
66.39271704284522
 30
0.0000000000000000
 40
6.199999809265137
 41
0.0000000000000000
 71
     1
 72
     1
  1
{\H0.84x;{0.400}}
 11
1.000000000000000
 21
0.0000000000000000
 31
0.0000000000000000
  7
STANDARD
  0
LINE
  5
405
100
AcDbEntity
  8
MAIN0
  6
CONTINUOUS
 62
3
100
AcDbLine
 10
473.1410656696563
 20
51.19271723357355
 30
0.0000000000000000
 11
627.1410656696562
 21
51.19271723357360
 31
0.0000000000000000
  0
LINE
  5
406
100
AcDbEntity
  8
MAIN0
  6
HIDDEN
 62
3
100
AcDbLine
 10
313.0626694635513
 20
639.9999999999976
 30
0.0000000000000000
 11
313.0626694635513
 21
651.9999999999900
 31
0.0000000000000000
  0
LINE
  5
407
100
AcDbEntity
  8
MAIN0
  6
HIDDEN
 62
3
100
AcDbLine
 10
297.0626694635513
 20
652.0000000000057
 30
0.0000000000000000
 11
297.0626694635513
 21
639.9999999999976
 31
0.0000000000000000
  0
LINE
  5
408
100
AcDbEntity
  8
MAIN0
  6
HIDDEN
 62
3
100
AcDbLine
 10
297.0626694635513
 20
639.9999999999976
 30
0.0000000000000000
 11
313.0626694635513
 21
639.9999999999976
 31
0.0000000000000000
  0
LINE
  5
409
100
AcDbEntity
  8
MAIN0
  6
HIDDEN
 62
3
100
AcDbLine
 10
297.0626694635511
 20
639.9999999999976
 30
0.0000000000000000
 11
305.0626694635511
 21
635.3811978464806
 31
0.0000000000000000
  0
LINE
  5
40A
100
AcDbEntity
  8
MAIN0
  6
HIDDEN
 62
3
100
AcDbLine
 10
305.0626694635512
 20
635.3811978464808
 30
0.0000000000000000
 11
313.0626694635512
 21
639.9999999999977
 31
0.0000000000000000
  0
POINT
  5
40B
100
AcDbEntity
  8
MAIN0
  6
CONTINUOUS
 62
3
100
AcDbPoint
 10
519.5571576927414
 20
700.3650839472954
 30
0.0000000000000000
  0
POINT
  5
40C
100
AcDbEntity
  8
MAIN0
  6
CONTINUOUS
 62
3
100
AcDbPoint
 10
538.8904910260746
 20
700.3650839472953
 30
0.0000000000000000
  0
LINE
  5
40D
100
AcDbEntity
  8
MAIN0
  6
CONTINUOUS
 62
3
100
AcDbLine
 10
555.8904910260751
 20
708.7650839472952
 30
0.0000000000000000
 11
502.5571576927416
 21
708.7650839472954
 31
0.0000000000000000
  0
LINE
  5
40E
100
AcDbEntity
  8
MAIN0
  6
CENTER
 62
12
100
AcDbLine
 10
529.2238243594081
 20
688.7650839472954
 30
0.0000000000000000
 11
529.2238243594084
 21
715.4317506139621
 31
0.0000000000000000
  0
LINE
  5
40F
100
AcDbEntity
  8
MAIN0
  6
CONTINUOUS
 62
3
100
AcDbLine
 10
516.3571576927417
 20
700.3650839472954
 30
0.0000000000000000
 11
542.0904910260751
 21
700.3650839472953
 31
0.0000000000000000
  0
LINE
  5
410
100
AcDbEntity
  8
MAIN0
  6
CONTINUOUS
 62
3
100
AcDbLine
 10
515.8238243594080
 20
708.7650839472951
 30
0.0000000000000000
 11
516.3571576927415
 21
708.2317506139617
 31
0.0000000000000000
  0
LINE
  5
411
100
AcDbEntity
  8
MAIN0
  6
CONTINUOUS
 62
3
100
AcDbLine
 10
542.6238243594085
 20
708.7650839472954
 30
0.0000000000000000
 11
542.0904910260749
 21
708.2317506139619
 31
0.0000000000000000
  0
LINE
  5
412
100
AcDbEntity
  8
MAIN0
  6
CONTINUOUS
 62
3
100
AcDbLine
 10
516.3571576927413
 20
700.3650839472954
 30
0.0000000000000000
 11
516.3571576927413
 21
708.2317506139618
 31
0.0000000000000000
  0
LINE
  5
413
100
AcDbEntity
  8
MAIN0
  6
CONTINUOUS
 62
3
100
AcDbLine
 10
542.0904910260749
 20
700.3650839472953
 30
0.0000000000000000
 11
542.0904910260749
 21
708.2317506139618
 31
0.0000000000000000
  0
LEADER
  5
414
100
AcDbEntity
  8
MAIN0
  6
CONTINUOUS
 62
3
100
AcDbLeader
  3
MAIN001
 73
     0
 75
     1
 40
6.199999809265137
 41
47.95900111103060
 76
     3
 10
616.0772114004797
 20
514.9792035764206
 30
0.0000000000000000
 10
552.5433758046189
 20
676.1507726716254
 30
0.0000000000000000
 10
548.6903759161988
 20
676.1507726716254
 30
0.0000000000000000
340
415
213
0.0000000000000000
223
-1.000000000000000
233
0.0000000000000000
1001
ACAD
1000
DSTYLE
1002
{
1070
   147
1040
0.0
1070
    77
1070
     1
1070
   173
1070
     1
1070
     6
1000
_OPEN
1070
     7
1000
_OPEN
1002
}
  0
MTEXT
  5
415
102
{ACAD_REACTORS
330
414
102
}
100
AcDbEntity
  8
MAIN0
  6
CONTINUOUS
 62
3
100
AcDbMText
 10
500.7313748051682
 20
683.3507724808906
 30
0.0000000000000000
 40
6.199999809265137
 41
0.0000000000000000
 71
     1
 72
     1
  1
{\H0.93x;{ドライブピン穴\P(1ヶ所)}}
 11
1.000000000000000
 21
0.0000000000000000
 31
0.0000000000000000
  7
KNJYOKO
  0
LINE
  5
416
100
AcDbEntity
  8
MAIN1
  6
CONTINUOUS
 62
3
100
AcDbLine
 10
516.3571576927415
 20
709.0317506258828
 30
0.0000000000000000
 11
516.3571576927418
 21
722.6911900624775
 31
0.0000000000000000
  0
LINE
  5
417
100
AcDbEntity
  8
MAIN1
  6
CONTINUOUS
 62
3
100
AcDbLine
 10
513.3571576927417
 20
722.0984172806286
 30
0.0000000000000000
 11
545.0904910260748
 21
722.0984172806284
 31
0.0000000000000000
  0
LINE
  5
418
100
AcDbEntity
  8
MAIN1
  6
CONTINUOUS
 62
3
100
AcDbLine
 10
512.3571576927417
 20
723.2984173283123
 30
0.0000000000000000
 11
516.3571576927417
 21
722.0984172806286
 31
0.0000000000000000
  0
LINE
  5
419
100
AcDbEntity
  8
MAIN1
  6
CONTINUOUS
 62
3
100
AcDbLine
 10
516.3571576927417
 20
722.0984172806286
 30
0.0000000000000000
 11
512.3571576927417
 21
720.8984172329449
 31
0.0000000000000000
  0
LINE
  5
41A
100
AcDbEntity
  8
MAIN1
  6
CONTINUOUS
 62
3
100
AcDbLine
 10
546.0904910260748
 20
723.2984173283121
 30
0.0000000000000000
 11
542.0904910260748
 21
722.0984172806284
 31
0.0000000000000000
  0
LINE
  5
41B
100
AcDbEntity
  8
MAIN1
  6
CONTINUOUS
 62
3
100
AcDbLine
 10
542.0904910260748
 20
722.0984172806284
 30
0.0000000000000000
 11
546.0904910260748
 21
720.8984172329447
 31
0.0000000000000000
  0
MTEXT
  5
41C
100
AcDbEntity
  8
MAIN1
  6
CONTINUOUS
 62
3
100
AcDbMText
 10
522.8738241865548
 20
723.0984172806288
 30
0.0000000000000000
 40
6.199999809265137
 41
0.0000000000000000
 71
     8
 72
     1
  1
{\U+220519.3}
 11
1.000000000000000
 21
0.0000000000000000
 31
0.0000000000000000
  7
STANDARD
  0
MTEXT
  5
41D
100
AcDbEntity
  8
MAIN1
  6
CONTINUOUS
 62
3
100
AcDbMText
 10
539.2238243668589
 20
728.6984171852613
 30
0.0000000000000000
 40
5.599999904632568
 41
0.0000000000000000
 71
     8
 72
     1
  1
{+0.1}
 11
1.000000000000000
 21
0.0000000000000000
 31
0.0000000000000000
  7
STANDARD
  0
MTEXT
  5
41E
100
AcDbEntity
  8
MAIN1
  6
CONTINUOUS
 62
3
100
AcDbMText
 10
536.4738242923530
 20
723.0984172806287
 30
0.0000000000000000
 40
5.599999904632568
 41
0.0000000000000000
 71
     8
 72
     1
  1
{ 0}
 11
1.000000000000000
 21
0.0000000000000000
 31
0.0000000000000000
  7
STANDARD
  0
LINE
  5
41F
100
AcDbEntity
  8
MAIN1
  6
CONTINUOUS
 62
3
100
AcDbLine
 10
542.0904910260749
 20
709.0317506258828
 30
0.0000000000000000
 11
542.0904910260749
 21
722.6409059748194
 31
0.0000000000000000
  0
LINE
  5
420
100
AcDbEntity
  8
MAIN0
  6
CONTINUOUS
 62
3
100
AcDbLine
 10
556.6904910379960
 20
708.7650839472952
 30
0.0000000000000000
 11
564.5571576927416
 21
708.7650839472952
 31
0.0000000000000000
  0
LINE
  5
421
100
AcDbEntity
  8
MAIN0
  6
CONTINUOUS
 62
3
100
AcDbLine
 10
562.5571576927416
 20
721.2298714305106
 30
0.0000000000000000
 11
562.5571576927416
 21
697.3650839472953
 31
0.0000000000000000
  0
LINE
  5
422
100
AcDbEntity
  8
MAIN0
  6
CONTINUOUS
 62
3
100
AcDbLine
 10
563.7571577404253
 20
712.7650839472952
 30
0.0000000000000000
 11
562.5571576927416
 21
708.7650839472952
 31
0.0000000000000000
  0
LINE
  5
423
100
AcDbEntity
  8
MAIN0
  6
CONTINUOUS
 62
3
100
AcDbLine
 10
562.5571576927416
 20
708.7650839472952
 30
0.0000000000000000
 11
561.3571576450579
 21
712.7650839472952
 31
0.0000000000000000
  0
LINE
  5
424
100
AcDbEntity
  8
MAIN0
  6
CONTINUOUS
 62
3
100
AcDbLine
 10
563.7571577404253
 20
696.3650839472953
 30
0.0000000000000000
 11
562.5571576927416
 21
700.3650839472953
 31
0.0000000000000000
  0
LINE
  5
425
100
AcDbEntity
  8
MAIN0
  6
CONTINUOUS
 62
3
100
AcDbLine
 10
562.5571576927416
 20
700.3650839472953
 30
0.0000000000000000
 11
561.3571576450579
 21
696.3650839472953
 31
0.0000000000000000
  0
MTEXT
  5
426
100
AcDbEntity
  8
MAIN0
  6
CONTINUOUS
 62
3
100
AcDbMText
 10
561.2238243594084
 20
715.6946579474356
 30
0.0000000000000000
 40
6.199999809265137
 41
0.0000000000000000
 71
     8
 72
     1
  1
{\H0.58x;{6.3}}
 11
6.123233995736766e-017
 21
1.000000000000000
 31
0.0000000000000000
  7
STANDARD
  0
MTEXT
  5
427
100
AcDbEntity
  8
MAIN0
  6
CONTINUOUS
 62
3
100
AcDbMText
 10
555.6238244547758
 20
727.3446581247595
 30
0.0000000000000000
 40
5.599999904632568
 41
0.0000000000000000
 71
     8
 72
     1
  1
{+0.4}
 11
6.123233995736766e-017
 21
1.000000000000000
 31
0.0000000000000000
  7
STANDARD
  0
MTEXT
  5
428
100
AcDbEntity
  8
MAIN0
  6
CONTINUOUS
 62
3
100
AcDbMText
 10
561.2238243594084
 20
724.5946580502537
 30
0.0000000000000000
 40
5.599999904632568
 41
0.0000000000000000
 71
     8
 72
     1
  1
{ 0}
 11
6.123233995736766e-017
 21
1.000000000000000
 31
0.0000000000000000
  7
STANDARD
  0
LINE
  5
429
100
AcDbEntity
  8
MAIN0
  6
CONTINUOUS
 62
3
100
AcDbLine
 10
542.8904910379958
 20
700.3650839472953
 30
0.0000000000000000
 11
564.5571576927416
 21
700.3650839472953
 31
0.0000000000000000
  0
LINE
  5
42A
100
AcDbEntity
  8
MAIN0
  6
CONTINUOUS
 62
3
100
AcDbLine
 10
473.1410656696562
 20
153.1927172335318
 30
0.0000000000000000
 11
627.1410656696562
 21
153.1927172335803
 31
0.0000000000000000
  0
LINE
  5
42B
100
AcDbEntity
  8
MAIN0
  6
CONTINUOUS
 62
3
100
AcDbLine
 10
473.1410656696561
 20
139.1927172336464
 30
0.0000000000000000
 11
627.1410656696562
 21
139.1927172336921
 31
0.0000000000000000
  0
LINE
  5
42C
100
AcDbEntity
  8
MAIN0
  6
CONTINUOUS
 62
3
100
AcDbLine
 10
473.1410656696563
 20
119.1927172336332
 30
0.0000000000000000
 11
627.1410656696562
 21
119.1927172336695
 31
0.0000000000000000
  0
LINE
  5
42D
100
AcDbEntity
  8
MAIN0
  6
CONTINUOUS
 62
3
100
AcDbLine
 10
473.1410656696560
 20
99.19271723362726
 30
0.0000000000000000
 11
627.1410656696561
 21
99.19271723365966
 31
0.0000000000000000
  0
LINE
  5
42E
100
AcDbEntity
  8
MAIN0
  6
CONTINUOUS
 62
3
100
AcDbLine
 10
473.1410656696561
 20
85.19271723362334
 30
0.0000000000000000
 11
627.1410656696562
 21
85.19271723365290
 31
0.0000000000000000
  0
LINE
  5
42F
100
AcDbEntity
  8
MAIN0
  6
CONTINUOUS
 62
3
100
AcDbLine
 10
473.1410656696561
 20
71.19271723361931
 30
0.0000000000000000
 11
627.1410656696562
 21
71.19271723364614
 31
0.0000000000000000
  0
LINE
  5
430
100
AcDbEntity
  8
MAIN0
  6
CONTINUOUS
 62
3
100
AcDbLine
 10
473.1410656696562
 20
51.19271723357355
 30
0.0000000000000000
 11
473.1410656696562
 21
153.1927172335803
 31
0.0000000000000000
  0
LINE
  5
431
100
AcDbEntity
  8
MAIN0
  6
CONTINUOUS
 62
3
100
AcDbLine
 10
567.1410656696562
 20
51.19271723357355
 30
0.0000000000000000
 11
567.1410656696562
 21
139.1927172336743
 31
0.0000000000000000
  0
LINE
  5
432
100
AcDbEntity
  8
MAIN0
  6
CONTINUOUS
 62
3
100
AcDbLine
 10
627.1410656696562
 20
51.19271723357360
 30
0.0000000000000000
 11
627.1410656696562
 21
153.1927172335803
 31
0.0000000000000000
  0
POINT
  5
433
100
AcDbEntity
  8
MAIN0
  6
CONTINUOUS
 62
3
100
AcDbPoint
 10
577.1410656696562
 20
121.1927172335803
 30
0.0000000000000000
  0
POINT
  5
434
100
AcDbEntity
  8
MAIN0
  6
CONTINUOUS
 62
3
100
AcDbPoint
 10
577.1410656696562
 20
101.1927172335801
 30
0.0000000000000000
  0
POINT
  5
435
100
AcDbEntity
  8
MAIN0
  6
CONTINUOUS
 62
3
100
AcDbPoint
 10
571.1410656696562
 20
130.1927172335803
 30
0.0000000000000000
  0
POINT
  5
436
100
AcDbEntity
  8
MAIN0
  6
CONTINUOUS
 62
3
100
AcDbPoint
 10
571.1410656696562
 20
110.1927172335801
 30
0.0000000000000000
  0
POINT
  5
437
100
AcDbEntity
  8
MAIN0
  6
CONTINUOUS
 62
3
100
AcDbPoint
 10
571.1410656696562
 20
89.19271723358008
 30
0.0000000000000000
  0
POINT
  5
438
100
AcDbEntity
  8
MAIN0
  6
CONTINUOUS
 62
3
100
AcDbPoint
 10
571.1410656696562
 20
75.19271723358008
 30
0.0000000000000000
  0
POINT
  5
439
100
AcDbEntity
  8
MAIN0
  6
CONTINUOUS
 62
3
100
AcDbPoint
 10
571.1410656696562
 20
60.19271723358008
 30
0.0000000000000000
  0
MTEXT
  5
43A
100
AcDbEntity
  8
MAIN0
  6
CONTINUOUS
 62
3
100
AcDbMText
 10
477.1410656696563
 20
132.3927179965197
 30
0.0000000000000000
 40
6.200000762939453
 41
0.0000000000000000
 71
     1
 72
     1
  1
{\H0.94x;{許容最大ハンドルトルク}}
 11
1.000000000000000
 21
0.0000000000000000
 31
0.0000000000000000
  7
KNJYOKO
  0
MTEXT
  5
43B
100
AcDbEntity
  8
MAIN0
  6
CONTINUOUS
 62
3
100
AcDbMText
 10
477.1410656696563
 20
115.6985923444565
 30
0.0000000000000000
 40
6.200000762939453
 41
0.0000000000000000
 71
     1
 72
     1
  1
{\H0.94x;{最大静的把握力\P（ジョー１ケの締付力）}}
 11
1.000000000000000
 21
0.0000000000000000
 31
0.0000000000000000
  7
KNJYOKO
  0
MTEXT
  5
43C
100
AcDbEntity
  8
MAIN0
  6
CONTINUOUS
 62
3
100
AcDbMText
 10
477.1410656696562
 20
95.39271799656285
 30
0.0000000000000000
 40
6.200000762939453
 41
0.0000000000000000
 71
     1
 72
     1
  1
{\H0.94x;{許容最高回転速度}}
 11
1.000000000000000
 21
0.0000000000000000
 31
0.0000000000000000
  7
KNJYOKO
  0
MTEXT
  5
43D
100
AcDbEntity
  8
MAIN0
  6
CONTINUOUS
 62
3
100
AcDbMText
 10
477.1410656696563
 20
81.39271799655876
 30
0.0000000000000000
 40
6.200000762939453
 41
0.0000000000000000
 71
     1
 72
     1
  1
{\H0.90x;{質量}}
 11
1.000000000000000
 21
0.0000000000000000
 31
0.0000000000000000
  7
KNJYOKO
  0
MTEXT
  5
43E
100
AcDbEntity
  8
MAIN0
  6
CONTINUOUS
 62
3
100
AcDbMText
 10
477.1410656696563
 20
64.39271799651937
 30
0.0000000000000000
 40
6.200000762939453
 41
0.0000000000000000
 71
     1
 72
     1
  1
{\H0.94x;{慣性モーメント}}
 11
1.000000000000000
 21
0.0000000000000000
 31
0.0000000000000000
  7
KNJYOKO
  0
POINT
  5
43F
100
AcDbEntity
  8
MAIN0
  6
CONTINUOUS
 62
3
100
AcDbPoint
 10
522.0178202636846
 20
141.2939538763787
 30
0.0000000000000000
  0
MTEXT
  5
440
100
AcDbEntity
  8
MAIN0
  6
CONTINUOUS
 62
3
100
AcDbMText
 10
522.0178202636846
 20
151.8939542578485
 30
0.0000000000000000
 40
10.60000038146973
 41
0.0000000000000000
 71
     1
 72
     1
  1
{\H0.93x;{仕　　　様}}
 11
1.000000000000000
 21
0.0000000000000000
 31
0.0000000000000000
  7
KNJYOKO
  0
MTEXT
  5
441
100
AcDbEntity
  8
MAIN0
  6
CONTINUOUS
 62
3
100
AcDbMText
 10
597.1410656696562
 20
133.7927157077014
 30
0.0000000000000000
 40
5.599998474121094
 41
0.0000000000000000
 71
     1
 72
     1
  1
{\H0.58x;{　　　Ｎ・ｍ}}
 11
1.000000000000000
 21
0.0000000000000000
 31
0.0000000000000000
  7
KNJYOKO
  0
MTEXT
  5
442
100
AcDbEntity
  8
MAIN0
  6
CONTINUOUS
 62
3
100
AcDbMText
 10
571.1410656696562
 20
125.7927157077014
 30
0.0000000000000000
 40
5.599998474121094
 41
0.0000000000000000
 71
     1
 72
     1
  1
{\H0.48x;{（}}
 11
1.000000000000000
 21
0.0000000000000000
 31
0.0000000000000000
  7
KNJYOKO
  0
MTEXT
  5
443
100
AcDbEntity
  8
MAIN0
  6
CONTINUOUS
 62
3
100
AcDbMText
 10
595.1410656696562
 20
125.7927157077014
 30
0.0000000000000000
 40
5.599998474121094
 41
0.0000000000000000
 71
     1
 72
     1
  1
{\H0.58x;{　ｋｇｆ・ｍ）}}
 11
1.000000000000000
 21
0.0000000000000000
 31
0.0000000000000000
  7
KNJYOKO
  0
MTEXT
  5
444
100
AcDbEntity
  8
MAIN0
  6
CONTINUOUS
 62
3
100
AcDbMText
 10
597.1410656696562
 20
92.79271570770118
 30
0.0000000000000000
 40
5.599998474121094
 41
0.0000000000000000
 71
     1
 72
     1
  1
{\H0.57x;{　ｍｉｎ}}
 11
1.000000000000000
 21
0.0000000000000000
 31
0.0000000000000000
  7
KNJYOKO
  0
MTEXT
  5
445
100
AcDbEntity
  8
MAIN0
  6
CONTINUOUS
 62
3
100
AcDbMText
 10
597.1410656696562
 20
78.79271570770118
 30
0.0000000000000000
 40
5.599998474121094
 41
0.0000000000000000
 71
     1
 72
     1
  1
{\H0.58x;{　　　　ｋｇ}}
 11
1.000000000000000
 21
0.0000000000000000
 31
0.0000000000000000
  7
KNJYOKO
  0
MTEXT
  5
446
100
AcDbEntity
  8
MAIN0
  6
CONTINUOUS
 62
3
100
AcDbMText
 10
597.1410656696562
 20
65.79271570770118
 30
0.0000000000000000
 40
5.599998474121094
 41
0.0000000000000000
 71
     1
 72
     1
  1
{\H0.64x;{　　kg・m}}
 11
1.000000000000000
 21
0.0000000000000000
 31
0.0000000000000000
  7
KNJYOKO
  0
MTEXT
  5
447
100
AcDbEntity
  8
MAIN0
  6
CONTINUOUS
 62
3
100
AcDbMText
 10
597.1410656696562
 20
113.7927157077012
 30
0.0000000000000000
 40
5.599998474121094
 41
0.0000000000000000
 71
     1
 72
     1
  1
{\H0.58x;{　　　　ｋＮ}}
 11
1.000000000000000
 21
0.0000000000000000
 31
0.0000000000000000
  7
KNJYOKO
  0
MTEXT
  5
448
100
AcDbEntity
  8
MAIN0
  6
CONTINUOUS
 62
3
100
AcDbMText
 10
571.1410656696562
 20
105.7927157077012
 30
0.0000000000000000
 40
5.599998474121094
 41
0.0000000000000000
 71
     1
 72
     1
  1
{\H0.48x;{（}}
 11
1.000000000000000
 21
0.0000000000000000
 31
0.0000000000000000
  7
KNJYOKO
  0
MTEXT
  5
449
100
AcDbEntity
  8
MAIN0
  6
CONTINUOUS
 62
3
100
AcDbMText
 10
595.1410656696562
 20
105.7927157077012
 30
0.0000000000000000
 40
5.599998474121094
 41
0.0000000000000000
 71
     1
 72
     1
  1
{\H0.58x;{　　　ｋｇｆ）}}
 11
1.000000000000000
 21
0.0000000000000000
 31
0.0000000000000000
  7
KNJYOKO
  0
MTEXT
  5
44A
100
AcDbEntity
  8
MAIN0
  6
CONTINUOUS
 62
3
100
AcDbMText
 10
617.4504021662960
 20
94.13180481349070
 30
0.0000000000000000
 40
4.000000000000000
 41
0.0000000000000000
 71
     1
 72
     1
  1
{\H0.88x;{-1}}
 11
1.000000000000000
 21
0.0000000000000000
 31
0.0000000000000000
  7
STANDARD
  0
MTEXT
  5
44B
100
AcDbEntity
  8
MAIN0
  6
CONTINUOUS
 62
3
100
AcDbMText
 10
620.9621576189031
 20
66.30385688996478
 30
0.0000000000000000
 40
4.000000000000000
 41
0.0000000000000000
 71
     1
 72
     1
  1
{\H0.81x;{2}}
 11
1.000000000000000
 21
0.0000000000000000
 31
0.0000000000000000
  7
STANDARD
  0
LINE
  5
44C
100
AcDbEntity
  8
WAKU0
  6
CONTINUOUS
 62
3
100
AcDbLine
 10
824.0000000000000
 20
102.0000000000000
 30
0.0000000000000000
 11
1164.000000000000
 21
102.0000000000000
 31
0.0000000000000000
  0
LINE
  5
44D
100
AcDbEntity
  8
WAKU0
  6
CONTINUOUS
 62
3
100
AcDbLine
 10
824.0000000000000
 20
102.0000000000000
 30
0.0000000000000000
 11
824.0000000000000
 21
24.00000000000000
 31
0.0000000000000000
  0
LINE
  5
44E
100
AcDbEntity
  8
WAKU0
  6
CONTINUOUS
 62
3
100
AcDbLine
 10
968.0000000000000
 20
102.0000000000000
 30
0.0000000000000000
 11
968.0000000000000
 21
24.00000000000000
 31
0.0000000000000000
  0
LINE
  5
44F
100
AcDbEntity
  8
WAKU0
  6
CONTINUOUS
 62
3
100
AcDbLine
 10
1008.000000000000
 20
102.0000000000000
 30
0.0000000000000000
 11
1008.000000000000
 21
24.00000000000000
 31
0.0000000000000000
  0
LINE
  5
450
100
AcDbEntity
  8
WAKU0
  6
CONTINUOUS
 62
3
100
AcDbLine
 10
1032.000000000000
 20
102.0000000000000
 30
0.0000000000000000
 11
1032.000000000000
 21
24.00000000000000
 31
0.0000000000000000
  0
LINE
  5
451
100
AcDbEntity
  8
WAKU0
  6
CONTINUOUS
 62
3
100
AcDbLine
 10
1032.000000000000
 20
74.00000000000000
 30
0.0000000000000000
 11
1164.000000000000
 21
74.00000000000000
 31
0.0000000000000000
  0
LINE
  5
452
100
AcDbEntity
  8
WAKU0
  6
CONTINUOUS
 62
3
100
AcDbLine
 10
1008.000000000000
 20
46.00000000000000
 30
0.0000000000000000
 11
1164.000000000000
 21
46.00000000000000
 31
0.0000000000000000
  0
LINE
  5
453
100
AcDbEntity
  8
WAKU0
  6
CONTINUOUS
 62
3
100
AcDbLine
 10
1094.000000000000
 20
102.0000000000000
 30
0.0000000000000000
 11
1094.000000000000
 21
88.00000000000000
 31
0.0000000000000000
  0
LINE
  5
454
100
AcDbEntity
  8
WAKU0
  6
CONTINUOUS
 62
3
100
AcDbLine
 10
1118.000000000000
 20
102.0000000000000
 30
0.0000000000000000
 11
1118.000000000000
 21
88.00000000000000
 31
0.0000000000000000
  0
LINE
  5
455
100
AcDbEntity
  8
WAKU0
  6
CONTINUOUS
 62
3
100
AcDbLine
 10
968.0000000000000
 20
63.00000000000000
 30
0.0000000000000000
 11
1008.000000000000
 21
63.00000000000000
 31
0.0000000000000000
  0
LINE
  5
456
100
AcDbEntity
  8
WAKU0
  6
CONTINUOUS
 62
3
100
AcDbLine
 10
1008.000000000000
 20
88.00000000000000
 30
0.0000000000000000
 11
1164.000000000000
 21
88.00000000000000
 31
0.0000000000000000
  0
LINE
  5
457
100
AcDbEntity
  8
WAKU0
  6
CONTINUOUS
 62
3
100
AcDbLine
 10
824.0000000000000
 20
74.00000000000000
 30
0.0000000000000000
 11
968.0000000000000
 21
74.00000000000000
 31
0.0000000000000000
  0
LINE
  5
458
100
AcDbEntity
  8
WAKU0
  6
CONTINUOUS
 62
3
100
AcDbLine
 10
824.0000000000000
 20
46.00000000000000
 30
0.0000000000000000
 11
968.0000000000000
 21
46.00000000000000
 31
0.0000000000000000
  0
LINE
  5
459
100
AcDbEntity
  8
WAKU0
  6
CONTINUOUS
 62
3
100
AcDbLine
 10
920.0000000000000
 20
74.00000000000000
 30
0.0000000000000000
 11
920.0000000000000
 21
24.00000000000000
 31
0.0000000000000000
  0
LINE
  5
45A
100
AcDbEntity
  8
WAKU0
  6
CONTINUOUS
 62
3
100
AcDbLine
 10
872.0000000000000
 20
74.00000000000000
 30
0.0000000000000000
 11
872.0000000000000
 21
46.00000000000000
 31
0.0000000000000000
  0
LINE
  5
45B
100
AcDbEntity
  8
WAKU0
  6
CONTINUOUS
 62
3
100
AcDbLine
 10
944.0000000000000
 20
52.00000000000000
 30
0.0000000000000000
 11
944.0000000000000
 21
46.00000000000000
 31
0.0000000000000000
  0
LINE
  5
45C
100
AcDbEntity
  8
WAKU0
  6
CONTINUOUS
 62
3
100
AcDbLine
 10
896.0000000000000
 20
52.00000000000000
 30
0.0000000000000000
 11
896.0000000000000
 21
46.00000000000000
 31
0.0000000000000000
  0
LINE
  5
45D
100
AcDbEntity
  8
WAKU0
  6
CONTINUOUS
 62
3
100
AcDbLine
 10
848.0000000000000
 20
52.00000000000000
 30
0.0000000000000000
 11
848.0000000000000
 21
46.00000000000000
 31
0.0000000000000000
  0
LINE
  5
45E
100
AcDbEntity
  8
WAKU0
  6
CONTINUOUS
 62
3
100
AcDbLine
 10
860.0000000000000
 20
102.0000000000000
 30
0.0000000000000000
 11
860.0000000000000
 21
74.00000000000000
 31
0.0000000000000000
  0
LINE
  5
45F
100
AcDbEntity
  8
WAKU0
  6
CONTINUOUS
 62
3
100
AcDbLine
 10
824.0000000000000
 20
90.00000000000000
 30
0.0000000000000000
 11
968.0000000000000
 21
90.00000000000000
 31
0.0000000000000000
  0
LINE
  5
460
100
AcDbEntity
  8
WAKU0
  6
HIDDEN
 62
3
100
AcDbLine
 10
1065.000000000000
 20
46.00000000000000
 30
0.0000000000000000
 11
1065.000000000000
 21
24.00000000000000
 31
0.0000000000000000
  0
LINE
  5
461
100
AcDbEntity
  8
WAKU0
  6
HIDDEN
 62
3
100
AcDbLine
 10
1089.800000000000
 20
46.00000000000000
 30
0.0000000000000000
 11
1089.800000000000
 21
24.00000000000000
 31
0.0000000000000000
  0
MTEXT
  5
462
100
AcDbEntity
  8
WAKU0
  6
CONTINUOUS
 62
3
100
AcDbMText
 10
1032.964000046253
 20
98.09999990463257
 30
0.0000000000000000
 40
6.199999809265137
 41
0.0000000000000000
 71
     1
 72
     1
  1
{\H0.93x;{IA6-300-0}}
 11
1.000000000000000
 21
0.0000000000000000
 31
0.0000000000000000
  7
STANDARD
  0
MTEXT
  5
463
100
AcDbEntity
  8
WAKU0
  6
CONTINUOUS
 62
3
100
AcDbMText
 10
1033.240000009537
 20
69.66666666666666
 30
0.0000000000000000
 40
8.000000000000000
 41
0.0000000000000000
 71
     1
 72
     1
  1
{\H0.94x;{ＩＡ６－３００－０\P　ガイケイ}}
 11
1.000000000000000
 21
0.0000000000000000
 31
0.0000000000000000
  7
KNJYOKO
  0
MTEXT
  5
464
100
AcDbEntity
  8
WAKU0
  6
CONTINUOUS
 62
3
100
AcDbMText
 10
980.0099997520447
 20
78.59999990463257
 30
0.0000000000000000
 40
6.199999809265137
 41
0.0000000000000000
 71
     1
 72
     1
  1
{\H0.90x;{2:3}}
 11
1.000000000000000
 21
0.0000000000000000
 31
0.0000000000000000
  7
STANDARD
  0
MTEXT
  5
465
100
AcDbEntity
  8
WAKU0
  6
CONTINUOUS
 62
3
100
AcDbMText
 10
1092.800000309944
 20
40.30000019073486
 30
0.0000000000000000
 40
10.60000038146973
 41
0.0000000000000000
 71
     1
 72
     1
  1
{\H0.90x;{2420}}
 11
1.000000000000000
 21
0.0000000000000000
 31
0.0000000000000000
  7
STANDARD
  0
MTEXT
  5
466
100
AcDbEntity
  8
WAKU0
  6
CONTINUOUS
 62
3
100
AcDbMText
 10
1068.600000166893
 20
40.30000019073486
 30
0.0000000000000000
 40
10.60000038146973
 41
0.0000000000000000
 71
     1
 72
     1
  1
{\H0.87x;{29}}
 11
1.000000000000000
 21
0.0000000000000000
 31
0.0000000000000000
  7
STANDARD
  0
MTEXT
  5
467
100
AcDbEntity
  8
WAKU0
  6
CONTINUOUS
 62
3
100
AcDbMText
 10
1035.000000238419
 20
40.30000019073486
 30
0.0000000000000000
 40
10.60000038146973
 41
0.0000000000000000
 71
     1
 72
     1
  1
{\H0.89x;{61T}}
 11
1.000000000000000
 21
0.0000000000000000
 31
0.0000000000000000
  7
STANDARD
  0
MTEXT
  5
468
100
AcDbEntity
  8
WAKU0
  6
CONTINUOUS
 62
3
100
AcDbMText
 10
1144.000000095367
 20
40.30000019073486
 30
0.0000000000000000
 40
10.60000038146973
 41
0.0000000000000000
 71
     1
 72
     1
  1
{\H0.81x;{1}}
 11
1.000000000000000
 21
0.0000000000000000
 31
0.0000000000000000
  7
STANDARD
  0
MTEXT
  5
469
100
AcDbEntity
  8
WAKU0
  6
CONTINUOUS
 62
3
100
AcDbMText
 10
1033.240000009537
 20
85.00000000000000
 30
0.0000000000000000
 40
8.000000000000000
 41
0.0000000000000000
 71
     1
 72
     1
  1
{\H0.94x;{四爪単動チャック　３００}}
 11
1.000000000000000
 21
0.0000000000000000
 31
0.0000000000000000
  7
KNJYOKO
  0
MTEXT
  5
46A
100
AcDbEntity
  8
WAKU0
  6
CONTINUOUS
 62
3
100
AcDbMText
 10
1144.000000163913
 20
100.3000001907349
 30
0.0000000000000000
 40
10.60000038146973
 41
0.0000000000000000
 71
     1
 72
     1
  1
{\H0.81x;{ }}
 11
1.000000000000000
 21
0.0000000000000000
 31
0.0000000000000000
  7
STANDARD
  0
MTEXT
  5
46B
100
AcDbEntity
  8
WAKU0
  6
CONTINUOUS
 62
3
100
AcDbMText
 10
828.4599996805191
 20
99.09999990463257
 30
0.0000000000000000
 40
6.199999809265137
 41
0.0000000000000000
 71
     1
 72
     1
  1
{\H0.92x;{図面来歴}}
 11
1.000000000000000
 21
0.0000000000000000
 31
0.0000000000000000
  7
KNJYOKO
  0
MTEXT
  5
46C
100
AcDbEntity
  8
WAKU0
  6
CONTINUOUS
 62
3
100
AcDbMText
 10
948.0099997520447
 20
72.09999990463257
 30
0.0000000000000000
 40
6.199999809265137
 41
0.0000000000000000
 71
     1
 72
     1
  1
{\H0.90x;{CAD}}
 11
1.000000000000000
 21
0.0000000000000000
 31
0.0000000000000000
  7
STANDARD
  0
MTEXT
  5
46D
100
AcDbEntity
  8
WAKU0
  6
CONTINUOUS
 62
3
100
AcDbMText
 10
925.4199998378754
 20
72.09999990463257
 30
0.0000000000000000
 40
6.199999809265137
 41
0.0000000000000000
 71
     1
 72
     1
  1
{\H0.89x;{設計}}
 11
1.000000000000000
 21
0.0000000000000000
 31
0.0000000000000000
  7
KNJYOKO
  0
MTEXT
  5
46E
100
AcDbEntity
  8
WAKU0
  6
CONTINUOUS
 62
3
100
AcDbMText
 10
901.4199998378754
 20
72.09999990463257
 30
0.0000000000000000
 40
6.199999809265137
 41
0.0000000000000000
 71
     1
 72
     1
  1
{\H0.89x;{主任}}
 11
1.000000000000000
 21
0.0000000000000000
 31
0.0000000000000000
  7
KNJYOKO
  0
MTEXT
  5
46F
100
AcDbEntity
  8
WAKU0
  6
CONTINUOUS
 62
3
100
AcDbMText
 10
877.4199998378754
 20
72.09999990463257
 30
0.0000000000000000
 40
6.199999809265137
 41
0.0000000000000000
 71
     1
 72
     1
  1
{\H0.89x;{係長}}
 11
1.000000000000000
 21
0.0000000000000000
 31
0.0000000000000000
  7
KNJYOKO
  0
MTEXT
  5
470
100
AcDbEntity
  8
WAKU0
  6
CONTINUOUS
 62
3
100
AcDbMText
 10
853.4199998378754
 20
72.09999990463257
 30
0.0000000000000000
 40
6.199999809265137
 41
0.0000000000000000
 71
     1
 72
     1
  1
{\H0.89x;{課長}}
 11
1.000000000000000
 21
0.0000000000000000
 31
0.0000000000000000
  7
KNJYOKO
  0
MTEXT
  5
471
100
AcDbEntity
  8
WAKU0
  6
CONTINUOUS
 62
3
100
AcDbMText
 10
829.4199998378754
 20
72.09999990463257
 30
0.0000000000000000
 40
6.199999809265137
 41
0.0000000000000000
 71
     1
 72
     1
  1
{\H0.89x;{部長}}
 11
1.000000000000000
 21
0.0000000000000000
 31
0.0000000000000000
  7
KNJYOKO
  0
MTEXT
  5
472
100
AcDbEntity
  8
WAKU0
  6
CONTINUOUS
 62
3
100
AcDbMText
 10
926.9799996018410
 20
44.09999990463257
 30
0.0000000000000000
 40
6.199999809265137
 41
0.0000000000000000
 71
     1
 72
     1
  1
{\H0.93x;{作成年月日}}
 11
1.000000000000000
 21
0.0000000000000000
 31
0.0000000000000000
  7
KNJYOKO
  0
MTEXT
  5
473
100
AcDbEntity
  8
WAKU0
  6
CONTINUOUS
 62
3
100
AcDbMText
 10
855.1000001430512
 20
40.30000019073486
 30
0.0000000000000000
 40
10.60000038146973
 41
0.0000000000000000
 71
     1
 72
     1
  1
{\H0.92x;{北川鉄工所}}
 11
1.000000000000000
 21
0.0000000000000000
 31
0.0000000000000000
  7
KNJYOKO
  0
MTEXT
  5
474
100
AcDbEntity
  8
WAKU0
  6
CONTINUOUS
 62
3
100
AcDbMText
 10
833.6399996578693
 20
42.46666653951009
 30
0.0000000000000000
 40
6.199999809265137
 41
0.0000000000000000
 71
     1
 72
     1
  1
{\H0.89x;{株式\P会社}}
 11
1.000000000000000
 21
0.0000000000000000
 31
0.0000000000000000
  7
KNJYOKO
  0
MTEXT
  5
475
100
AcDbEntity
  8
WAKU0
  6
CONTINUOUS
 62
3
100
AcDbMText
 10
977.9399997591972
 20
59.09999990463257
 30
0.0000000000000000
 40
6.199999809265137
 41
0.0000000000000000
 71
     1
 72
     1
  1
{\H0.91x;{三角法}}
 11
1.000000000000000
 21
0.0000000000000000
 31
0.0000000000000000
  7
KNJYOKO
  0
MTEXT
  5
476
100
AcDbEntity
  8
WAKU0
  6
CONTINUOUS
 62
3
100
AcDbMText
 10
977.9399997591972
 20
98.09999990463257
 30
0.0000000000000000
 40
6.199999809265137
 41
0.0000000000000000
 71
     1
 72
     1
  1
{\H0.91x;{尺　度}}
 11
1.000000000000000
 21
0.0000000000000000
 31
0.0000000000000000
  7
KNJYOKO
  0
MTEXT
  5
477
100
AcDbEntity
  8
WAKU0
  6
CONTINUOUS
 62
3
100
AcDbMText
 10
1155.400000095367
 20
98.00000000000000
 30
0.0000000000000000
 40
6.000000000000000
 41
0.0000000000000000
 71
     1
 72
     1
  1
{\H0.63x;{kg}}
 11
1.000000000000000
 21
0.0000000000000000
 31
0.0000000000000000
  7
STANDARD
  0
MTEXT
  5
478
100
AcDbEntity
  8
WAKU0
  6
CONTINUOUS
 62
3
100
AcDbMText
 10
1099.419999837875
 20
98.09999990463257
 30
0.0000000000000000
 40
6.199999809265137
 41
0.0000000000000000
 71
     1
 72
     1
  1
{\H0.89x;{重量}}
 11
1.000000000000000
 21
0.0000000000000000
 31
0.0000000000000000
  7
KNJYOKO
  0
MTEXT
  5
479
100
AcDbEntity
  8
WAKU0
  6
CONTINUOUS
 62
3
100
AcDbMText
 10
1013.419999837875
 20
42.46666653951009
 30
0.0000000000000000
 40
6.199999809265137
 41
0.0000000000000000
 71
     1
 72
     1
  1
{\H0.89x;{図面\P番号}}
 11
1.000000000000000
 21
0.0000000000000000
 31
0.0000000000000000
  7
KNJYOKO
  0
MTEXT
  5
47A
100
AcDbEntity
  8
WAKU0
  6
CONTINUOUS
 62
3
100
AcDbMText
 10
1013.419999837875
 20
70.09999990463257
 30
0.0000000000000000
 40
6.199999809265137
 41
0.0000000000000000
 71
     1
 72
     1
  1
{\H0.89x;{名称}}
 11
1.000000000000000
 21
0.0000000000000000
 31
0.0000000000000000
  7
KNJYOKO
  0
MTEXT
  5
47B
100
AcDbEntity
  8
WAKU0
  6
CONTINUOUS
 62
3
100
AcDbMText
 10
1013.419999837875
 20
98.09999990463257
 30
0.0000000000000000
 40
6.199999809265137
 41
0.0000000000000000
 71
     1
 72
     1
  1
{\H0.89x;{形式}}
 11
1.000000000000000
 21
0.0000000000000000
 31
0.0000000000000000
  7
KNJYOKO
  0
LINE
  5
47C
100
AcDbEntity
  8
WAKU0
  6
HIDDEN
 62
3
100
AcDbLine
 10
1158.319912948777
 20
27.69999980926514
 30
0.0000000000000000
 11
1137.880087241958
 21
27.69999980926514
 31
0.0000000000000000
  0
LINE
  5
47D
100
AcDbEntity
  8
WAKU0
  6
HIDDEN
 62
3
100
AcDbLine
 10
1158.319912948777
 20
27.69999980926500
 30
0.0000000000000000
 11
1148.100000095370
 21
45.40140812029802
 31
0.0000000000000000
  0
LINE
  5
47E
100
AcDbEntity
  8
WAKU0
  6
HIDDEN
 62
3
100
AcDbLine
 10
1148.100000095370
 20
45.40140812029804
 30
0.0000000000000000
 11
1137.880087241958
 21
27.69999980926497
 31
0.0000000000000000
  0
POINT
  5
47F
100
AcDbEntity
  8
WAKU0
  6
CONTINUOUS
 62
3
100
AcDbPoint
 10
884.0000000000000
 20
102.0000000000000
 30
0.0000000000000000
  0
INSERT
  5
4CF
100
AcDbEntity
  8
WAKU0
  6
CONTINUOUS
 62
3
100
AcDbBlockReference
  2
M5
 10
0.0000000000000000
 20
0.0000000000000000
 30
0.0000000000000000
 50
0.0000000000000000
  0
LINE
  5
4D0
100
AcDbEntity
  8
WAKU0
  6
CONTINUOUS
 62
3
100
AcDbLine
 10
1004.942775550760
 20
31.56082842525625
 30
0.0000000000000000
 11
1004.942775550760
 21
43.56082842525629
 31
0.0000000000000000
  0
LINE
  5
4D1
100
AcDbEntity
  8
WAKU0
  6
CONTINUOUS
 62
3
100
AcDbLine
 10
991.8673882456450
 20
34.56082842525622
 30
0.0000000000000000
 11
991.8673882456450
 21
40.56082842525649
 31
0.0000000000000000
  0
LINE
  5
4D2
100
AcDbEntity
  8
WAKU0
  6
CENTER
 62
12
100
AcDbLine
 10
970.8643611029991
 20
37.56082842525626
 30
0.0000000000000000
 11
1006.553157792939
 21
37.56082842525626
 31
0.0000000000000000
  0
LINE
  5
4D3
100
AcDbEntity
  8
WAKU0
  6
CENTER
 62
12
100
AcDbLine
 10
978.8949131715972
 20
29.11843325836897
 30
0.0000000000000000
 11
978.8949131715972
 21
45.79730204299887
 31
0.0000000000000000
  0
LINE
  5
4D4
100
AcDbEntity
  8
WAKU0
  6
CONTINUOUS
 62
3
100
AcDbLine
 10
991.8673882456451
 20
40.56082842525595
 30
0.0000000000000000
 11
1004.942775550760
 21
43.56082842525589
 31
0.0000000000000000
  0
LINE
  5
4D5
100
AcDbEntity
  8
WAKU0
  6
CONTINUOUS
 62
3
100
AcDbLine
 10
991.8673882456451
 20
34.56082842525622
 30
0.0000000000000000
 11
1004.942775550760
 21
31.56082842525623
 31
0.0000000000000000
  0
CIRCLE
  5
4D6
100
AcDbEntity
  8
WAKU0
  6
CONTINUOUS
 62
3
100
AcDbCircle
 10
978.8949131715972
 20
37.56082842525627
 30
0.0000000000000000
 40
2.999999999999943
  0
CIRCLE
  5
4D7
100
AcDbEntity
  8
WAKU0
  6
CONTINUOUS
 62
3
100
AcDbCircle
 10
978.8949131715972
 20
37.56082842525627
 30
0.0000000000000000
 40
5.999999999999957
  0
ENDSEC
  0
SECTION
  2
OBJECTS
  0
DICTIONARY
  5
504
100
AcDbDictionary
  3
ACAD_GROUP
350
505
  3
ACAD_MLINESTYLE
350
506
  0
DICTIONARY
  5
505
102
{ACAD_REACTORS
330
504
102
}
100
AcDbDictionary
  0
DICTIONARY
  5
506
102
{ACAD_REACTORS
330
504
102
}
100
AcDbDictionary
  3
STANDARD
350
507
  0
MLINESTYLE
  5
507
102
{ACAD_REACTORS
330
506
102
}
100
AcDbMlineStyle
  2
STANDARD
 70
     0
  3

 62
   256
 51
90.00
 52
90.00
 71
     2
 49
0.50
 62
   256
  6
BYLAYER
 49
-0.50
 62
   256
  6
BYLAYER
  0
ENDSEC
  0
EOF
