  0
SECTION
  2
HEADER
  9
$ACADVER
  1
AC1014
  9
$DWGCODEPAGE
  3
ANSI_932
  9
$LTSCALE
 40
20.0
  9
$FILLMODE
 70
     1
  9
$CLAYER
  8
0
  9
$PDMODE
 70
     0
  9
$SPLFRAME
 70
     0
  9
$SPLINETYPE
 70
     6
  9
$SPLINESEGS
 70
     8
  9
$DIMASZ
 40
2.000000
  9
$DIMEXE
 40
2.000000
  9
$DIMEXO
 40
0.800000
  9
$DIMTAD
 70
     1
  9
$DIMTIH
 70
     0
  9
$DIMTOH
 70
     0
  9
$DIMTVP
 40
0.500000
  9
$DIMTXT
 40
3.100000
  9
$EXTMIN
 10
0.000000
 20
0.000000
 30
0.000000
  9
$EXTMAX
 10
420.000000
 20
594.000000
 30
0.000000
  9
$MEASUREMENT
 70
  1
  9
$LIMMIN
 10
0.000000
 20
0.000000
  9
$LIMMAX
 10
420.000000
 20
594.000000
  9
$HANDLING
 70
     1
  9
$HANDSEED
  5
4BE
  9
$DIMBLK
  1
_OPEN
  9
$DIMDEC
 70
     3
  9
$DIMAUNIT
 70
     1
  9
$DIMZIN
 70
     8
  9
$DIMTOFL
 70
     1
  0
ENDSEC
  0
SECTION
  2
CLASSES
  0
ENDSEC
  0
SECTION
  2
TABLES
  0
TABLE
  2
VPORT
  5
488
100
AcDbSymbolTable
 70
     1
  0
VPORT
  5
489
100
AcDbSymbolTableRecord
100
AcDbViewportTableRecord
  2
*ACTIVE
 70
     0
 12
594.000000
 22
420.000000
 40
840.000000
 41
1.414286
  0
ENDTAB
  0
TABLE
  2
LTYPE
  5
48A
100
AcDbSymbolTable
 70
     5
  0
LTYPE
  5
48B
100
AcDbSymbolTableRecord
100
AcDbLinetypeTableRecord
  2
BYBLOCK
 70
     0
  3

 72
    65
 73
     0
 40
0.0
  0
LTYPE
  5
48C
100
AcDbSymbolTableRecord
100
AcDbLinetypeTableRecord
  2
BYLAYER
 70
     0
  3

 72
    65
 73
     0
 40
0.0
  0
LTYPE
  5
48D
100
AcDbSymbolTableRecord
100
AcDbLinetypeTableRecord
  2
CONTINUOUS
 70
     0
  3
Solid line (NEC CAE2D for Win R14.2 : 2025.07.08)
 72
    65
 73
     0
 40
0.0
  0
LTYPE
  5
48E
100
AcDbSymbolTableRecord
100
AcDbLinetypeTableRecord
  2
DASHED
 70
     0
  3
__ __ __ __ __ __ __ __ __ __ __ __ __ _
 72
    65
 73
     2
 40
0.75
 49
0.5
 74
     0
 49
-0.25
 74
     0
  0
LTYPE
  5
48F
100
AcDbSymbolTableRecord
100
AcDbLinetypeTableRecord
  2
HIDDEN
 70
     0
  3
__ __ __ __ __ __ __ __ __ __ __ __ __ __
 72
    65
 73
     2
 40
0.375
 49
0.25
 74
     0
 49
-0.125
 74
     0
  0
LTYPE
  5
490
100
AcDbSymbolTableRecord
100
AcDbLinetypeTableRecord
  2
CENTER
 70
     0
  3
____ _ ____ _ ____ _ ____ _ ____ _ ____
 72
    65
 73
     4
 40
2.0
 49
1.25
 74
     0
 49
-0.25
 74
     0
 49
0.25
 74
     0
 49
-0.25
 74
     0
  0
LTYPE
  5
491
100
AcDbSymbolTableRecord
100
AcDbLinetypeTableRecord
  2
PHANTOM
 70
     0
  3
______  __  __  ______  __  __  ______ 
 72
    65
 73
     6
 40
2.5
 49
1.25
 74
     0
 49
-0.25
 74
     0
 49
0.25
 74
     0
 49
-0.25
 74
     0
 49
0.25
 74
     0
 49
-0.25
 74
     0
  0
ENDTAB
  0
TABLE
  2
LAYER
  5
492
100
AcDbSymbolTable
 70
    11
  0
LAYER
  5
493
100
AcDbSymbolTableRecord
100
AcDbLayerTableRecord
  2
0
 70
     0
 62
     7
  6
CONTINUOUS
  0
LAYER
  5
494
100
AcDbSymbolTableRecord
100
AcDbLayerTableRecord
  2
MAIN0
 70
     0
 62
     7
  6
CONTINUOUS
  0
LAYER
  5
495
100
AcDbSymbolTableRecord
100
AcDbLayerTableRecord
  2
MAIN1
 70
     0
 62
     7
  6
CONTINUOUS
  0
LAYER
  5
496
100
AcDbSymbolTableRecord
100
AcDbLayerTableRecord
  2
MAIN2
 70
     0
 62
     7
  6
CONTINUOUS
  0
LAYER
  5
497
100
AcDbSymbolTableRecord
100
AcDbLayerTableRecord
  2
MAIN3
 70
     0
 62
     7
  6
CONTINUOUS
  0
LAYER
  5
498
100
AcDbSymbolTableRecord
100
AcDbLayerTableRecord
  2
MAIN4
 70
     0
 62
     7
  6
CONTINUOUS
  0
LAYER
  5
499
100
AcDbSymbolTableRecord
100
AcDbLayerTableRecord
  2
MAIN5
 70
     0
 62
     7
  6
CONTINUOUS
  0
LAYER
  5
49A
100
AcDbSymbolTableRecord
100
AcDbLayerTableRecord
  2
MAIN10
 70
     0
 62
     7
  6
CONTINUOUS
  0
LAYER
  5
49B
100
AcDbSymbolTableRecord
100
AcDbLayerTableRecord
  2
MAIN1023
 70
     0
 62
    16
  6
CONTINUOUS
  0
LAYER
  5
49C
100
AcDbSymbolTableRecord
100
AcDbLayerTableRecord
  2
WAKU0
 70
     0
 62
     7
  6
CONTINUOUS
  0
LAYER
  5
49D
100
AcDbSymbolTableRecord
100
AcDbLayerTableRecord
  2
WAKU1023
 70
     0
 62
    16
  6
CONTINUOUS
  0
ENDTAB
  0
TABLE
  2
STYLE
  5
49E
100
AcDbSymbolTable
 70
     4
  0
STYLE
  5
49F
100
AcDbSymbolTableRecord
100
AcDbTextStyleTableRecord
  2
STANDARD
 70
    64
 40
0.0
 41
1.0
 50
0.0
 71
     0
 42
6.200000762939453
  3
TXT
  4

  0
STYLE
  5
4A0
100
AcDbSymbolTableRecord
100
AcDbTextStyleTableRecord
  2
ANKTATE
 70
    68
 40
0.0
 41
1.0
 50
0.0
 71
     0
 42
6.200000762939453
  3
TXT
  4

  0
STYLE
  5
4A1
100
AcDbSymbolTableRecord
100
AcDbTextStyleTableRecord
  2
KNJYOKO
 70
    64
 40
0.0
 41
1.0
 50
0.0
 71
     0
 42
6.200000762939453
  3
TXT
  4
BIGFONT
  0
STYLE
  5
4A2
100
AcDbSymbolTableRecord
100
AcDbTextStyleTableRecord
  2
KNJTATE
 70
    68
 40
0.0
 41
1.0
 50
0.0
 71
     0
 42
6.200000762939453
  3
TXT
  4
BIGFONT
  0
ENDTAB
  0
TABLE
  2
VIEW
  5
4A3
100
AcDbSymbolTable
 70
     0
  0
ENDTAB
  0
TABLE
  2
UCS
  5
4A4
100
AcDbSymbolTable
 70
     0
  0
ENDTAB
  0
TABLE
  2
APPID
  5
4A5
100
AcDbSymbolTable
 70
     1
  0
APPID
  5
4A6
100
AcDbSymbolTableRecord
100
AcDbRegAppTableRecord
  2
ACAD
 70
     0
  0
ENDTAB
  0
TABLE
  2
DIMSTYLE
  5
4A7
100
AcDbSymbolTable
 70
     1
  0
DIMSTYLE
105
4A8
100
AcDbSymbolTableRecord
100
AcDbDimStyleTableRecord
  2
STANDARD
 70
     0
 41
2.000000
 44
2.000000
 42
0.800000
145
0.661290
140
3.100000
144
1.000000
146
0.903226
340
49F
  0
DIMSTYLE
105
4A9
100
AcDbSymbolTableRecord
100
AcDbDimStyleTableRecord
  2
MAIN001
 70
     0
 41
4.000000
 44
4.000000
 42
1.600000
145
0.580645
140
6.200000
144
0.750000
146
0.903226
 77
     1
 73
     0
 74
     0
271
     3
275
     1
 78
     8
172
     1
340
49F
  0
DIMSTYLE
105
4AA
100
AcDbSymbolTableRecord
100
AcDbDimStyleTableRecord
  2
WAKU002
 70
     0
 41
4.000000
 44
4.000000
 42
1.600000
145
0.580645
140
6.200000
144
0.500000
146
0.903226
 77
     1
 73
     0
 74
     0
271
     3
275
     1
 78
     8
172
     1
340
49F
  0
ENDTAB
  0
TABLE
  2
BLOCK_RECORD
  5
4AB
100
AcDbSymbolTable
 70
    19
  0
BLOCK_RECORD
  5
4AC
100
AcDbSymbolTableRecord
100
AcDbBlockTableRecord
  2
*MODEL_SPACE
  0
BLOCK_RECORD
  5
4AD
100
AcDbSymbolTableRecord
100
AcDbBlockTableRecord
  2
*PAPER_SPACE
  0
BLOCK_RECORD
  5
1
100
AcDbSymbolTableRecord
100
AcDbBlockTableRecord
  2
_NONE
  0
BLOCK_RECORD
  5
4
100
AcDbSymbolTableRecord
100
AcDbBlockTableRecord
  2
_CLOSED
  0
BLOCK_RECORD
  5
B
100
AcDbSymbolTableRecord
100
AcDbBlockTableRecord
  2
_DOT
  0
BLOCK_RECORD
  5
13
100
AcDbSymbolTableRecord
100
AcDbBlockTableRecord
  2
_OPEN
  0
BLOCK_RECORD
  5
19
100
AcDbSymbolTableRecord
100
AcDbBlockTableRecord
  2
_ORIGIN
  0
BLOCK_RECORD
  5
1E
100
AcDbSymbolTableRecord
100
AcDbBlockTableRecord
  2
_OPEN30
  0
BLOCK_RECORD
  5
24
100
AcDbSymbolTableRecord
100
AcDbBlockTableRecord
  2
_BOXFILLED
  0
BLOCK_RECORD
  5
29
100
AcDbSymbolTableRecord
100
AcDbBlockTableRecord
  2
_BOXBLANK
  0
BLOCK_RECORD
  5
31
100
AcDbSymbolTableRecord
100
AcDbBlockTableRecord
  2
_OBLIQUE
  0
BLOCK_RECORD
  5
35
100
AcDbSymbolTableRecord
100
AcDbBlockTableRecord
  2
_OPEN90
  0
BLOCK_RECORD
  5
3B
100
AcDbSymbolTableRecord
100
AcDbBlockTableRecord
  2
_CLOSEDBLANK
  0
BLOCK_RECORD
  5
41
100
AcDbSymbolTableRecord
100
AcDbBlockTableRecord
  2
_DOTBLANK
  0
BLOCK_RECORD
  5
4AE
100
AcDbSymbolTableRecord
100
AcDbBlockTableRecord
  2
M0
  0
BLOCK_RECORD
  5
4AF
100
AcDbSymbolTableRecord
100
AcDbBlockTableRecord
  2
M1
  0
BLOCK_RECORD
  5
4B0
100
AcDbSymbolTableRecord
100
AcDbBlockTableRecord
  2
M2
  0
BLOCK_RECORD
  5
4B1
100
AcDbSymbolTableRecord
100
AcDbBlockTableRecord
  2
M3
  0
BLOCK_RECORD
  5
4B2
100
AcDbSymbolTableRecord
100
AcDbBlockTableRecord
  2
M4
  0
BLOCK_RECORD
  5
4B3
100
AcDbSymbolTableRecord
100
AcDbBlockTableRecord
  2
M5
  0
BLOCK_RECORD
  5
4B4
100
AcDbSymbolTableRecord
100
AcDbBlockTableRecord
  2
M6
  0
ENDTAB
  0
ENDSEC
  0
SECTION
  2
BLOCKS
  0
BLOCK
  5
4B5
100
AcDbEntity
  8
0
100
AcDbBlockBegin
  2
*MODEL_SPACE
 70
     0
 10
0.0
 20
0.0
 30
0.0
  3
*MODEL_SPACE
  1

  0
ENDBLK
  5
4B6
100
AcDbEntity
  8
0
100
AcDbBlockEnd
  0
BLOCK
  5
4B7
100
AcDbEntity
  8
0
100
AcDbBlockBegin
  2
*PAPER_SPACE
 70
     0
 10
0.0
 20
0.0
 30
0.0
  3
*PAPER_SPACE
  1

  0
ENDBLK
  5
4B8
100
AcDbEntity
  8
0
100
AcDbBlockEnd
  0
BLOCK
  5
2
100
AcDbEntity
  8
0
100
AcDbBlockBegin
  2
_NONE
 70
     0
 10
0.0
 20
0.0
 30
0.0
  3
_NONE
  1

  0
ENDBLK
  5
3
100
AcDbEntity
  8
0
100
AcDbBlockEnd
  0
BLOCK
  5
5
100
AcDbEntity
  8
0
100
AcDbBlockBegin
  2
_CLOSED
 70
     0
 10
0.0
 20
0.0
 30
0.0
  3
_CLOSED
  1

  0
LINE
  5
6
100
AcDbEntity
  8
0
  6
BYBLOCK
 62
     0
100
AcDbLine
 10
-1.0
 20
0.166667
 30
0.0
 11
0.0
 21
0.0
 31
0.0
  0
LINE
  5
7
100
AcDbEntity
  8
0
  6
BYBLOCK
 62
     0
100
AcDbLine
 10
0.0
 20
0.0
 30
0.0
 11
-1.0
 21
-0.166667
 31
0.0
  0
LINE
  5
8
100
AcDbEntity
  8
0
  6
BYBLOCK
 62
     0
100
AcDbLine
 10
-1.0
 20
0.166667
 30
0.0
 11
-1.0
 21
-0.166667
 31
0.0
  0
LINE
  5
9
100
AcDbEntity
  8
0
  6
BYBLOCK
 62
     0
100
AcDbLine
 10
0.0
 20
0.0
 30
0.0
 11
-1.0
 21
0.0
 31
0.0
  0
ENDBLK
  5
A
100
AcDbEntity
  8
0
100
AcDbBlockEnd
  0
BLOCK
  5
C
100
AcDbEntity
  8
0
100
AcDbBlockBegin
  2
_DOT
 70
     0
 10
0.0
 20
0.0
 30
0.0
  3
_DOT
  1

  0
POLYLINE
  5
D
100
AcDbEntity
  8
0
  6
BYBLOCK
 62
     0
100
AcDb2dPolyline
 66
     1
 10
0.0
 20
0.0
 30
0.0
 70
     1
 40
0.5
 41
0.5
  0
VERTEX
  5
E
100
AcDbEntity
  8
0
  6
BYBLOCK
 62
     0
100
AcDbVertex
100
AcDb2dVertex
 10
-0.25
 20
0.0
 30
0.0
 42
1.0
  0
VERTEX
  5
F
100
AcDbEntity
  8
0
  6
BYBLOCK
 62
     0
100
AcDbVertex
100
AcDb2dVertex
 10
0.25
 20
0.0
 30
0.0
 42
1.0
  0
SEQEND
  5
10
100
AcDbEntity
  8
0
  6
BYBLOCK
 62
     0
  0
LINE
  5
11
100
AcDbEntity
  8
0
  6
BYBLOCK
 62
     0
100
AcDbLine
 10
-0.5
 20
0.0
 30
0.0
 11
-1.0
 21
0.0
 31
0.0
  0
ENDBLK
  5
12
100
AcDbEntity
  8
0
100
AcDbBlockEnd
  0
BLOCK
  5
14
100
AcDbEntity
  8
0
100
AcDbBlockBegin
  2
_OPEN
 70
     0
 10
0.0
 20
0.0
 30
0.0
  3
_OPEN
  1

  0
LINE
  5
15
100
AcDbEntity
  8
0
  6
BYBLOCK
 62
     0
100
AcDbLine
 10
-1.0
 20
0.166667
 30
0.0
 11
0.0
 21
0.0
 31
0.0
  0
LINE
  5
16
100
AcDbEntity
  8
0
  6
BYBLOCK
 62
     0
100
AcDbLine
 10
0.0
 20
0.0
 30
0.0
 11
-1.0
 21
-0.166667
 31
0.0
  0
LINE
  5
17
100
AcDbEntity
  8
0
  6
BYBLOCK
 62
     0
100
AcDbLine
 10
0.0
 20
0.0
 30
0.0
 11
-1.0
 21
0.0
 31
0.0
  0
ENDBLK
  5
18
100
AcDbEntity
  8
0
100
AcDbBlockEnd
  0
BLOCK
  5
1A
100
AcDbEntity
  8
0
100
AcDbBlockBegin
  2
_ORIGIN
 70
     0
 10
0.0
 20
0.0
 30
0.0
  3
_ORIGIN
  1

  0
CIRCLE
  5
1B
100
AcDbEntity
  8
0
  6
BYBLOCK
 62
     0
100
AcDbCircle
 10
0.0
 20
0.0
 30
0.0
 40
0.5
  0
LINE
  5
1C
100
AcDbEntity
  8
0
  6
BYBLOCK
 62
     0
100
AcDbLine
 10
0.0
 20
0.0
 30
0.0
 11
-1.0
 21
0.0
 31
0.0
  0
ENDBLK
  5
1D
100
AcDbEntity
  8
0
100
AcDbBlockEnd
  0
BLOCK
  5
1F
100
AcDbEntity
  8
0
100
AcDbBlockBegin
  2
_OPEN30
 70
     0
 10
0.0
 20
0.0
 30
0.0
  3
_OPEN30
  1

  0
LINE
  5
20
100
AcDbEntity
  8
0
  6
BYBLOCK
 62
     0
100
AcDbLine
 10
-1.0
 20
0.267949
 30
0.0
 11
0.0
 21
0.0
 31
0.0
  0
LINE
  5
21
100
AcDbEntity
  8
0
  6
BYBLOCK
 62
     0
100
AcDbLine
 10
0.0
 20
0.0
 30
0.0
 11
-1.0
 21
-0.267949
 31
0.0
  0
LINE
  5
22
100
AcDbEntity
  8
0
  6
BYBLOCK
 62
     0
100
AcDbLine
 10
0.0
 20
0.0
 30
0.0
 11
-1.0
 21
0.0
 31
0.0
  0
ENDBLK
  5
23
100
AcDbEntity
  8
0
100
AcDbBlockEnd
  0
BLOCK
  5
25
100
AcDbEntity
  8
0
100
AcDbBlockBegin
  2
_BOXFILLED
 70
     0
 10
0.0
 20
0.0
 30
0.0
  3
_BOXFILLED
  1

  0
SOLID
  5
26
100
AcDbEntity
  8
0
  6
BYBLOCK
 62
     0
100
AcDbTrace
 10
-0.5
 20
0.5
 30
0.0
 11
0.5
 21
0.5
 31
0.0
 12
-0.5
 22
-0.5
 32
0.0
 13
0.5
 23
-0.5
 33
0.0
  0
LINE
  5
27
100
AcDbEntity
  8
0
  6
BYBLOCK
 62
     0
100
AcDbLine
 10
-0.5
 20
0.0
 30
0.0
 11
-1.0
 21
0.0
 31
0.0
  0
ENDBLK
  5
28
100
AcDbEntity
  8
0
100
AcDbBlockEnd
  0
BLOCK
  5
2A
100
AcDbEntity
  8
0
100
AcDbBlockBegin
  2
_BOXBLANK
 70
     0
 10
0.0
 20
0.0
 30
0.0
  3
_BOXBLANK
  1

  0
LINE
  5
2B
100
AcDbEntity
  8
0
  6
BYBLOCK
 62
     0
100
AcDbLine
 10
-0.5
 20
-0.5
 30
0.0
 11
0.5
 21
-0.5
 31
0.0
  0
LINE
  5
2C
100
AcDbEntity
  8
0
  6
BYBLOCK
 62
     0
100
AcDbLine
 10
0.5
 20
-0.5
 30
0.0
 11
0.5
 21
0.5
 31
0.0
  0
LINE
  5
2D
100
AcDbEntity
  8
0
  6
BYBLOCK
 62
     0
100
AcDbLine
 10
0.5
 20
0.5
 30
0.0
 11
-0.5
 21
0.5
 31
0.0
  0
LINE
  5
2E
100
AcDbEntity
  8
0
  6
BYBLOCK
 62
     0
100
AcDbLine
 10
-0.5
 20
0.5
 30
0.0
 11
-0.5
 21
-0.5
 31
0.0
  0
LINE
  5
2F
100
AcDbEntity
  8
0
  6
BYBLOCK
 62
     0
100
AcDbLine
 10
-0.5
 20
0.0
 30
0.0
 11
-1.0
 21
0.0
 31
0.0
  0
ENDBLK
  5
30
100
AcDbEntity
  8
0
100
AcDbBlockEnd
  0
BLOCK
  5
32
100
AcDbEntity
  8
0
100
AcDbBlockBegin
  2
_OBLIQUE
 70
     0
 10
0.0
 20
0.0
 30
0.0
  3
_OBLIQUE
  1

  0
LINE
  5
33
100
AcDbEntity
  8
0
  6
BYBLOCK
 62
     0
100
AcDbLine
 10
-0.5
 20
-0.5
 30
0.0
 11
0.5
 21
0.5
 31
0.0
  0
ENDBLK
  5
34
100
AcDbEntity
  8
0
100
AcDbBlockEnd
  0
BLOCK
  5
36
100
AcDbEntity
  8
0
100
AcDbBlockBegin
  2
_OPEN90
 70
     0
 10
0.0
 20
0.0
 30
0.0
  3
_OPEN90
  1

  0
LINE
  5
37
100
AcDbEntity
  8
0
  6
BYBLOCK
 62
     0
100
AcDbLine
 10
-0.5
 20
0.5
 30
0.0
 11
0.0
 21
0.0
 31
0.0
  0
LINE
  5
38
100
AcDbEntity
  8
0
  6
BYBLOCK
 62
     0
100
AcDbLine
 10
0.0
 20
0.0
 30
0.0
 11
-0.5
 21
-0.5
 31
0.0
  0
LINE
  5
39
100
AcDbEntity
  8
0
  6
BYBLOCK
 62
     0
100
AcDbLine
 10
0.0
 20
0.0
 30
0.0
 11
-1.0
 21
0.0
 31
0.0
  0
ENDBLK
  5
3A
100
AcDbEntity
  8
0
100
AcDbBlockEnd
  0
BLOCK
  5
3C
100
AcDbEntity
  8
0
100
AcDbBlockBegin
  2
_CLOSEDBLANK
 70
     0
 10
0.0
 20
0.0
 30
0.0
  3
_CLOSEDBLANK
  1

  0
LINE
  5
3D
100
AcDbEntity
  8
0
  6
BYBLOCK
 62
     0
100
AcDbLine
 10
-1.0
 20
0.1666666666666666
 30
0.0
 11
0.0
 21
0.0
 31
0.0
  0
LINE
  5
3E
100
AcDbEntity
  8
0
  6
BYBLOCK
 62
     0
100
AcDbLine
 10
0.0
 20
0.0
 30
0.0
 11
-1.0
 21
-0.1666666666666666
 31
0.0
  0
LINE
  5
3F
100
AcDbEntity
  8
0
  6
BYBLOCK
 62
     0
100
AcDbLine
 10
-1.0
 20
0.1666666666666666
 30
0.0
 11
-1.0
 21
-0.1666666666666666
 31
0.0
  0
ENDBLK
  5
40
100
AcDbEntity
  8
0
100
AcDbBlockEnd
  0
BLOCK
  5
42
100
AcDbEntity
  8
0
100
AcDbBlockBegin
  2
_DOTBLANK
 70
     0
 10
0.0
 20
0.0
 30
0.0
  3
_DOTBLANK
  1

  0
CIRCLE
  5
43
100
AcDbEntity
  8
0
  6
BYBLOCK
 62
     0
100
AcDbCircle
 10
0.0
 20
0.0
 30
0.0
 40
0.5
  0
LINE
  5
44
100
AcDbEntity
  8
0
  6
BYBLOCK
 62
     0
100
AcDbLine
 10
-0.5
 20
0.0
 30
0.0
 11
-1.0
 21
0.0
 31
0.0
  0
ENDBLK
  5
45
100
AcDbEntity
  8
0
100
AcDbBlockEnd
  0
BLOCK
  5
1EE
100
AcDbEntity
  8
MAIN0
  6
BYBLOCK
 62
3
100
AcDbBlockBegin
  2
M0
 70
    64
 10
0.0
 20
0.0
 30
0.0
  0
LINE
  5
1EF
100
AcDbEntity
  8
MAIN0
  6
BYBLOCK
 62
0
100
AcDbLine
 10
441.2775020731610
 20
465.1584771261111
 30
0.0000000000000000
 11
461.2775020731610
 21
465.1584771261111
 31
0.0000000000000000
  0
LINE
  5
1F0
100
AcDbEntity
  8
MAIN0
  6
BYBLOCK
 62
0
100
AcDbLine
 10
441.2775020731613
 20
465.1584771261112
 30
0.0000000000000000
 11
450.9367603360518
 21
467.7466675771364
 31
0.0000000000000000
  0
LINE
  5
1F1
100
AcDbEntity
  8
MAIN0
  6
BYBLOCK
 62
0
100
AcDbLine
 10
441.2775020731611
 20
465.1584771261109
 30
0.0000000000000000
 11
450.9367603360517
 21
462.5702866750858
 31
0.0000000000000000
  0
ENDBLK
  5
1F2
100
AcDbEntity
  8
MAIN0
  6
BYBLOCK
 62
3
100
AcDbBlockEnd
  0
BLOCK
  5
1F4
100
AcDbEntity
  8
MAIN0
  6
BYBLOCK
 62
3
100
AcDbBlockBegin
  2
M1
 70
    64
 10
0.0
 20
0.0
 30
0.0
  0
LINE
  5
1F5
100
AcDbEntity
  8
MAIN0
  6
BYBLOCK
 62
0
100
AcDbLine
 10
81.45864701757898
 20
465.1584771261113
 30
0.0000000000000000
 11
61.45864701757914
 21
465.1584771261113
 31
0.0000000000000000
  0
LINE
  5
1F6
100
AcDbEntity
  8
MAIN0
  6
BYBLOCK
 62
0
100
AcDbLine
 10
81.45864701757914
 20
465.1584771261112
 30
0.0000000000000000
 11
71.79938875468857
 21
462.5702866750861
 31
0.0000000000000000
  0
LINE
  5
1F7
100
AcDbEntity
  8
MAIN0
  6
BYBLOCK
 62
0
100
AcDbLine
 10
81.45864701757905
 20
465.1584771261116
 30
0.0000000000000000
 11
71.79938875468857
 21
467.7466675771366
 31
0.0000000000000000
  0
ENDBLK
  5
1F8
100
AcDbEntity
  8
MAIN0
  6
BYBLOCK
 62
3
100
AcDbBlockEnd
  0
BLOCK
  5
239
100
AcDbEntity
  8
MAIN0
  6
BYBLOCK
 62
3
100
AcDbBlockBegin
  2
M2
 70
    64
 10
0.0
 20
0.0
 30
0.0
  0
POINT
  5
23A
100
AcDbEntity
  8
MAIN0
  6
BYBLOCK
 62
0
100
AcDbPoint
 10
992.0085904561296
 20
323.6747043909635
 30
0.0000000000000000
  0
POINT
  5
23B
100
AcDbEntity
  8
MAIN0
  6
BYBLOCK
 62
0
100
AcDbPoint
 10
992.0085904561296
 20
313.6747043909635
 30
0.0000000000000000
  0
POINT
  5
23C
100
AcDbEntity
  8
MAIN0
  6
BYBLOCK
 62
0
100
AcDbPoint
 10
1032.008590456130
 20
313.6747043909635
 30
0.0000000000000000
  0
POINT
  5
23D
100
AcDbEntity
  8
MAIN0
  6
BYBLOCK
 62
0
100
AcDbPoint
 10
1032.008590456130
 20
323.6747043909635
 30
0.0000000000000000
  0
LINE
  5
23E
100
AcDbEntity
  8
MAIN0
  6
BYBLOCK
 62
0
100
AcDbLine
 10
967.0085904561296
 20
331.6747043909635
 30
0.0000000000000000
 11
1077.008590456130
 21
331.6747043909635
 31
0.0000000000000000
  0
LINE
  5
23F
100
AcDbEntity
  8
MAIN0
  6
BYBLOCK
 62
0
100
AcDbLine
 10
967.0085904561297
 20
311.6747043909635
 30
0.0000000000000000
 11
967.0085904561297
 21
331.6747043909635
 31
0.0000000000000000
  0
LINE
  5
240
100
AcDbEntity
  8
MAIN0
  6
BYBLOCK
 62
0
100
AcDbLine
 10
987.0085904561296
 20
331.6747043909636
 30
0.0000000000000000
 11
987.0085904561296
 21
311.6747043909634
 31
0.0000000000000000
  0
LINE
  5
241
100
AcDbEntity
  8
MAIN0
  6
BYBLOCK
 62
0
100
AcDbLine
 10
967.0085904561296
 20
311.6747043909633
 30
0.0000000000000000
 11
1077.008590456130
 21
311.6747043909633
 31
0.0000000000000000
  0
LINE
  5
242
100
AcDbEntity
  8
MAIN0
  6
BYBLOCK
 62
0
100
AcDbLine
 10
1077.008590456130
 20
311.6747043909633
 30
0.0000000000000000
 11
1077.008590456130
 21
331.6747043909635
 31
0.0000000000000000
  0
MTEXT
  5
243
100
AcDbEntity
  8
MAIN0
  6
BYBLOCK
 62
0
100
AcDbMText
 10
969.4052931959241
 20
330.4287596803492
 30
0.0000000000000000
 40
8.000000000000000
 41
0.0000000000000000
 71
     1
 72
     1
  1
{\H0.83x;機名}
 11
1.000000000000000
 21
0.0000000000000000
 31
0.0000000000000000
  7
KNJYOKO
  0
ENDBLK
  5
244
100
AcDbEntity
  8
MAIN0
  6
BYBLOCK
 62
3
100
AcDbBlockEnd
  0
BLOCK
  5
2FD
100
AcDbEntity
  8
MAIN0
  6
BYBLOCK
 62
3
100
AcDbBlockBegin
  2
M3
 70
    64
 10
0.0
 20
0.0
 30
0.0
  0
POINT
  5
2FE
100
AcDbEntity
  8
MAIN0
  6
BYBLOCK
 62
0
100
AcDbPoint
 10
597.7882255160420
 20
141.6808735197526
 30
0.0000000000000000
  0
POINT
  5
2FF
100
AcDbEntity
  8
MAIN0
  6
BYBLOCK
 62
0
100
AcDbPoint
 10
597.7882255160420
 20
131.6808735197526
 30
0.0000000000000000
  0
POINT
  5
300
100
AcDbEntity
  8
MAIN0
  6
BYBLOCK
 62
0
100
AcDbPoint
 10
597.7882255160420
 20
121.6808735197528
 30
0.0000000000000000
  0
POINT
  5
301
100
AcDbEntity
  8
MAIN0
  6
BYBLOCK
 62
0
100
AcDbPoint
 10
597.7882255160420
 20
111.6808735197528
 30
0.0000000000000000
  0
LINE
  5
302
100
AcDbEntity
  8
MAIN0
  6
BYBLOCK
 62
0
100
AcDbLine
 10
577.7882255160420
 20
140.6808735197526
 30
0.0000000000000000
 11
773.6111782170573
 21
140.6808735197526
 31
0.0000000000000000
  0
LINE
  5
303
100
AcDbEntity
  8
MAIN0
  6
BYBLOCK
 62
0
100
AcDbLine
 10
577.7882255160420
 20
130.6808735197526
 30
0.0000000000000000
 11
773.6111782170573
 21
130.6808735197526
 31
0.0000000000000000
  0
LINE
  5
304
100
AcDbEntity
  8
MAIN0
  6
BYBLOCK
 62
0
100
AcDbLine
 10
577.7882255160420
 20
120.6808735197528
 30
0.0000000000000000
 11
773.6111782170573
 21
120.6808735197528
 31
0.0000000000000000
  0
MTEXT
  5
305
100
AcDbEntity
  8
MAIN0
  6
BYBLOCK
 62
0
100
AcDbMText
 10
579.7882255160420
 20
147.8808733290177
 30
0.0000000000000000
 40
6.199999809265137
 41
0.0000000000000000
 71
     1
 72
     1
  1
{\H0.88x;1.}
 11
1.000000000000000
 21
0.0000000000000000
 31
0.0000000000000000
  7
STANDARD
  0
MTEXT
  5
306
100
AcDbEntity
  8
MAIN0
  6
BYBLOCK
 62
0
100
AcDbMText
 10
579.7882255160420
 20
137.8808733290177
 30
0.0000000000000000
 40
6.199999809265137
 41
0.0000000000000000
 71
     1
 72
     1
  1
{\H0.88x;2.}
 11
1.000000000000000
 21
0.0000000000000000
 31
0.0000000000000000
  7
STANDARD
  0
POINT
  5
307
100
AcDbEntity
  8
MAIN0
  6
BYBLOCK
 62
0
100
AcDbPoint
 10
579.7882255160420
 20
141.6808735197526
 30
0.0000000000000000
  0
POINT
  5
308
100
AcDbEntity
  8
MAIN0
  6
BYBLOCK
 62
0
100
AcDbPoint
 10
579.7882255160420
 20
131.6808735197526
 30
0.0000000000000000
  0
POINT
  5
309
100
AcDbEntity
  8
MAIN0
  6
BYBLOCK
 62
0
100
AcDbPoint
 10
579.7882255160420
 20
121.6808735197528
 30
0.0000000000000000
  0
POINT
  5
30A
100
AcDbEntity
  8
MAIN0
  6
BYBLOCK
 62
0
100
AcDbPoint
 10
579.7882255160420
 20
111.6808735197528
 30
0.0000000000000000
  0
MTEXT
  5
30B
100
AcDbEntity
  8
MAIN0
  6
BYBLOCK
 62
0
100
AcDbMText
 10
580.7882255160420
 20
168.6808735197532
 30
0.0000000000000000
 40
12.00000000000000
 41
0.0000000000000000
 71
     1
 72
     1
  1
{\H0.80x;注　記}
 11
1.000000000000000
 21
0.0000000000000000
 31
0.0000000000000000
  7
KNJYOKO
  0
LINE
  5
30C
100
AcDbEntity
  8
MAIN0
  6
BYBLOCK
 62
0
100
AcDbLine
 10
617.7882255160420
 20
171.6808735197532
 30
0.0000000000000000
 11
617.7882255160420
 21
153.6808735197532
 31
0.0000000000000000
  0
LINE
  5
30D
100
AcDbEntity
  8
MAIN0
  6
BYBLOCK
 62
0
100
AcDbLine
 10
577.7882255160420
 20
153.6808735197532
 30
0.0000000000000000
 11
617.7882255160420
 21
153.6808735197532
 31
0.0000000000000000
  0
LINE
  5
30E
100
AcDbEntity
  8
MAIN0
  6
BYBLOCK
 62
0
100
AcDbLine
 10
577.7882255160420
 20
171.6808735197532
 30
0.0000000000000000
 11
577.7882255160420
 21
153.6808735197532
 31
0.0000000000000000
  0
LINE
  5
30F
100
AcDbEntity
  8
MAIN0
  6
BYBLOCK
 62
0
100
AcDbLine
 10
577.7882255160420
 20
171.6808735197532
 30
0.0000000000000000
 11
617.7882255160420
 21
171.6808735197532
 31
0.0000000000000000
  0
ENDBLK
  5
310
100
AcDbEntity
  8
MAIN0
  6
BYBLOCK
 62
3
100
AcDbBlockEnd
  0
BLOCK
  5
314
100
AcDbEntity
  8
MAIN0
  6
BYBLOCK
 62
3
100
AcDbBlockBegin
  2
M4
 70
    64
 10
0.0
 20
0.0
 30
0.0
  0
POINT
  5
315
100
AcDbEntity
  8
MAIN0
  6
BYBLOCK
 62
0
100
AcDbPoint
 10
597.7882255161904
 20
64.40033178446409
 30
0.0000000000000000
  0
POINT
  5
316
100
AcDbEntity
  8
MAIN0
  6
BYBLOCK
 62
0
100
AcDbPoint
 10
597.7882255161904
 20
54.40033178446409
 30
0.0000000000000000
  0
POINT
  5
317
100
AcDbEntity
  8
MAIN0
  6
BYBLOCK
 62
0
100
AcDbPoint
 10
597.7882255161904
 20
44.40033178446424
 30
0.0000000000000000
  0
POINT
  5
318
100
AcDbEntity
  8
MAIN0
  6
BYBLOCK
 62
0
100
AcDbPoint
 10
597.7882255161904
 20
34.40033178446424
 30
0.0000000000000000
  0
LINE
  5
319
100
AcDbEntity
  8
MAIN0
  6
BYBLOCK
 62
0
100
AcDbLine
 10
577.7882255161904
 20
63.40033178446409
 30
0.0000000000000000
 11
808.6513313957510
 21
63.40033178446409
 31
0.0000000000000000
  0
LINE
  5
31A
100
AcDbEntity
  8
MAIN0
  6
BYBLOCK
 62
0
100
AcDbLine
 10
577.7882255161904
 20
53.40033178446417
 30
0.0000000000000000
 11
808.6513313957510
 21
53.40033178446417
 31
0.0000000000000000
  0
LINE
  5
31B
100
AcDbEntity
  8
MAIN0
  6
BYBLOCK
 62
0
100
AcDbLine
 10
577.7882255161904
 20
43.40033178446424
 30
0.0000000000000000
 11
808.6513313957510
 21
43.40033178446424
 31
0.0000000000000000
  0
MTEXT
  5
31C
100
AcDbEntity
  8
MAIN0
  6
BYBLOCK
 62
0
100
AcDbMText
 10
579.7882255161904
 20
70.60033159372927
 30
0.0000000000000000
 40
6.199999809265137
 41
0.0000000000000000
 71
     1
 72
     1
  1
{\H0.88x;1.}
 11
1.000000000000000
 21
0.0000000000000000
 31
0.0000000000000000
  7
STANDARD
  0
MTEXT
  5
31D
100
AcDbEntity
  8
MAIN0
  6
BYBLOCK
 62
0
100
AcDbMText
 10
579.7882255161904
 20
60.60033159372927
 30
0.0000000000000000
 40
6.199999809265137
 41
0.0000000000000000
 71
     1
 72
     1
  1
{\H0.88x;2.}
 11
1.000000000000000
 21
0.0000000000000000
 31
0.0000000000000000
  7
STANDARD
  0
POINT
  5
31E
100
AcDbEntity
  8
MAIN0
  6
BYBLOCK
 62
0
100
AcDbPoint
 10
579.7882255161904
 20
64.40033178446409
 30
0.0000000000000000
  0
POINT
  5
31F
100
AcDbEntity
  8
MAIN0
  6
BYBLOCK
 62
0
100
AcDbPoint
 10
579.7882255161904
 20
54.40033178446409
 30
0.0000000000000000
  0
POINT
  5
320
100
AcDbEntity
  8
MAIN0
  6
BYBLOCK
 62
0
100
AcDbPoint
 10
579.7882255161904
 20
44.40033178446424
 30
0.0000000000000000
  0
POINT
  5
321
100
AcDbEntity
  8
MAIN0
  6
BYBLOCK
 62
0
100
AcDbPoint
 10
579.7882255161904
 20
34.40033178446424
 30
0.0000000000000000
  0
MTEXT
  5
322
100
AcDbEntity
  8
MAIN0
  6
BYBLOCK
 62
0
100
AcDbMText
 10
580.7882255161904
 20
91.40033178446470
 30
0.0000000000000000
 40
12.00000000000000
 41
0.0000000000000000
 71
     1
 72
     1
  1
NOTE
 11
1.000000000000000
 21
0.0000000000000000
 31
0.0000000000000000
  7
STANDARD
  0
LINE
  5
323
100
AcDbEntity
  8
MAIN0
  6
BYBLOCK
 62
0
100
AcDbLine
 10
577.7882255161904
 20
76.40033178446470
 30
0.0000000000000000
 11
628.4548921825897
 21
76.40033178446470
 31
0.0000000000000000
  0
LINE
  5
324
100
AcDbEntity
  8
MAIN0
  6
BYBLOCK
 62
0
100
AcDbLine
 10
577.7882255161904
 20
94.40033178446470
 30
0.0000000000000000
 11
577.7882255161904
 21
76.40033178446470
 31
0.0000000000000000
  0
LINE
  5
325
100
AcDbEntity
  8
MAIN0
  6
BYBLOCK
 62
0
100
AcDbLine
 10
577.7882255161904
 20
94.40033178446470
 30
0.0000000000000000
 11
628.4548921825897
 21
94.40033178446470
 31
0.0000000000000000
  0
ENDBLK
  5
326
100
AcDbEntity
  8
MAIN0
  6
BYBLOCK
 62
3
100
AcDbBlockEnd
  0
BLOCK
  5
330
100
AcDbEntity
  8
MAIN0
  6
BYBLOCK
 62
4
100
AcDbBlockBegin
  2
M5
 70
    64
 10
0.0
 20
0.0
 30
0.0
  0
MTEXT
  5
331
100
AcDbEntity
  8
MAIN0
  6
BYBLOCK
 62
0
100
AcDbMText
 10
971.8499736811816
 20
321.3647874310160
 30
0.0000000000000000
 40
4.000000000000000
 41
0.0000000000000000
 71
     1
 72
     1
  1
{\H0.63x;LATHE}
 11
1.000000000000000
 21
0.0000000000000000
 31
0.0000000000000000
  7
STANDARD
  0
MTEXT
  5
332
100
AcDbEntity
  8
MAIN0
  6
BYBLOCK
 62
0
100
AcDbMText
 10
971.9424115725420
 20
316.3731693749784
 30
0.0000000000000000
 40
4.000000000000000
 41
0.0000000000000000
 71
     1
 72
     1
  1
{\H0.63x;MODEL}
 11
1.000000000000000
 21
0.0000000000000000
 31
0.0000000000000000
  7
STANDARD
  0
ENDBLK
  5
333
100
AcDbEntity
  8
MAIN0
  6
BYBLOCK
 62
4
100
AcDbBlockEnd
  0
BLOCK
  5
430
100
AcDbEntity
  8
WAKU0
  6
BYBLOCK
 62
3
100
AcDbBlockBegin
  2
M6
 70
    64
 10
0.0
 20
0.0
 30
0.0
  0
POINT
  5
431
100
AcDbEntity
  8
WAKU0
  6
BYBLOCK
 62
0
100
AcDbPoint
 10
544.0000000000000
 20
24.00000000000000
 30
0.0000000000000000
  0
POINT
  5
432
100
AcDbEntity
  8
WAKU0
  6
BYBLOCK
 62
0
100
AcDbPoint
 10
262.0000000000073
 20
24.00000000000001
 30
0.0000000000000000
  0
LINE
  5
433
100
AcDbEntity
  8
WAKU0
  6
BYBLOCK
 62
0
100
AcDbLine
 10
50.00000000000364
 20
24.00000000000001
 30
0.0000000000000000
 11
1164.000000000000
 21
24.00000000000000
 31
0.0000000000000000
  0
LINE
  5
434
100
AcDbEntity
  8
WAKU0
  6
BYBLOCK
 62
0
100
AcDbLine
 10
50.00000000000387
 20
819.9999999999931
 30
0.0000000000000000
 11
1164.000000000000
 21
819.9999999999927
 31
0.0000000000000000
  0
LINE
  5
435
100
AcDbEntity
  8
WAKU0
  6
BYBLOCK
 62
0
100
AcDbLine
 10
50.00000000000364
 20
24.00000000000001
 30
0.0000000000000000
 11
50.00000000000387
 21
819.9999999999931
 31
0.0000000000000000
  0
LINE
  5
436
100
AcDbEntity
  8
WAKU0
  6
BYBLOCK
 62
0
100
AcDbLine
 10
1164.000000000000
 20
24.00000000000000
 30
0.0000000000000000
 11
1164.000000000000
 21
819.9999999999927
 31
0.0000000000000000
  0
LINE
  5
437
100
AcDbEntity
  8
WAKU0
  6
BYBLOCK
 62
0
100
AcDbLine
 10
4.000000000002046
 20
835.9999999999936
 30
0.0000000000000000
 11
20.00000000000205
 21
835.9999999999936
 31
0.0000000000000000
  0
LINE
  5
438
100
AcDbEntity
  8
WAKU0
  6
BYBLOCK
 62
0
100
AcDbLine
 10
1168.000000000000
 20
835.9999999999927
 30
0.0000000000000000
 11
1184.000000000000
 21
835.9999999999928
 31
0.0000000000000000
  0
LINE
  5
439
100
AcDbEntity
  8
WAKU0
  6
BYBLOCK
 62
0
100
AcDbLine
 10
1184.000000000000
 20
819.9999999999926
 30
0.0000000000000000
 11
1184.000000000000
 21
835.9999999999926
 31
0.0000000000000000
  0
LINE
  5
43A
100
AcDbEntity
  8
WAKU0
  6
BYBLOCK
 62
0
100
AcDbLine
 10
4.000000000003638
 20
819.9999999999927
 30
0.0000000000000000
 11
4.000000000003638
 21
835.9999999999927
 31
0.0000000000000000
  0
LINE
  5
43B
100
AcDbEntity
  8
WAKU0
  6
BYBLOCK
 62
0
100
AcDbLine
 10
4.000000000003638
 20
4.000000000000085
 30
0.0000000000000000
 11
20.00000000000364
 21
4.000000000000085
 31
0.0000000000000000
  0
LINE
  5
43C
100
AcDbEntity
  8
WAKU0
  6
BYBLOCK
 62
0
100
AcDbLine
 10
1168.000000000000
 20
4.000000000000007
 30
0.0000000000000000
 11
1184.000000000000
 21
4.000000000000007
 31
0.0000000000000000
  0
LINE
  5
43D
100
AcDbEntity
  8
WAKU0
  6
BYBLOCK
 62
0
100
AcDbLine
 10
1184.000000000000
 20
20.00000000000014
 30
0.0000000000000000
 11
1184.000000000000
 21
4.000000000000156
 31
0.0000000000000000
  0
LINE
  5
43E
100
AcDbEntity
  8
WAKU0
  6
BYBLOCK
 62
0
100
AcDbLine
 10
4.000000000003638
 20
4.000000000000203
 30
0.0000000000000000
 11
4.000000000003638
 21
20.00000000000014
 31
0.0000000000000000
  0
LINE
  5
43F
100
AcDbEntity
  8
WAKU0
  6
BYBLOCK
 62
0
100
AcDbLine
 10
594.0000000000001
 20
-3.552713678800501e-015
 30
0.0000000000000000
 11
594.0000000000000
 21
24.00000000000003
 31
0.0000000000000000
  0
LINE
  5
440
100
AcDbEntity
  8
WAKU0
  6
BYBLOCK
 62
0
100
AcDbLine
 10
594.0000000000046
 20
819.9999999999959
 30
0.0000000000000000
 11
594.0000000000047
 21
839.9999999999959
 31
0.0000000000000000
  0
LINE
  5
441
100
AcDbEntity
  8
WAKU0
  6
BYBLOCK
 62
0
100
AcDbLine
 10
3.637978807091713e-012
 20
419.9999999999999
 30
0.0000000000000000
 11
50.00000000000364
 21
419.9999999999999
 31
0.0000000000000000
  0
LINE
  5
442
100
AcDbEntity
  8
WAKU0
  6
BYBLOCK
 62
0
100
AcDbLine
 10
1164.000000000000
 20
419.9999999999999
 30
0.0000000000000000
 11
1188.000000000000
 21
419.9999999999999
 31
0.0000000000000000
  0
LINE
  5
443
100
AcDbEntity
  8
WAKU0
  6
BYBLOCK
 62
0
100
AcDbLine
 10
454.0000000000073
 20
14.00000000000002
 30
0.0000000000000000
 11
733.9999999999999
 21
14.00000000000009
 31
0.0000000000000000
  0
LINE
  5
444
100
AcDbEntity
  8
WAKU0
  6
BYBLOCK
 62
0
100
AcDbLine
 10
42.00000000000205
 20
679.9999999999941
 30
0.0000000000000000
 11
50.00000000000205
 21
679.9999999999940
 31
0.0000000000000000
  0
LINE
  5
445
100
AcDbEntity
  8
WAKU0
  6
BYBLOCK
 62
0
100
AcDbLine
 10
1164.000000000000
 20
679.9999999999927
 30
0.0000000000000000
 11
1172.000000000000
 21
679.9999999999928
 31
0.0000000000000000
  0
LINE
  5
446
100
AcDbEntity
  8
WAKU0
  6
BYBLOCK
 62
0
100
AcDbLine
 10
42.00000000000387
 20
549.9999999999941
 30
0.0000000000000000
 11
50.00000000000387
 21
549.9999999999940
 31
0.0000000000000000
  0
LINE
  5
447
100
AcDbEntity
  8
WAKU0
  6
BYBLOCK
 62
0
100
AcDbLine
 10
1164.000000000000
 20
549.9999999999927
 30
0.0000000000000000
 11
1172.000000000000
 21
549.9999999999928
 31
0.0000000000000000
  0
LINE
  5
448
100
AcDbEntity
  8
WAKU0
  6
BYBLOCK
 62
0
100
AcDbLine
 10
42.00000000000023
 20
289.9999999999999
 30
0.0000000000000000
 11
50.00000000000023
 21
289.9999999999999
 31
0.0000000000000000
  0
LINE
  5
449
100
AcDbEntity
  8
WAKU0
  6
BYBLOCK
 62
0
100
AcDbLine
 10
1164.000000000000
 20
289.9999999999999
 30
0.0000000000000000
 11
1172.000000000000
 21
289.9999999999999
 31
0.0000000000000000
  0
LINE
  5
44A
100
AcDbEntity
  8
WAKU0
  6
BYBLOCK
 62
0
100
AcDbLine
 10
42.00000000000387
 20
160.0000000000000
 30
0.0000000000000000
 11
50.00000000000387
 21
160.0000000000000
 31
0.0000000000000000
  0
LINE
  5
44B
100
AcDbEntity
  8
WAKU0
  6
BYBLOCK
 62
0
100
AcDbLine
 10
1164.000000000000
 20
159.9999999999999
 30
0.0000000000000000
 11
1172.000000000000
 21
159.9999999999999
 31
0.0000000000000000
  0
LINE
  5
44C
100
AcDbEntity
  8
WAKU0
  6
BYBLOCK
 62
0
100
AcDbLine
 10
734.0000000000000
 20
14.00000000000007
 30
0.0000000000000000
 11
733.9999999999998
 21
24.00000000000003
 31
0.0000000000000000
  0
LINE
  5
44D
100
AcDbEntity
  8
WAKU0
  6
BYBLOCK
 62
0
100
AcDbLine
 10
733.9999999999998
 20
819.9999999999989
 30
0.0000000000000000
 11
733.9999999999998
 21
827.9999999999989
 31
0.0000000000000000
  0
LINE
  5
44E
100
AcDbEntity
  8
WAKU0
  6
BYBLOCK
 62
0
100
AcDbLine
 10
454.0000000000073
 20
14.00000000000001
 30
0.0000000000000000
 11
454.0000000000073
 21
23.99999999999990
 31
0.0000000000000000
  0
LINE
  5
44F
100
AcDbEntity
  8
WAKU0
  6
BYBLOCK
 62
0
100
AcDbLine
 10
454.0000000000073
 20
819.9999999999927
 30
0.0000000000000000
 11
454.0000000000073
 21
827.9999999999927
 31
0.0000000000000000
  0
LINE
  5
450
100
AcDbEntity
  8
WAKU0
  6
BYBLOCK
 62
0
100
AcDbLine
 10
474.0000000000073
 20
20.00000000000020
 30
0.0000000000000000
 11
474.0000000000073
 21
14.00000000000006
 31
0.0000000000000000
  0
LINE
  5
451
100
AcDbEntity
  8
WAKU0
  6
BYBLOCK
 62
0
100
AcDbLine
 10
494.0000000000073
 20
20.00000000000011
 30
0.0000000000000000
 11
494.0000000000073
 21
14.00000000000004
 31
0.0000000000000000
  0
LINE
  5
452
100
AcDbEntity
  8
WAKU0
  6
BYBLOCK
 62
0
100
AcDbLine
 10
514.0000000000000
 20
14.00000000000002
 30
0.0000000000000000
 11
514.0000000000000
 21
20.00000000000020
 31
0.0000000000000000
  0
LINE
  5
453
100
AcDbEntity
  8
WAKU0
  6
BYBLOCK
 62
0
100
AcDbLine
 10
534.0000000000000
 20
14.00000000000006
 30
0.0000000000000000
 11
534.0000000000000
 21
20.00000000000014
 31
0.0000000000000000
  0
LINE
  5
454
100
AcDbEntity
  8
WAKU0
  6
BYBLOCK
 62
0
100
AcDbLine
 10
554.0000000000000
 20
20.00000000000020
 30
0.0000000000000000
 11
554.0000000000000
 21
14.00000000000002
 31
0.0000000000000000
  0
LINE
  5
455
100
AcDbEntity
  8
WAKU0
  6
BYBLOCK
 62
0
100
AcDbLine
 10
574.0000000000000
 20
20.00000000000017
 30
0.0000000000000000
 11
574.0000000000000
 21
14.00000000000004
 31
0.0000000000000000
  0
LINE
  5
456
100
AcDbEntity
  8
WAKU0
  6
BYBLOCK
 62
0
100
AcDbLine
 10
614.0000000000000
 20
20.00000000000014
 30
0.0000000000000000
 11
614.0000000000000
 21
14.00000000000001
 31
0.0000000000000000
  0
LINE
  5
457
100
AcDbEntity
  8
WAKU0
  6
BYBLOCK
 62
0
100
AcDbLine
 10
634.0000000000000
 20
14.00000000000003
 30
0.0000000000000000
 11
634.0000000000000
 21
20.00000000000017
 31
0.0000000000000000
  0
LINE
  5
458
100
AcDbEntity
  8
WAKU0
  6
BYBLOCK
 62
0
100
AcDbLine
 10
653.9999999999999
 20
20.00000000000014
 30
0.0000000000000000
 11
653.9999999999999
 21
14.00000000000001
 31
0.0000000000000000
  0
LINE
  5
459
100
AcDbEntity
  8
WAKU0
  6
BYBLOCK
 62
0
100
AcDbLine
 10
674.0000000000000
 20
20.00000000000015
 30
0.0000000000000000
 11
673.9999999999998
 21
14.00000000000001
 31
0.0000000000000000
  0
LINE
  5
45A
100
AcDbEntity
  8
WAKU0
  6
BYBLOCK
 62
0
100
AcDbLine
 10
693.9999999999999
 20
20.00000000000023
 30
0.0000000000000000
 11
693.9999999999999
 21
14.00000000000007
 31
0.0000000000000000
  0
LINE
  5
45B
100
AcDbEntity
  8
WAKU0
  6
BYBLOCK
 62
0
100
AcDbLine
 10
713.9999999999999
 20
20.00000000000014
 30
0.0000000000000000
 11
713.9999999999999
 21
14.00000000000001
 31
0.0000000000000000
  0
LINE
  5
45C
100
AcDbEntity
  8
WAKU0
  6
BYBLOCK
 62
0
100
AcDbLine
 10
1014.000000000000
 20
16.00000000000017
 30
0.0000000000000000
 11
1014.000000000000
 21
23.99999999999997
 31
0.0000000000000000
  0
LINE
  5
45D
100
AcDbEntity
  8
WAKU0
  6
BYBLOCK
 62
0
100
AcDbLine
 10
1014.000000000000
 20
819.9999999999949
 30
0.0000000000000000
 11
1014.000000000000
 21
827.9999999999949
 31
0.0000000000000000
  0
LINE
  5
45E
100
AcDbEntity
  8
WAKU0
  6
BYBLOCK
 62
0
100
AcDbLine
 10
874.0000000000000
 20
16.00000000000020
 30
0.0000000000000000
 11
873.9999999999998
 21
24.00000000000002
 31
0.0000000000000000
  0
LINE
  5
45F
100
AcDbEntity
  8
WAKU0
  6
BYBLOCK
 62
0
100
AcDbLine
 10
873.9999999999998
 20
819.9999999999968
 30
0.0000000000000000
 11
873.9999999999998
 21
827.9999999999968
 31
0.0000000000000000
  0
LINE
  5
460
100
AcDbEntity
  8
WAKU0
  6
BYBLOCK
 62
0
100
AcDbLine
 10
314.0000000000073
 20
16.00000000000021
 30
0.0000000000000000
 11
314.0000000000073
 21
24.00000000000002
 31
0.0000000000000000
  0
LINE
  5
461
100
AcDbEntity
  8
WAKU0
  6
BYBLOCK
 62
0
100
AcDbLine
 10
314.0000000000073
 20
819.9999999999927
 30
0.0000000000000000
 11
314.0000000000073
 21
827.9999999999927
 31
0.0000000000000000
  0
LINE
  5
462
100
AcDbEntity
  8
WAKU0
  6
BYBLOCK
 62
0
100
AcDbLine
 10
174.0000000000073
 20
16.00000000000019
 30
0.0000000000000000
 11
174.0000000000073
 21
24.00000000000003
 31
0.0000000000000000
  0
LINE
  5
463
100
AcDbEntity
  8
WAKU0
  6
BYBLOCK
 62
0
100
AcDbLine
 10
174.0000000000073
 20
819.9999999999927
 30
0.0000000000000000
 11
174.0000000000073
 21
827.9999999999927
 31
0.0000000000000000
  0
MTEXT
  5
464
100
AcDbEntity
  8
WAKU0
  6
BYBLOCK
 62
0
100
AcDbMText
 10
112.0000000000036
 20
20.20000076293957
 30
0.0000000000000000
 40
6.200000762939453
 41
0.0000000000000000
 71
     1
 72
     1
  1
{\H0.81x;1}
 11
1.000000000000000
 21
0.0000000000000000
 31
0.0000000000000000
  7
STANDARD
  0
MTEXT
  5
465
100
AcDbEntity
  8
WAKU0
  6
BYBLOCK
 62
0
100
AcDbMText
 10
244.0000000000073
 20
20.20000076293945
 30
0.0000000000000000
 40
6.200000762939453
 41
0.0000000000000000
 71
     1
 72
     1
  1
{\H0.81x;2}
 11
1.000000000000000
 21
0.0000000000000000
 31
0.0000000000000000
  7
STANDARD
  0
MTEXT
  5
466
100
AcDbEntity
  8
WAKU0
  6
BYBLOCK
 62
0
100
AcDbMText
 10
384.0000000000073
 20
20.20000076293945
 30
0.0000000000000000
 40
6.200000762939453
 41
0.0000000000000000
 71
     1
 72
     1
  1
{\H0.81x;3}
 11
1.000000000000000
 21
0.0000000000000000
 31
0.0000000000000000
  7
STANDARD
  0
MTEXT
  5
467
100
AcDbEntity
  8
WAKU0
  6
BYBLOCK
 62
0
100
AcDbMText
 10
803.9999999999996
 20
20.20000076293934
 30
0.0000000000000000
 40
6.200000762939453
 41
0.0000000000000000
 71
     1
 72
     1
  1
{\H0.81x;6}
 11
1.000000000000000
 21
0.0000000000000000
 31
0.0000000000000000
  7
STANDARD
  0
MTEXT
  5
468
100
AcDbEntity
  8
WAKU0
  6
BYBLOCK
 62
0
100
AcDbMText
 10
943.9999999999996
 20
20.20000076293945
 30
0.0000000000000000
 40
6.200000762939453
 41
0.0000000000000000
 71
     1
 72
     1
  1
{\H0.81x;7}
 11
1.000000000000000
 21
0.0000000000000000
 31
0.0000000000000000
  7
STANDARD
  0
MTEXT
  5
469
100
AcDbEntity
  8
WAKU0
  6
BYBLOCK
 62
0
100
AcDbMText
 10
1089.000000000000
 20
20.20000076293945
 30
0.0000000000000000
 40
6.200000762939453
 41
0.0000000000000000
 71
     1
 72
     1
  1
{\H0.81x;8}
 11
1.000000000000000
 21
0.0000000000000000
 31
0.0000000000000000
  7
STANDARD
  0
MTEXT
  5
46A
100
AcDbEntity
  8
WAKU0
  6
BYBLOCK
 62
0
100
AcDbMText
 10
112.0000000000036
 20
830.2000007629322
 30
0.0000000000000000
 40
6.200000762939453
 41
0.0000000000000000
 71
     1
 72
     1
  1
{\H0.81x;1}
 11
1.000000000000000
 21
0.0000000000000000
 31
0.0000000000000000
  7
STANDARD
  0
MTEXT
  5
46B
100
AcDbEntity
  8
WAKU0
  6
BYBLOCK
 62
0
100
AcDbMText
 10
244.0000000000073
 20
830.2000007629322
 30
0.0000000000000000
 40
6.200000762939453
 41
0.0000000000000000
 71
     1
 72
     1
  1
{\H0.81x;2}
 11
1.000000000000000
 21
0.0000000000000000
 31
0.0000000000000000
  7
STANDARD
  0
MTEXT
  5
46C
100
AcDbEntity
  8
WAKU0
  6
BYBLOCK
 62
0
100
AcDbMText
 10
384.0000000000073
 20
830.2000007629322
 30
0.0000000000000000
 40
6.200000762939453
 41
0.0000000000000000
 71
     1
 72
     1
  1
{\H0.81x;3}
 11
1.000000000000000
 21
0.0000000000000000
 31
0.0000000000000000
  7
STANDARD
  0
MTEXT
  5
46D
100
AcDbEntity
  8
WAKU0
  6
BYBLOCK
 62
0
100
AcDbMText
 10
524.0000000000000
 20
830.2000007629322
 30
0.0000000000000000
 40
6.200000762939453
 41
0.0000000000000000
 71
     1
 72
     1
  1
{\H0.81x;4}
 11
1.000000000000000
 21
0.0000000000000000
 31
0.0000000000000000
  7
STANDARD
  0
MTEXT
  5
46E
100
AcDbEntity
  8
WAKU0
  6
BYBLOCK
 62
0
100
AcDbMText
 10
663.9999999999996
 20
830.2000007629322
 30
0.0000000000000000
 40
6.200000762939453
 41
0.0000000000000000
 71
     1
 72
     1
  1
{\H0.81x;5}
 11
1.000000000000000
 21
0.0000000000000000
 31
0.0000000000000000
  7
STANDARD
  0
MTEXT
  5
46F
100
AcDbEntity
  8
WAKU0
  6
BYBLOCK
 62
0
100
AcDbMText
 10
803.9999999999996
 20
830.2000007629322
 30
0.0000000000000000
 40
6.200000762939453
 41
0.0000000000000000
 71
     1
 72
     1
  1
{\H0.81x;6}
 11
1.000000000000000
 21
0.0000000000000000
 31
0.0000000000000000
  7
STANDARD
  0
MTEXT
  5
470
100
AcDbEntity
  8
WAKU0
  6
BYBLOCK
 62
0
100
AcDbMText
 10
943.9999999999996
 20
830.2000007629322
 30
0.0000000000000000
 40
6.200000762939453
 41
0.0000000000000000
 71
     1
 72
     1
  1
{\H0.81x;7}
 11
1.000000000000000
 21
0.0000000000000000
 31
0.0000000000000000
  7
STANDARD
  0
MTEXT
  5
471
100
AcDbEntity
  8
WAKU0
  6
BYBLOCK
 62
0
100
AcDbMText
 10
1089.000000000000
 20
830.2000007629322
 30
0.0000000000000000
 40
6.200000762939453
 41
0.0000000000000000
 71
     1
 72
     1
  1
{\H0.81x;8}
 11
1.000000000000000
 21
0.0000000000000000
 31
0.0000000000000000
  7
STANDARD
  0
MTEXT
  5
472
100
AcDbEntity
  8
WAKU0
  6
BYBLOCK
 62
0
100
AcDbMText
 10
42.00000000000364
 20
756.2000007629322
 30
0.0000000000000000
 40
6.200000762939453
 41
0.0000000000000000
 71
     1
 72
     1
  1
{\H0.81x;A}
 11
1.000000000000000
 21
0.0000000000000000
 31
0.0000000000000000
  7
STANDARD
  0
MTEXT
  5
473
100
AcDbEntity
  8
WAKU0
  6
BYBLOCK
 62
0
100
AcDbMText
 10
42.00000000000364
 20
626.2000007629322
 30
0.0000000000000000
 40
6.200000762939453
 41
0.0000000000000000
 71
     1
 72
     1
  1
{\H0.81x;B}
 11
1.000000000000000
 21
0.0000000000000000
 31
0.0000000000000000
  7
STANDARD
  0
MTEXT
  5
474
100
AcDbEntity
  8
WAKU0
  6
BYBLOCK
 62
0
100
AcDbMText
 10
42.00000000000364
 20
496.2000007629391
 30
0.0000000000000000
 40
6.200000762939453
 41
0.0000000000000000
 71
     1
 72
     1
  1
{\H0.81x;C}
 11
1.000000000000000
 21
0.0000000000000000
 31
0.0000000000000000
  7
STANDARD
  0
MTEXT
  5
475
100
AcDbEntity
  8
WAKU0
  6
BYBLOCK
 62
0
100
AcDbMText
 10
42.00000000000364
 20
366.2000007629391
 30
0.0000000000000000
 40
6.200000762939453
 41
0.0000000000000000
 71
     1
 72
     1
  1
{\H0.81x;D}
 11
1.000000000000000
 21
0.0000000000000000
 31
0.0000000000000000
  7
STANDARD
  0
MTEXT
  5
476
100
AcDbEntity
  8
WAKU0
  6
BYBLOCK
 62
0
100
AcDbMText
 10
42.00000000000364
 20
236.2000007629390
 30
0.0000000000000000
 40
6.200000762939453
 41
0.0000000000000000
 71
     1
 72
     1
  1
{\H0.81x;E}
 11
1.000000000000000
 21
0.0000000000000000
 31
0.0000000000000000
  7
STANDARD
  0
MTEXT
  5
477
100
AcDbEntity
  8
WAKU0
  6
BYBLOCK
 62
0
100
AcDbMText
 10
42.00000000000364
 20
106.2000007629390
 30
0.0000000000000000
 40
6.200000762939453
 41
0.0000000000000000
 71
     1
 72
     1
  1
{\H0.81x;F}
 11
1.000000000000000
 21
0.0000000000000000
 31
0.0000000000000000
  7
STANDARD
  0
MTEXT
  5
478
100
AcDbEntity
  8
WAKU0
  6
BYBLOCK
 62
0
100
AcDbMText
 10
1170.000000000000
 20
756.2000007629322
 30
0.0000000000000000
 40
6.200000762939453
 41
0.0000000000000000
 71
     1
 72
     1
  1
{\H0.81x;A}
 11
1.000000000000000
 21
0.0000000000000000
 31
0.0000000000000000
  7
STANDARD
  0
MTEXT
  5
479
100
AcDbEntity
  8
WAKU0
  6
BYBLOCK
 62
0
100
AcDbMText
 10
1170.000000000000
 20
626.2000007629322
 30
0.0000000000000000
 40
6.200000762939453
 41
0.0000000000000000
 71
     1
 72
     1
  1
{\H0.81x;B}
 11
1.000000000000000
 21
0.0000000000000000
 31
0.0000000000000000
  7
STANDARD
  0
MTEXT
  5
47A
100
AcDbEntity
  8
WAKU0
  6
BYBLOCK
 62
0
100
AcDbMText
 10
1170.000000000000
 20
496.2000007629392
 30
0.0000000000000000
 40
6.200000762939453
 41
0.0000000000000000
 71
     1
 72
     1
  1
{\H0.81x;C}
 11
1.000000000000000
 21
0.0000000000000000
 31
0.0000000000000000
  7
STANDARD
  0
MTEXT
  5
47B
100
AcDbEntity
  8
WAKU0
  6
BYBLOCK
 62
0
100
AcDbMText
 10
1170.000000000000
 20
366.2000007629392
 30
0.0000000000000000
 40
6.200000762939453
 41
0.0000000000000000
 71
     1
 72
     1
  1
{\H0.81x;D}
 11
1.000000000000000
 21
0.0000000000000000
 31
0.0000000000000000
  7
STANDARD
  0
MTEXT
  5
47C
100
AcDbEntity
  8
WAKU0
  6
BYBLOCK
 62
0
100
AcDbMText
 10
1170.000000000000
 20
236.2000007629391
 30
0.0000000000000000
 40
6.200000762939453
 41
0.0000000000000000
 71
     1
 72
     1
  1
{\H0.81x;E}
 11
1.000000000000000
 21
0.0000000000000000
 31
0.0000000000000000
  7
STANDARD
  0
MTEXT
  5
47D
100
AcDbEntity
  8
WAKU0
  6
BYBLOCK
 62
0
100
AcDbMText
 10
1170.000000000000
 20
106.2000007629390
 30
0.0000000000000000
 40
6.200000762939453
 41
0.0000000000000000
 71
     1
 72
     1
  1
{\H0.81x;F}
 11
1.000000000000000
 21
0.0000000000000000
 31
0.0000000000000000
  7
STANDARD
  0
ENDBLK
  5
47E
100
AcDbEntity
  8
WAKU0
  6
BYBLOCK
 62
3
100
AcDbBlockEnd
  0
ENDSEC
  0
SECTION
  2
ENTITIES
  0
LINE
  5
46
100
AcDbEntity
  8
MAIN0
  6
CENTER
 62
3
100
AcDbLine
 10
752.7886088899895
 20
243.4031527533993
 30
0.0000000000000000
 11
752.7886088899895
 21
686.9138425633612
 31
0.0000000000000000
  0
LINE
  5
47
100
AcDbEntity
  8
MAIN0
  6
CONTINUOUS
 62
3
100
AcDbLine
 10
185.2941558856181
 20
267.1584771261112
 30
0.0000000000000000
 11
185.2941558856181
 21
663.1584771261112
 31
0.0000000000000000
  0
LINE
  5
48
100
AcDbEntity
  8
MAIN0
  6
CONTINUOUS
 62
3
100
AcDbLine
 10
187.2941558856182
 20
265.1584771261112
 30
0.0000000000000000
 11
316.6274892189514
 21
265.1584771261112
 31
0.0000000000000000
  0
LINE
  5
49
100
AcDbEntity
  8
MAIN0
  6
CONTINUOUS
 62
3
100
AcDbLine
 10
209.9608225522848
 20
374.4918104594445
 30
0.0000000000000000
 11
209.9608225522848
 21
555.8251437927778
 31
0.0000000000000000
  0
LINE
  5
4A
100
AcDbEntity
  8
MAIN0
  6
CONTINUOUS
 62
3
100
AcDbLine
 10
185.2941558856198
 20
372.0124771258014
 30
0.0000000000000000
 11
205.1288685397472
 21
374.4918104594506
 31
0.0000000000000000
  0
LINE
  5
4B
100
AcDbEntity
  8
MAIN0
  6
CONTINUOUS
 62
3
100
AcDbLine
 10
185.2941558856185
 20
558.3044771258490
 30
0.0000000000000000
 11
205.1288685351010
 21
555.8251437927768
 31
0.0000000000000000
  0
LINE
  5
4C
100
AcDbEntity
  8
MAIN0
  6
CONTINUOUS
 62
3
100
AcDbLine
 10
205.1288685350878
 20
555.8251437927778
 30
0.0000000000000000
 11
209.9608225522848
 21
555.8251437927778
 31
0.0000000000000000
  0
LINE
  5
4D
100
AcDbEntity
  8
MAIN0
  6
CONTINUOUS
 62
3
100
AcDbLine
 10
205.1288685396988
 20
374.4918104594445
 30
0.0000000000000000
 11
209.9608225522848
 21
374.4918104594445
 31
0.0000000000000000
  0
LINE
  5
4E
100
AcDbEntity
  8
MAIN0
  6
CONTINUOUS
 62
3
100
AcDbLine
 10
186.6274892189515
 20
627.8251437927778
 30
0.0000000000000000
 11
201.9055567019531
 21
627.8251437927778
 31
0.0000000000000000
  0
LINE
  5
4F
100
AcDbEntity
  8
MAIN0
  6
CONTINUOUS
 62
3
100
AcDbLine
 10
185.2941558856181
 20
582.4918104594445
 30
0.0000000000000000
 11
208.2948782295350
 21
582.4918104594445
 31
0.0000000000000000
  0
POINT
  5
50
100
AcDbEntity
  8
MAIN0
  6
CONTINUOUS
 62
3
100
AcDbPoint
 10
185.2941558856181
 20
325.1584771261112
 30
0.0000000000000000
  0
POINT
  5
51
100
AcDbEntity
  8
MAIN0
  6
CONTINUOUS
 62
3
100
AcDbPoint
 10
185.2941558856181
 20
282.4918104594445
 30
0.0000000000000000
  0
ARC
  5
52
100
AcDbEntity
  8
MAIN0
  6
CONTINUOUS
 62
3
100
AcDbCircle
 10
752.7886088899895
 20
465.1584771261112
 30
0.0000000000000000
 40
182.6666666666667
100
AcDbArc
 50
270.0000000000000
 51
450.0000000000000
  0
LINE
  5
53
100
AcDbEntity
  8
MAIN0
  6
CENTER
 62
3
100
AcDbLine
 10
903.4961220540370
 20
421.1584771261112
 30
0.0000000000000000
 11
937.9435207827601
 21
421.1584771261112
 31
0.0000000000000000
  0
ARC
  5
54
100
AcDbEntity
  8
MAIN0
  6
CENTER
 62
3
100
AcDbCircle
 10
752.7886088899895
 20
465.1584771261112
 30
0.0000000000000000
 40
170.6666666666667
100
AcDbArc
 50
339.3855307671092
 51
351.0273800306945
  0
ARC
  5
55
100
AcDbEntity
  8
MAIN0
  6
CONTINUOUS
 62
3
100
AcDbCircle
 10
917.6858833098875
 20
421.1584771261112
 30
0.0000000000000000
 40
18.66666666666666
100
AcDbArc
 50
198.4084801705856
 51
263.0842262060218
  0
LINE
  5
56
100
AcDbEntity
  8
MAIN0
  6
CONTINUOUS
 62
3
100
AcDbLine
 10
889.9276300003617
 20
419.8251437927779
 30
0.0000000000000000
 11
893.6488748067939
 21
419.8251437927779
 31
0.0000000000000000
  0
ARC
  5
57
100
AcDbEntity
  8
MAIN0
  6
CONTINUOUS
 62
3
100
AcDbCircle
 10
893.6488748067939
 20
413.1584771261112
 30
0.0000000000000000
 40
6.666666666666666
100
AcDbArc
 50
18.40848017058561
 51
90.00000000000000
  0
ARC
  5
58
100
AcDbEntity
  8
MAIN0
  6
CONTINUOUS
 62
3
100
AcDbCircle
 10
914.6354929703555
 20
396.0094632974485
 30
0.0000000000000000
 40
6.666666666666666
100
AcDbArc
 50
336.8654240762214
 51
443.0842262060218
  0
ARC
  5
59
100
AcDbEntity
  8
MAIN0
  6
CONTINUOUS
 62
3
100
AcDbCircle
 10
889.9276300003617
 20
413.1584771261112
 30
0.0000000000000000
 40
6.666666666666666
100
AcDbArc
 50
90.00000000000000
 51
159.2344110821647
  0
LINE
  5
5A
100
AcDbEntity
  8
MAIN0
  6
CENTER
 62
3
100
AcDbLine
 10
752.7886088899895
 20
465.1584771261111
 30
0.0000000000000000
 11
898.4597749274408
 21
319.4873110886599
 31
0.0000000000000000
  0
LINE
  5
5B
100
AcDbEntity
  8
MAIN0
  6
CONTINUOUS
 62
3
100
AcDbLine
 10
863.0972667550900
 20
369.9347639263237
 30
0.0000000000000000
 11
876.2965933372389
 21
356.7354373441748
 31
0.0000000000000000
  0
LINE
  5
5C
100
AcDbEntity
  8
MAIN0
  6
CONTINUOUS
 62
3
100
AcDbLine
 10
848.0123220897769
 20
354.8498192610107
 30
0.0000000000000000
 11
861.2116486719259
 21
341.6504926788618
 31
0.0000000000000000
  0
ARC
  5
5D
100
AcDbEntity
  8
MAIN0
  6
CONTINUOUS
 62
3
100
AcDbCircle
 10
883.2166844117245
 20
346.9869191449430
 30
0.0000000000000000
 40
6.666666666666666
100
AcDbArc
 50
317.8225245506916
 51
404.9999999999999
  0
ARC
  5
5E
100
AcDbEntity
  8
MAIN0
  6
CONTINUOUS
 62
3
100
AcDbCircle
 10
870.9601668711576
 20
334.7304016043762
 30
0.0000000000000000
 40
6.666666666666666
100
AcDbArc
 50
225.0000000000000
 51
312.1774754493084
  0
LINE
  5
5F
100
AcDbEntity
  8
MAIN0
  6
HIDDEN
 62
3
100
AcDbLine
 10
848.4837266105635
 20
381.7198769461000
 30
0.0000000000000000
 11
836.2272090700019
 21
369.4633594055280
 31
0.0000000000000000
  0
ARC
  5
60
100
AcDbEntity
  8
MAIN0
  6
HIDDEN
 62
3
100
AcDbCircle
 10
853.1977718184758
 20
377.0058317381918
 30
0.0000000000000000
 40
6.666666666666666
100
AcDbArc
 50
45.00000000000000
 51
135.0000000000244
  0
ARC
  5
61
100
AcDbEntity
  8
MAIN0
  6
HIDDEN
 62
3
100
AcDbCircle
 10
840.9412542779143
 20
364.7493141976197
 30
0.0000000000000000
 40
6.666666666666666
100
AcDbArc
 50
135.0000000000245
 51
225.0000000000000
  0
ARC
  5
62
100
AcDbEntity
  8
MAIN0
  6
CONTINUOUS
 62
3
100
AcDbCircle
 10
796.7886088899895
 20
300.2612027062132
 30
0.0000000000000000
 40
18.66666666666666
100
AcDbArc
 50
6.915773793978231
 51
71.59151982941442
  0
LINE
  5
63
100
AcDbEntity
  8
MAIN0
  6
CONTINUOUS
 62
3
100
AcDbLine
 10
798.1219422233229
 20
328.0194560157390
 30
0.0000000000000000
 11
798.1219422233229
 21
324.2982112093068
 31
0.0000000000000000
  0
ARC
  5
64
100
AcDbEntity
  8
MAIN0
  6
CONTINUOUS
 62
3
100
AcDbCircle
 10
804.7886088899895
 20
324.2982112093068
 30
0.0000000000000000
 40
6.666666666666666
100
AcDbArc
 50
180.0000000000000
 51
251.5915198294144
  0
ARC
  5
65
100
AcDbEntity
  8
MAIN0
  6
CONTINUOUS
 62
3
100
AcDbCircle
 10
821.9376227186522
 20
303.3115930457452
 30
0.0000000000000000
 40
6.666666666666666
100
AcDbArc
 50
186.9157737939782
 51
293.1345759237786
  0
ARC
  5
66
100
AcDbEntity
  8
MAIN0
  6
CONTINUOUS
 62
3
100
AcDbCircle
 10
804.7886088899895
 20
328.0194560157390
 30
0.0000000000000000
 40
6.666666666666666
100
AcDbArc
 50
110.7655889178353
 51
180.0000000000000
  0
POINT
  5
67
100
AcDbEntity
  8
MAIN0
  6
CONTINUOUS
 62
3
100
AcDbPoint
 10
851.7835582561062
 20
366.1635277599945
 30
0.0000000000000000
  0
POINT
  5
68
100
AcDbEntity
  8
MAIN0
  6
CONTINUOUS
 62
3
100
AcDbPoint
 10
894.2099651272990
 20
323.7371208888017
 30
0.0000000000000000
  0
POINT
  5
69
100
AcDbEntity
  8
MAIN0
  6
CONTINUOUS
 62
3
100
AcDbPoint
 10
802.4249725263531
 20
334.2530478843922
 30
0.0000000000000000
  0
ARC
  5
6A
100
AcDbEntity
  8
MAIN0
  6
CENTER
 62
3
100
AcDbCircle
 10
752.7886088899895
 20
465.1584771261112
 30
0.0000000000000000
 40
140.0000000000000
100
AcDbArc
 50
264.8197418594980
 51
285.2551187030578
  0
ARC
  5
6B
100
AcDbEntity
  8
MAIN0
  6
CONTINUOUS
 62
3
100
AcDbCircle
 10
752.7886088899895
 20
465.1584771261112
 30
0.0000000000000000
 40
140.0000000000000
100
AcDbArc
 50
290.7655889178353
 51
339.2344110821647
  0
LINE
  5
6C
100
AcDbEntity
  8
MAIN0
  6
CONTINUOUS
 62
3
100
AcDbLine
 10
186.6274892189516
 20
325.1214400890742
 30
0.0000000000000000
 11
210.0955099553538
 21
324.4695506241742
 31
0.0000000000000000
  0
LINE
  5
6D
100
AcDbEntity
  8
MAIN0
  6
DASHED
 62
3
100
AcDbLine
 10
245.2941558856181
 20
661.8251437927778
 30
0.0000000000000000
 11
281.2941558856181
 21
661.8251437927778
 31
0.0000000000000000
  0
LINE
  5
6E
100
AcDbEntity
  8
MAIN0
  6
DASHED
 62
3
100
AcDbLine
 10
251.2941558856181
 20
659.1584771261112
 30
0.0000000000000000
 11
275.2941558856181
 21
659.1584771261112
 31
0.0000000000000000
  0
LINE
  5
6F
100
AcDbEntity
  8
MAIN0
  6
CONTINUOUS
 62
3
100
AcDbLine
 10
209.9608225522848
 20
515.1584771261112
 30
0.0000000000000000
 11
221.1290284117748
 21
515.1584771261112
 31
0.0000000000000000
  0
LINE
  5
70
100
AcDbEntity
  8
MAIN0
  6
CONTINUOUS
 62
3
100
AcDbLine
 10
209.9608225522848
 20
415.1584771261112
 30
0.0000000000000000
 11
219.9354642296075
 21
415.1584771261112
 31
0.0000000000000000
  0
CIRCLE
  5
71
100
AcDbEntity
  8
MAIN0
  6
CONTINUOUS
 62
3
100
AcDbCircle
 10
892.7886088899895
 20
465.1584771261112
 30
0.0000000000000000
 40
22.66666666666666
  0
ARC
  5
72
100
AcDbEntity
  8
MAIN0
  6
CONTINUOUS
 62
3
100
AcDbCircle
 10
752.7886088899895
 20
605.1584771261112
 30
0.0000000000000000
 40
22.66666666666666
100
AcDbArc
 50
270.0000000000000
 51
450.0000000000000
  0
ARC
  5
73
100
AcDbEntity
  8
MAIN0
  6
CONTINUOUS
 62
3
100
AcDbCircle
 10
752.7886088899895
 20
465.1584771261112
 30
0.0000000000000000
 40
137.3333333333333
100
AcDbArc
 50
9.311289233540103
 51
80.68871076645989
  0
ARC
  5
74
100
AcDbEntity
  8
MAIN0
  6
CONTINUOUS
 62
3
100
AcDbCircle
 10
752.7886088899895
 20
465.1584771261112
 30
0.0000000000000000
 40
137.3333333333333
100
AcDbArc
 50
279.3112892335401
 51
350.6887107664599
  0
ARC
  5
75
100
AcDbEntity
  8
MAIN0
  6
CONTINUOUS
 62
3
100
AcDbCircle
 10
868.7541210045824
 20
349.1929650115183
 30
0.0000000000000000
 40
10.66666666666667
100
AcDbArc
 50
225.0000000000000
 51
404.9999999999999
  0
POINT
  5
76
100
AcDbEntity
  8
MAIN0
  6
CONTINUOUS
 62
3
100
AcDbPoint
 10
862.0303256938930
 20
377.6013682785952
 30
0.0000000000000000
  0
LINE
  5
77
100
AcDbEntity
  8
MAIN0
  6
HIDDEN
 62
3
100
AcDbLine
 10
857.9118170263861
 20
381.7198769461021
 30
0.0000000000000000
 11
862.0303256938930
 21
377.6013682785952
 31
0.0000000000000000
  0
LINE
  5
78
100
AcDbEntity
  8
MAIN0
  6
CONTINUOUS
 62
3
100
AcDbLine
 10
862.0303256938930
 20
377.6013682785952
 30
0.0000000000000000
 11
887.9307296196348
 21
351.7009643528533
 31
0.0000000000000000
  0
POINT
  5
79
100
AcDbEntity
  8
MAIN0
  6
CONTINUOUS
 62
3
100
AcDbPoint
 10
857.9836051711983
 20
372.7787566383522
 30
0.0000000000000000
  0
ARC
  5
7A
100
AcDbEntity
  8
MAIN0
  6
CONTINUOUS
 62
3
100
AcDbCircle
 10
855.5547944224335
 20
362.3922915936672
 30
0.0000000000000000
 40
10.66666666666667
100
AcDbArc
 50
45.00000000000000
 51
76.83824185382530
  0
POINT
  5
7B
100
AcDbEntity
  8
MAIN0
  6
CONTINUOUS
 62
3
100
AcDbPoint
 10
845.1683293777485
 20
359.9634808449025
 30
0.0000000000000000
  0
ARC
  5
7C
100
AcDbEntity
  8
MAIN0
  6
HIDDEN
 62
3
100
AcDbCircle
 10
855.5547944224335
 20
362.3922915936672
 30
0.0000000000000000
 40
10.66666666666667
100
AcDbArc
 50
76.83824185382530
 51
193.1617581461747
  0
ARC
  5
7D
100
AcDbEntity
  8
MAIN0
  6
CONTINUOUS
 62
3
100
AcDbCircle
 10
855.5547944224335
 20
362.3922915936672
 30
0.0000000000000000
 40
10.66666666666667
100
AcDbArc
 50
193.1617581461747
 51
225.0000000000000
  0
POINT
  5
7E
100
AcDbEntity
  8
MAIN0
  6
CONTINUOUS
 62
3
100
AcDbPoint
 10
840.3457177375055
 20
355.9167603222077
 30
0.0000000000000000
  0
LINE
  5
7F
100
AcDbEntity
  8
MAIN0
  6
HIDDEN
 62
3
100
AcDbLine
 10
836.2272090700038
 20
360.0352689897094
 30
0.0000000000000000
 11
840.3457177375054
 21
355.9167603222078
 31
0.0000000000000000
  0
LINE
  5
80
100
AcDbEntity
  8
MAIN0
  6
CONTINUOUS
 62
3
100
AcDbLine
 10
840.3457177375055
 20
355.9167603222077
 30
0.0000000000000000
 11
866.2461216632473
 21
330.0163563964658
 31
0.0000000000000000
  0
LINE
  5
81
100
AcDbEntity
  8
MAIN0
  6
CENTER
 62
3
100
AcDbLine
 10
794.5343673132114
 20
537.4642517156281
 30
0.0000000000000000
 11
826.2364275141399
 21
592.3738306882436
 31
0.0000000000000000
  0
CIRCLE
  5
82
100
AcDbEntity
  8
MAIN0
  6
CONTINUOUS
 62
3
100
AcDbCircle
 10
809.9219422233255
 20
564.1163132652176
 30
0.0000000000000000
 40
11.33333333333333
  0
CIRCLE
  5
83
100
AcDbEntity
  8
MAIN0
  6
CONTINUOUS
 62
3
100
AcDbCircle
 10
851.7464450290954
 20
408.0251437927759
 30
0.0000000000000000
 40
11.33333333333333
  0
LINE
  5
84
100
AcDbEntity
  8
MAIN0
  6
CENTER
 62
3
100
AcDbLine
 10
711.0428504667676
 20
537.4642517156281
 30
0.0000000000000000
 11
679.3407902658391
 21
592.3738306882436
 31
0.0000000000000000
  0
LINE
  5
85
100
AcDbEntity
  8
MAIN0
  6
CENTER
 62
3
100
AcDbLine
 10
629.3023264254315
 20
393.8636387039725
 30
0.0000000000000000
 11
676.5129725101627
 21
421.1207179296083
 31
0.0000000000000000
  0
LINE
  5
86
100
AcDbEntity
  8
MAIN0
  6
CENTER
 62
3
100
AcDbLine
 10
876.2748913545476
 20
393.8636387039725
 30
0.0000000000000000
 11
829.0642452698163
 21
421.1207179296083
 31
0.0000000000000000
  0
ARC
  5
87
100
AcDbEntity
  8
MAIN0
  6
CONTINUOUS
 62
3
100
AcDbCircle
 10
917.6858833098875
 20
509.1584771261112
 30
0.0000000000000000
 40
18.66666666666666
100
AcDbArc
 50
96.91577379397823
 51
161.5915198294144
  0
ARC
  5
88
100
AcDbEntity
  8
MAIN0
  6
CONTINUOUS
 62
3
100
AcDbCircle
 10
893.6488748067939
 20
517.1584771261112
 30
0.0000000000000000
 40
6.666666666666666
100
AcDbArc
 50
270.0000000000000
 51
341.5915198294143
  0
LINE
  5
89
100
AcDbEntity
  8
MAIN0
  6
CONTINUOUS
 62
3
100
AcDbLine
 10
889.9276300003617
 20
510.4918104594445
 30
0.0000000000000000
 11
893.6488748067939
 21
510.4918104594445
 31
0.0000000000000000
  0
ARC
  5
8A
100
AcDbEntity
  8
MAIN0
  6
CONTINUOUS
 62
3
100
AcDbCircle
 10
752.7886088899895
 20
465.1584771261112
 30
0.0000000000000000
 40
140.0000000000000
100
AcDbArc
 50
20.76558891783530
 51
69.23441108216470
  0
ARC
  5
8B
100
AcDbEntity
  8
MAIN0
  6
CONTINUOUS
 62
3
100
AcDbCircle
 10
889.9276300003617
 20
517.1584771261112
 30
0.0000000000000000
 40
6.666666666666666
100
AcDbArc
 50
200.7655889178353
 51
270.0000000000000
  0
ARC
  5
8C
100
AcDbEntity
  8
MAIN0
  6
CONTINUOUS
 62
3
100
AcDbCircle
 10
914.6354929703555
 20
534.3074909547738
 30
0.0000000000000000
 40
6.666666666666666
100
AcDbArc
 50
276.9157737939783
 51
383.1345759237787
  0
ARC
  5
8D
100
AcDbEntity
  8
MAIN0
  6
CONTINUOUS
 62
3
100
AcDbCircle
 10
796.7886088899895
 20
630.0557515460091
 30
0.0000000000000000
 40
18.66666666666666
100
AcDbArc
 50
288.4084801705856
 51
353.0842262060218
  0
ARC
  5
8E
100
AcDbEntity
  8
MAIN0
  6
CONTINUOUS
 62
3
100
AcDbCircle
 10
804.7886088899895
 20
606.0187430429155
 30
0.0000000000000000
 40
6.666666666666666
100
AcDbArc
 50
108.4084801705857
 51
180.0000000000000
  0
LINE
  5
8F
100
AcDbEntity
  8
MAIN0
  6
CONTINUOUS
 62
3
100
AcDbLine
 10
798.1219422233229
 20
602.2974982364833
 30
0.0000000000000000
 11
798.1219422233229
 21
606.0187430429155
 31
0.0000000000000000
  0
POINT
  5
90
100
AcDbEntity
  8
MAIN0
  6
CONTINUOUS
 62
3
100
AcDbPoint
 10
802.4249725263531
 20
596.0639063678301
 30
0.0000000000000000
  0
ARC
  5
91
100
AcDbEntity
  8
MAIN0
  6
CONTINUOUS
 62
3
100
AcDbCircle
 10
804.7886088899895
 20
602.2974982364833
 30
0.0000000000000000
 40
6.666666666666666
100
AcDbArc
 50
180.0000000000000
 51
249.2344110821647
  0
ARC
  5
92
100
AcDbEntity
  8
MAIN0
  6
CONTINUOUS
 62
3
100
AcDbCircle
 10
821.9376227186522
 20
627.0053612064771
 30
0.0000000000000000
 40
6.666666666666666
100
AcDbArc
 50
66.86542407622135
 51
173.0842262060218
  0
LINE
  5
93
100
AcDbEntity
  8
MAIN0
  6
CONTINUOUS
 62
3
100
AcDbLine
 10
862.0303256938930
 20
552.7155859736272
 30
0.0000000000000000
 11
887.9307296196348
 21
578.6159898993690
 31
0.0000000000000000
  0
LINE
  5
94
100
AcDbEntity
  8
MAIN0
  6
CONTINUOUS
 62
3
100
AcDbLine
 10
863.0972667550900
 20
560.3821903258986
 30
0.0000000000000000
 11
876.2965933372389
 21
573.5815169080476
 31
0.0000000000000000
  0
LINE
  5
95
100
AcDbEntity
  8
MAIN0
  6
CONTINUOUS
 62
3
100
AcDbLine
 10
848.0123220897769
 20
575.4671349912117
 30
0.0000000000000000
 11
861.2116486719259
 21
588.6664615733605
 31
0.0000000000000000
  0
ARC
  5
96
100
AcDbEntity
  8
MAIN0
  6
CONTINUOUS
 62
3
100
AcDbCircle
 10
868.7541210045824
 20
581.1239892407041
 30
0.0000000000000000
 40
10.66666666666667
100
AcDbArc
 50
315.0000000000000
 51
494.9999999999999
  0
ARC
  5
97
100
AcDbEntity
  8
MAIN0
  6
CONTINUOUS
 62
3
100
AcDbCircle
 10
883.2166844117245
 20
583.3300351072793
 30
0.0000000000000000
 40
6.666666666666666
100
AcDbArc
 50
315.0000000000000
 51
402.1774754493084
  0
ARC
  5
98
100
AcDbEntity
  8
MAIN0
  6
CONTINUOUS
 62
3
100
AcDbCircle
 10
870.9601668711576
 20
595.5865526478461
 30
0.0000000000000000
 40
6.666666666666666
100
AcDbArc
 50
47.82252455069165
 51
135.0000000000000
  0
LINE
  5
99
100
AcDbEntity
  8
MAIN0
  6
CONTINUOUS
 62
3
100
AcDbLine
 10
840.3457177375055
 20
574.4001939300147
 30
0.0000000000000000
 11
866.2461216632473
 21
600.3005978557565
 31
0.0000000000000000
  0
LINE
  5
9A
100
AcDbEntity
  8
MAIN0
  6
HIDDEN
 62
3
100
AcDbLine
 10
836.2272090700038
 20
570.2816852625130
 30
0.0000000000000000
 11
840.3457177375054
 21
574.4001939300146
 31
0.0000000000000000
  0
POINT
  5
9B
100
AcDbEntity
  8
MAIN0
  6
CONTINUOUS
 62
3
100
AcDbPoint
 10
840.3457177375055
 20
574.4001939300147
 30
0.0000000000000000
  0
LINE
  5
9C
100
AcDbEntity
  8
MAIN0
  6
HIDDEN
 62
3
100
AcDbLine
 10
857.9118170263861
 20
548.5970773061202
 30
0.0000000000000000
 11
862.0303256938930
 21
552.7155859736272
 31
0.0000000000000000
  0
ARC
  5
9D
100
AcDbEntity
  8
MAIN0
  6
HIDDEN
 62
3
100
AcDbCircle
 10
853.1977718184758
 20
553.3111225140306
 30
0.0000000000000000
 40
6.666666666666666
100
AcDbArc
 50
224.9999999999756
 51
315.0000000000000
  0
LINE
  5
9E
100
AcDbEntity
  8
MAIN0
  6
HIDDEN
 62
3
100
AcDbLine
 10
848.4837266105635
 20
548.5970773061223
 30
0.0000000000000000
 11
836.2272090700019
 21
560.8535948466944
 31
0.0000000000000000
  0
ARC
  5
9F
100
AcDbEntity
  8
MAIN0
  6
HIDDEN
 62
3
100
AcDbCircle
 10
840.9412542779143
 20
565.5676400546026
 30
0.0000000000000000
 40
6.666666666666666
100
AcDbArc
 50
135.0000000000000
 51
224.9999999999755
  0
LINE
  5
A0
100
AcDbEntity
  8
MAIN0
  6
CENTER
 62
3
100
AcDbLine
 10
846.6935628424465
 20
559.0634310785681
 30
0.0000000000000000
 11
898.4597749274408
 21
610.8296431635624
 31
0.0000000000000000
  0
ARC
  5
A1
100
AcDbEntity
  8
MAIN0
  6
HIDDEN
 62
3
100
AcDbCircle
 10
855.5547944224335
 20
567.9246626585551
 30
0.0000000000000000
 40
10.66666666666667
100
AcDbArc
 50
166.8382418538253
 51
283.1617581461747
  0
ARC
  5
A2
100
AcDbEntity
  8
MAIN0
  6
CONTINUOUS
 62
3
100
AcDbCircle
 10
855.5547944224335
 20
567.9246626585551
 30
0.0000000000000000
 40
10.66666666666667
100
AcDbArc
 50
283.1617581461747
 51
315.0000000000000
  0
ARC
  5
A3
100
AcDbEntity
  8
MAIN0
  6
CONTINUOUS
 62
3
100
AcDbCircle
 10
855.5547944224335
 20
567.9246626585551
 30
0.0000000000000000
 40
10.66666666666667
100
AcDbArc
 50
135.0000000000000
 51
166.8382418538253
  0
LINE
  5
A4
100
AcDbEntity
  8
MAIN0
  6
CONTINUOUS
 62
3
100
AcDbLine
 10
642.4799510248890
 20
560.3821903258986
 30
0.0000000000000000
 11
629.2806244427402
 21
573.5815169080476
 31
0.0000000000000000
  0
LINE
  5
A5
100
AcDbEntity
  8
MAIN0
  6
CONTINUOUS
 62
3
100
AcDbLine
 10
657.5648956902021
 20
575.4671349912117
 30
0.0000000000000000
 11
644.3655691080531
 21
588.6664615733605
 31
0.0000000000000000
  0
ARC
  5
A6
100
AcDbEntity
  8
MAIN0
  6
CONTINUOUS
 62
3
100
AcDbCircle
 10
636.8230967753966
 20
581.1239892407041
 30
0.0000000000000000
 40
10.66666666666667
100
AcDbArc
 50
45.00000000000005
 51
225.0000000000000
  0
ARC
  5
A7
100
AcDbEntity
  8
MAIN0
  6
CONTINUOUS
 62
3
100
AcDbCircle
 10
650.0224233575456
 20
567.9246626585551
 30
0.0000000000000000
 40
10.66666666666667
100
AcDbArc
 50
225.0000000000000
 51
404.9999999999999
  0
ARC
  5
A8
100
AcDbEntity
  8
MAIN0
  6
CONTINUOUS
 62
3
100
AcDbCircle
 10
636.8230967753966
 20
349.1929650115183
 30
0.0000000000000000
 40
10.66666666666667
100
AcDbArc
 50
135.0000000000000
 51
315.0000000000000
  0
LINE
  5
A9
100
AcDbEntity
  8
MAIN0
  6
CONTINUOUS
 62
3
100
AcDbLine
 10
642.4799510248890
 20
369.9347639263237
 30
0.0000000000000000
 11
629.2806244427402
 21
356.7354373441748
 31
0.0000000000000000
  0
ARC
  5
AA
100
AcDbEntity
  8
MAIN0
  6
CONTINUOUS
 62
3
100
AcDbCircle
 10
650.0224233575456
 20
362.3922915936672
 30
0.0000000000000000
 40
10.66666666666667
100
AcDbArc
 50
315.0000000000000
 51
494.9999999999999
  0
LINE
  5
AB
100
AcDbEntity
  8
MAIN0
  6
CENTER
 62
3
100
AcDbLine
 10
664.4350855714022
 20
553.5120004446985
 30
0.0000000000000000
 11
622.1011575106990
 21
595.8459285054017
 31
0.0000000000000000
  0
LINE
  5
AC
100
AcDbEntity
  8
MAIN0
  6
CENTER
 62
3
100
AcDbLine
 10
825.4935958137729
 20
507.1347208979857
 30
0.0000000000000000
 11
882.0513314027990
 21
539.7883447650656
 31
0.0000000000000000
  0
LINE
  5
AD
100
AcDbEntity
  8
MAIN0
  6
CONTINUOUS
 62
3
100
AcDbLine
 10
307.9608225522848
 20
673.1861907457452
 30
0.0000000000000000
 11
307.9608225522848
 21
665.1584771261112
 31
0.0000000000000000
  0
LINE
  5
AE
100
AcDbEntity
  8
MAIN0
  6
CONTINUOUS
 62
3
100
AcDbLine
 10
292.6274892189514
 20
673.1861907457533
 30
0.0000000000000000
 11
292.6274892189514
 21
665.1584771261112
 31
0.0000000000000000
  0
LINE
  5
AF
100
AcDbEntity
  8
MAIN0
  6
DASHED
 62
3
100
AcDbLine
 10
272.6274892189514
 20
636.4918104594444
 30
0.0000000000000000
 11
272.6274892189514
 21
628.4918104594444
 31
0.0000000000000000
  0
LINE
  5
B0
100
AcDbEntity
  8
MAIN0
  6
CONTINUOUS
 62
3
100
AcDbLine
 10
318.6274892189514
 20
517.8251437927778
 30
0.0000000000000000
 11
318.6274892189514
 21
663.1584771261112
 31
0.0000000000000000
  0
LINE
  5
B1
100
AcDbEntity
  8
MAIN0
  6
CONTINUOUS
 62
3
100
AcDbLine
 10
726.1219422233229
 20
508.2397955831872
 30
0.0000000000000000
 11
726.1219422233229
 21
663.3727270903579
 31
0.0000000000000000
  0
LINE
  5
B2
100
AcDbEntity
  8
MAIN0
  6
CONTINUOUS
 62
3
100
AcDbLine
 10
709.7072904329134
 20
491.8251437927778
 30
0.0000000000000000
 11
554.5743589257428
 21
491.8251437927778
 31
0.0000000000000000
  0
LINE
  5
B3
100
AcDbEntity
  8
MAIN0
  6
CONTINUOUS
 62
3
100
AcDbLine
 10
709.7072904329134
 20
438.4918104594445
 30
0.0000000000000000
 11
554.5743589257428
 21
438.4918104594445
 31
0.0000000000000000
  0
LINE
  5
B4
100
AcDbEntity
  8
MAIN0
  6
CONTINUOUS
 62
3
100
AcDbLine
 10
726.1219422233229
 20
422.0771586690351
 30
0.0000000000000000
 11
726.1219422233229
 21
266.9442271618644
 31
0.0000000000000000
  0
ARC
  5
B5
100
AcDbEntity
  8
MAIN0
  6
CENTER
 62
3
100
AcDbCircle
 10
752.7886088899895
 20
465.1584771261112
 30
0.0000000000000000
 40
114.2666666666667
100
AcDbArc
 50
196.5043531131741
 51
223.4518359195295
  0
ARC
  5
B6
100
AcDbEntity
  8
MAIN0
  6
CENTER
 62
3
100
AcDbCircle
 10
752.7886088899895
 20
465.1584771261112
 30
0.0000000000000000
 40
114.2666666666667
100
AcDbArc
 50
315.8425436363278
 51
341.2041321165074
  0
ARC
  5
B7
100
AcDbEntity
  8
MAIN0
  6
CENTER
 62
3
100
AcDbCircle
 10
752.7886088899895
 20
465.1584771261112
 30
0.0000000000000000
 40
114.2666666666667
100
AcDbArc
 50
15.15408307507292
 51
72.47443823280523
  0
ARC
  5
B8
100
AcDbEntity
  8
MAIN0
  6
CENTER
 62
3
100
AcDbCircle
 10
752.7886088899895
 20
465.1584771261112
 30
0.0000000000000000
 40
114.2666666666667
100
AcDbArc
 50
107.0205268599931
 51
132.8252474924531
  0
LINE
  5
B9
100
AcDbEntity
  8
MAIN0
  6
DASHED
 62
3
100
AcDbLine
 10
251.2941558856181
 20
636.4918104594444
 30
0.0000000000000000
 11
251.2941558856181
 21
659.1584771261112
 31
0.0000000000000000
  0
LINE
  5
BA
100
AcDbEntity
  8
MAIN0
  6
DASHED
 62
3
100
AcDbLine
 10
275.2941558856181
 20
636.4918104594444
 30
0.0000000000000000
 11
275.2941558856181
 21
659.1584771261112
 31
0.0000000000000000
  0
LINE
  5
BB
100
AcDbEntity
  8
MAIN0
  6
DASHED
 62
3
100
AcDbLine
 10
251.2941558856181
 20
636.4918104594444
 30
0.0000000000000000
 11
275.2941558856181
 21
636.4918104594444
 31
0.0000000000000000
  0
LINE
  5
BC
100
AcDbEntity
  8
MAIN0
  6
DASHED
 62
3
100
AcDbLine
 10
253.9608225522848
 20
628.4918104594444
 30
0.0000000000000000
 11
272.6274892189514
 21
628.4918104594444
 31
0.0000000000000000
  0
LINE
  5
BD
100
AcDbEntity
  8
MAIN0
  6
DASHED
 62
3
100
AcDbLine
 10
253.9608225522848
 20
628.4918104594444
 30
0.0000000000000000
 11
253.9608225522848
 21
636.4918104594444
 31
0.0000000000000000
  0
LINE
  5
BE
100
AcDbEntity
  8
MAIN0
  6
DASHED
 62
3
100
AcDbLine
 10
263.2941558856519
 20
623.1032079472758
 30
0.0000000000000000
 11
272.6274892185331
 21
628.4918104594445
 31
0.0000000000000000
  0
LINE
  5
BF
100
AcDbEntity
  8
MAIN0
  6
DASHED
 62
3
100
AcDbLine
 10
253.9608225528148
 20
628.4918104594447
 30
0.0000000000000000
 11
263.2941558856527
 21
623.1032079472756
 31
0.0000000000000000
  0
LINE
  5
C0
100
AcDbEntity
  8
MAIN0
  6
DASHED
 62
3
100
AcDbLine
 10
276.8337566028235
 20
661.8251437927778
 30
0.0000000000000000
 11
275.2941558849910
 21
659.1584771261112
 31
0.0000000000000000
  0
LINE
  5
C1
100
AcDbEntity
  8
MAIN0
  6
DASHED
 62
3
100
AcDbLine
 10
249.7545551676423
 20
661.8251437927779
 30
0.0000000000000000
 11
251.2941558854888
 21
659.1584771261114
 31
0.0000000000000000
  0
LINE
  5
C2
100
AcDbEntity
  8
MAIN0
  6
CENTER
 62
3
100
AcDbLine
 10
286.4353355905593
 20
785.7299823820101
 30
0.0000000000000000
 11
238.5299246198210
 21
785.7299823819601
 31
0.0000000000000000
  0
LINE
  5
C3
100
AcDbEntity
  8
MAIN0
  6
CONTINUOUS
 62
3
100
AcDbLine
 10
251.1389148168962
 20
786.7740678963164
 30
0.0000000000000000
 11
262.2500703712879
 21
797.8852234507081
 31
0.0000000000000000
  0
LINE
  5
C4
100
AcDbEntity
  8
MAIN0
  6
CONTINUOUS
 62
3
100
AcDbLine
 10
264.3382413979730
 20
773.5747413130962
 30
0.0000000000000000
 11
275.4493969545073
 21
784.6858968696304
 31
0.0000000000000000
  0
LINE
  5
C5
100
AcDbEntity
  8
MAIN0
  6
CONTINUOUS
 62
3
100
AcDbLine
 10
264.3382413992226
 20
797.8852234507699
 30
0.0000000000000000
 11
275.4493969544041
 21
786.7740678955652
 31
0.0000000000000000
  0
LINE
  5
C6
100
AcDbEntity
  8
MAIN0
  6
CONTINUOUS
 62
3
100
AcDbLine
 10
251.1389148167887
 20
784.6858968689058
 30
0.0000000000000000
 11
262.2500703725126
 21
773.5747413131588
 31
0.0000000000000000
  0
ARC
  5
C7
100
AcDbEntity
  8
MAIN0
  6
CONTINUOUS
 62
3
100
AcDbCircle
 10
263.2941558856180
 20
785.7299823819859
 30
0.0000000000000000
 40
12.20000000000000
100
AcDbArc
 50
85.09057720081077
 51
94.90942280261426
  0
ARC
  5
C8
100
AcDbEntity
  8
MAIN0
  6
CONTINUOUS
 62
3
100
AcDbCircle
 10
263.2941558856180
 20
785.7299823819859
 30
0.0000000000000000
 40
12.20000000000000
100
AcDbArc
 50
265.0905772031593
 51
274.9094227933131
  0
LINE
  5
C9
100
AcDbEntity
  8
MAIN0
  6
DASHED
 62
3
100
AcDbLine
 10
262.2500703720277
 20
659.1584771261111
 30
0.0000000000000000
 11
262.2500703719774
 21
636.4918104594444
 31
0.0000000000000000
  0
LINE
  5
CA
100
AcDbEntity
  8
MAIN0
  6
DASHED
 62
3
100
AcDbLine
 10
264.3382413981767
 20
659.1584771261112
 30
0.0000000000000000
 11
264.3382413981767
 21
636.4918104594444
 31
0.0000000000000000
  0
LINE
  5
CB
100
AcDbEntity
  8
MAIN0
  6
DASHED
 62
3
100
AcDbLine
 10
262.2500703720277
 20
659.1584771261111
 30
0.0000000000000000
 11
251.2941558856182
 21
636.4918104594444
 31
0.0000000000000000
  0
LINE
  5
CC
100
AcDbEntity
  8
MAIN0
  6
DASHED
 62
3
100
AcDbLine
 10
251.2941558856182
 20
659.1584771261112
 30
0.0000000000000000
 11
262.2500703719776
 21
636.4918104594443
 31
0.0000000000000000
  0
LINE
  5
CD
100
AcDbEntity
  8
MAIN0
  6
DASHED
 62
3
100
AcDbLine
 10
264.3382413981769
 20
636.4918104594444
 30
0.0000000000000000
 11
275.2941558849913
 21
659.1584771261111
 31
0.0000000000000000
  0
LINE
  5
CE
100
AcDbEntity
  8
MAIN0
  6
DASHED
 62
3
100
AcDbLine
 10
264.3382413981766
 20
659.1584771261112
 30
0.0000000000000000
 11
275.2941558856180
 21
636.4918104594445
 31
0.0000000000000000
  0
SPLINE
  5
CF
100
AcDbEntity
  8
MAIN0
  6
CONTINUOUS
 62
3
100
AcDbSpline
210
0.0000000000000000
220
0.0000000000000000
230
1.000000000000000
 70
     8
 71
     3
 72
    16
 73
    12
 74
     0
 42
1.000000000000000e-007
 43
1.000000000000000e-007
 12
-0.06180412873135310
 22
-1.328798811335958
 32
0.0000000000000000
 13
0.1644840041230822
 23
1.317270250906603
 33
0.0000000000000000
 40
0.0000000000000000
 40
0.0000000000000000
 40
0.0000000000000000
 40
0.0000000000000000
 40
10.14902739444905
 40
22.56078132617115
 40
28.71319965527511
 40
35.97989746416582
 40
41.27035993638879
 40
47.14061046460274
 40
54.09775370668491
 40
69.19449486151568
 40
77.70998217150657
 40
77.70998217150657
 40
77.70998217150657
 40
77.70998217150657
 10
246.7527188300389
 20
661.8251437927778
 30
0.0000000000000000
 10
246.5436348981774
 20
657.3298052801245
 30
0.0000000000000000
 10
246.0788517537226
 20
647.3368921437824
 30
0.0000000000000000
 10
245.9541160654875
 20
634.4005408807226
 30
0.0000000000000000
 10
250.7076811122838
 20
623.4641335528831
 30
0.0000000000000000
 10
258.0119001810070
 20
618.8339935554454
 30
0.0000000000000000
 10
266.6091854037326
 20
617.1180399401400
 30
0.0000000000000000
 10
273.4000945689972
 20
622.6008820803847
 30
0.0000000000000000
 10
280.0703119560029
 20
633.3854060208171
 30
0.0000000000000000
 10
277.8962900970374
 20
647.7181823861964
 30
0.0000000000000000
 10
279.1909013917588
 20
658.0860777576365
 30
0.0000000000000000
 10
279.6577885416943
 20
661.8251437927778
 30
0.0000000000000000
  0
ARC
  5
D0
100
AcDbEntity
  8
MAIN0
  6
DASHED
 62
3
100
AcDbCircle
 10
256.7721131287589
 20
669.6520563135765
 30
0.0000000000000000
 40
11.83736540462824
100
AcDbArc
 50
242.4341155968898
 51
297.5658844038095
  0
ARC
  5
D1
100
AcDbEntity
  8
MAIN0
  6
DASHED
 62
3
100
AcDbCircle
 10
269.8161986424774
 20
669.6520563135765
 30
0.0000000000000000
 40
11.83736540462824
100
AcDbArc
 50
242.4341155961905
 51
297.5658844031102
  0
ARC
  5
D2
100
AcDbEntity
  8
MAIN0
  6
CENTER
 62
3
100
AcDbCircle
 10
752.7886088899895
 20
465.1584771261112
 30
0.0000000000000000
 40
170.6666666666667
100
AcDbArc
 50
278.9726199693055
 51
290.6144692328908
  0
LINE
  5
D3
100
AcDbEntity
  8
MAIN0
  6
CENTER
 62
3
100
AcDbLine
 10
796.7886088899895
 20
314.4509639620637
 30
0.0000000000000000
 11
796.7886088899895
 21
280.0035652333406
 31
0.0000000000000000
  0
ARC
  5
D4
100
AcDbEntity
  8
MAIN0
  6
CENTER
 62
3
100
AcDbCircle
 10
752.7886088899895
 20
465.1584771261112
 30
0.0000000000000000
 40
170.6666666666667
100
AcDbArc
 50
8.972619969305491
 51
20.61446923289077
  0
LINE
  5
D5
100
AcDbEntity
  8
MAIN0
  6
CENTER
 62
3
100
AcDbLine
 10
903.4961220540370
 20
509.1584771261112
 30
0.0000000000000000
 11
937.9435207827601
 21
509.1584771261112
 31
0.0000000000000000
  0
ARC
  5
D6
100
AcDbEntity
  8
MAIN0
  6
CENTER
 62
3
100
AcDbCircle
 10
752.7886088899895
 20
465.1584771261112
 30
0.0000000000000000
 40
170.6666666666667
100
AcDbArc
 50
69.38553076710922
 51
81.02738003069452
  0
LINE
  5
D7
100
AcDbEntity
  8
MAIN0
  6
CENTER
 62
3
100
AcDbLine
 10
796.7886088899895
 20
615.8659902901586
 30
0.0000000000000000
 11
796.7886088899895
 21
650.3133890188817
 31
0.0000000000000000
  0
LINE
  5
D8
100
AcDbEntity
  8
MAIN0
  6
CONTINUOUS
 62
3
100
AcDbLine
 10
705.6481568108866
 20
481.8251437927779
 30
0.0000000000000000
 11
693.8163225089397
 21
481.8251437927779
 31
0.0000000000000000
  0
LINE
  5
D9
100
AcDbEntity
  8
MAIN0
  6
CONTINUOUS
 62
3
100
AcDbLine
 10
705.6481568108866
 20
448.4918104594445
 30
0.0000000000000000
 11
693.8163225087366
 21
448.4918104594445
 31
0.0000000000000000
  0
LINE
  5
DA
100
AcDbEntity
  8
MAIN0
  6
CONTINUOUS
 62
3
100
AcDbLine
 10
1056.644972485093
 20
696.9734997910059
 30
0.0000000000000000
 11
1021.978305818426
 21
696.9734997909515
 31
0.0000000000000000
  0
LINE
  5
DB
100
AcDbEntity
  8
MAIN0
  6
CONTINUOUS
 62
3
100
AcDbLine
 10
1047.311639151592
 20
470.3068331243244
 30
0.0000000000000000
 11
1031.311639151592
 21
470.3068331242994
 31
0.0000000000000000
  0
LINE
  5
DC
100
AcDbEntity
  8
MAIN0
  6
CONTINUOUS
 62
3
100
AcDbLine
 10
1059.311639151843
 20
643.6401664576766
 30
0.0000000000000000
 11
1019.311639151843
 21
643.6401664576139
 31
0.0000000000000000
  0
ARC
  5
DD
100
AcDbEntity
  8
MAIN0
  6
CONTINUOUS
 62
3
100
AcDbCircle
 10
1003.311639151710
 20
629.5294927986146
 30
0.0000000000000000
 40
21.33333333333333
100
AcDbArc
 50
0.0000000000000000
 51
41.40962210922863
  0
ARC
  5
DE
100
AcDbEntity
  8
MAIN0
  6
CONTINUOUS
 62
3
100
AcDbCircle
 10
1075.311639151710
 20
629.5294927985614
 30
0.0000000000000000
 40
21.33333333333333
100
AcDbArc
 50
138.5903778906867
 51
179.9999999999153
  0
LINE
  5
DF
100
AcDbEntity
  8
MAIN0
  6
CONTINUOUS
 62
3
100
AcDbLine
 10
1021.978305818426
 20
696.9734997909513
 30
0.0000000000000000
 11
1019.311639151758
 21
694.3068331242805
 31
0.0000000000000000
  0
LINE
  5
E0
100
AcDbEntity
  8
MAIN0
  6
CONTINUOUS
 62
3
100
AcDbLine
 10
1056.644972485093
 20
696.9734997910057
 30
0.0000000000000000
 11
1059.311639151757
 21
694.3068331243431
 31
0.0000000000000000
  0
LINE
  5
E1
100
AcDbEntity
  8
MAIN0
  6
CONTINUOUS
 62
3
100
AcDbLine
 10
1019.311639151758
 20
694.3068331242805
 30
0.0000000000000000
 11
1059.311639151757
 21
694.3068331243433
 31
0.0000000000000000
  0
LINE
  5
E2
100
AcDbEntity
  8
MAIN0
  6
CONTINUOUS
 62
3
100
AcDbLine
 10
1029.978305818271
 20
487.4187105280328
 30
0.0000000000000000
 11
1029.978305818260
 21
471.6401664576306
 31
0.0000000000000000
  0
LINE
  5
E3
100
AcDbEntity
  8
MAIN0
  6
CONTINUOUS
 62
3
100
AcDbLine
 10
1048.799370096835
 20
492.9734997909935
 30
0.0000000000000000
 11
1029.823908206385
 21
492.9734997909637
 31
0.0000000000000000
  0
LINE
  5
E4
100
AcDbEntity
  8
MAIN0
  6
CONTINUOUS
 62
3
100
AcDbLine
 10
1053.978305818295
 20
519.6401664576683
 30
0.0000000000000000
 11
1024.644972484962
 21
519.6401664576223
 31
0.0000000000000000
  0
ARC
  5
E5
100
AcDbEntity
  8
MAIN0
  6
CONTINUOUS
 62
3
100
AcDbCircle
 10
929.9783058182712
 20
487.4187105281067
 30
0.0000000000000000
 40
100.0000000000000
100
AcDbArc
 50
0.0000000000000000
 51
18.79690503498631
  0
ARC
  5
E6
100
AcDbEntity
  8
MAIN0
  6
CONTINUOUS
 62
3
100
AcDbCircle
 10
1148.644972484938
 20
487.4187105279451
 30
0.0000000000000000
 40
100.0000000000000
100
AcDbArc
 50
161.2030949649290
 51
180.0000000000000
  0
LINE
  5
E7
100
AcDbEntity
  8
MAIN0
  6
CONTINUOUS
 62
3
100
AcDbLine
 10
1048.644972484938
 20
487.4187105280190
 30
0.0000000000000000
 11
1048.644972484926
 21
471.6401664576599
 31
0.0000000000000000
  0
LINE
  5
E8
100
AcDbEntity
  8
MAIN0
  6
CONTINUOUS
 62
3
100
AcDbLine
 10
1019.311639151732
 20
659.6401664576139
 30
0.0000000000000000
 11
1019.311639151720
 21
643.6401664576139
 31
0.0000000000000000
  0
LINE
  5
E9
100
AcDbEntity
  8
MAIN0
  6
CONTINUOUS
 62
3
100
AcDbLine
 10
1019.311639151757
 20
694.3068331242805
 30
0.0000000000000000
 11
1019.311639151748
 21
680.9734997909472
 31
0.0000000000000000
  0
LINE
  5
EA
100
AcDbEntity
  8
MAIN0
  6
CONTINUOUS
 62
3
100
AcDbLine
 10
1059.311639151732
 20
659.6401664576766
 30
0.0000000000000000
 11
1059.311639151720
 21
643.6401664576766
 31
0.0000000000000000
  0
LINE
  5
EB
100
AcDbEntity
  8
MAIN0
  6
CONTINUOUS
 62
3
100
AcDbLine
 10
1059.311639151757
 20
694.3068331243433
 30
0.0000000000000000
 11
1059.311639151748
 21
680.9734997910099
 31
0.0000000000000000
  0
ARC
  5
EC
100
AcDbEntity
  8
MAIN0
  6
CONTINUOUS
 62
3
100
AcDbCircle
 10
1007.089416929493
 20
670.3068331242805
 30
0.0000000000000000
 40
16.22222222224661
100
AcDbArc
 50
318.8879095608231
 51
401.1120904390922
  0
ARC
  5
ED
100
AcDbEntity
  8
MAIN0
  6
CONTINUOUS
 62
3
100
AcDbCircle
 10
1071.533861373986
 20
670.3068331242330
 30
0.0000000000000000
 40
16.22222222224661
100
AcDbArc
 50
138.8879095608230
 51
221.1120904390922
  0
POINT
  5
EE
100
AcDbEntity
  8
MAIN0
  6
CONTINUOUS
 62
3
100
AcDbPoint
 10
1059.311639151748
 20
680.9734997910100
 30
0.0000000000000000
  0
POINT
  5
EF
100
AcDbEntity
  8
MAIN0
  6
CONTINUOUS
 62
3
100
AcDbPoint
 10
1019.311639151748
 20
680.9734997909472
 30
0.0000000000000000
  0
LINE
  5
F0
100
AcDbEntity
  8
MAIN0
  6
HIDDEN
 62
3
100
AcDbLine
 10
1019.311639151748
 20
680.9734997909472
 30
0.0000000000000000
 11
1059.311639151748
 21
680.9734997910100
 31
0.0000000000000000
  0
POINT
  5
F1
100
AcDbEntity
  8
MAIN0
  6
CONTINUOUS
 62
3
100
AcDbPoint
 10
1019.311639151732
 20
659.6401664576139
 30
0.0000000000000000
  0
POINT
  5
F2
100
AcDbEntity
  8
MAIN0
  6
CONTINUOUS
 62
3
100
AcDbPoint
 10
1059.311639151732
 20
659.6401664576766
 30
0.0000000000000000
  0
LINE
  5
F3
100
AcDbEntity
  8
MAIN0
  6
HIDDEN
 62
3
100
AcDbLine
 10
1019.311639151732
 20
659.6401664576139
 30
0.0000000000000000
 11
1059.311639151732
 21
659.6401664576766
 31
0.0000000000000000
  0
ARC
  5
F4
100
AcDbEntity
  8
MAIN0
  6
CONTINUOUS
 62
3
100
AcDbCircle
 10
1108.564721758403
 20
675.6401664577508
 30
0.0000000000000000
 40
8.000000000000000
100
AcDbArc
 50
138.1896851042214
 51
221.8103148957787
  0
ARC
  5
F5
100
AcDbEntity
  8
MAIN0
  6
CONTINUOUS
 62
3
100
AcDbCircle
 10
1096.639025878404
 20
675.6401664577508
 30
0.0000000000000000
 40
8.000000000000000
100
AcDbArc
 50
318.1896851042213
 51
401.8103148957786
  0
ARC
  5
F6
100
AcDbEntity
  8
MAIN0
  6
CONTINUOUS
 62
3
100
AcDbCircle
 10
1116.564721758403
 20
675.6401664577508
 30
0.0000000000000000
 40
8.000000000000000
100
AcDbArc
 50
138.1896851042214
 51
221.8103148957787
  0
ARC
  5
F7
100
AcDbEntity
  8
MAIN0
  6
CONTINUOUS
 62
3
100
AcDbCircle
 10
1096.639025878404
 20
664.9734997910841
 30
0.0000000000000000
 40
8.000000000000000
100
AcDbArc
 50
318.1896851042213
 51
401.8103148957786
  0
ARC
  5
F8
100
AcDbEntity
  8
MAIN0
  6
CONTINUOUS
 62
3
100
AcDbCircle
 10
1116.564721758403
 20
664.9734997910841
 30
0.0000000000000000
 40
8.000000000000000
100
AcDbArc
 50
138.1896851042214
 51
221.8103148957787
  0
ARC
  5
F9
100
AcDbEntity
  8
MAIN0
  6
CONTINUOUS
 62
3
100
AcDbCircle
 10
1104.639025878404
 20
664.9734997910841
 30
0.0000000000000000
 40
8.000000000000000
100
AcDbArc
 50
318.1896851042213
 51
401.8103148957786
  0
LINE
  5
FA
100
AcDbEntity
  8
MAIN0
  6
CONTINUOUS
 62
3
100
AcDbLine
 10
1059.311639151747
 20
680.9734997910098
 30
0.0000000000000000
 11
1102.601873818403
 21
680.9734997910778
 31
0.0000000000000000
  0
LINE
  5
FB
100
AcDbEntity
  8
MAIN0
  6
CONTINUOUS
 62
3
100
AcDbLine
 10
1110.601873818403
 20
680.9734997910904
 30
0.0000000000000000
 11
1128.644972485056
 21
680.9734997911187
 31
0.0000000000000000
  0
LINE
  5
FC
100
AcDbEntity
  8
MAIN0
  6
CONTINUOUS
 62
3
100
AcDbLine
 10
1059.311639151732
 20
659.6401664576765
 30
0.0000000000000000
 11
1102.601873818403
 21
659.6401664577445
 31
0.0000000000000000
  0
LINE
  5
FD
100
AcDbEntity
  8
MAIN0
  6
CONTINUOUS
 62
3
100
AcDbLine
 10
1110.601873818403
 20
659.6401664577570
 30
0.0000000000000000
 11
1128.644972485090
 21
659.6401664577852
 31
0.0000000000000000
  0
ARC
  5
FE
100
AcDbEntity
  8
MAIN0
  6
CONTINUOUS
 62
3
100
AcDbCircle
 10
961.8108772697412
 20
675.6401664575207
 30
0.0000000000000000
 40
8.000000000000000
100
AcDbArc
 50
138.1896851042214
 51
221.8103148957787
  0
ARC
  5
FF
100
AcDbEntity
  8
MAIN0
  6
CONTINUOUS
 62
3
100
AcDbCircle
 10
949.8851813897425
 20
675.6401664575207
 30
0.0000000000000000
 40
8.000000000000000
100
AcDbArc
 50
318.1896851042213
 51
401.8103148957786
  0
ARC
  5
100
100
AcDbEntity
  8
MAIN0
  6
CONTINUOUS
 62
3
100
AcDbCircle
 10
969.8108772697412
 20
675.6401664575207
 30
0.0000000000000000
 40
8.000000000000000
100
AcDbArc
 50
138.1896851042214
 51
221.8103148957787
  0
ARC
  5
101
100
AcDbEntity
  8
MAIN0
  6
CONTINUOUS
 62
3
100
AcDbCircle
 10
949.8851813897425
 20
664.9734997908540
 30
0.0000000000000000
 40
8.000000000000000
100
AcDbArc
 50
318.1896851042213
 51
401.8103148957786
  0
ARC
  5
102
100
AcDbEntity
  8
MAIN0
  6
CONTINUOUS
 62
3
100
AcDbCircle
 10
969.8108772697412
 20
664.9734997908540
 30
0.0000000000000000
 40
8.000000000000000
100
AcDbArc
 50
138.1896851042214
 51
221.8103148957787
  0
ARC
  5
103
100
AcDbEntity
  8
MAIN0
  6
CONTINUOUS
 62
3
100
AcDbCircle
 10
957.8851813897425
 20
664.9734997908540
 30
0.0000000000000000
 40
8.000000000000000
100
AcDbArc
 50
318.1896851042213
 51
401.8103148957786
  0
LINE
  5
104
100
AcDbEntity
  8
MAIN0
  6
CONTINUOUS
 62
3
100
AcDbLine
 10
949.9783058183896
 20
680.9734997908385
 30
0.0000000000000000
 11
955.8480293297419
 21
680.9734997908477
 31
0.0000000000000000
  0
LINE
  5
105
100
AcDbEntity
  8
MAIN0
  6
CONTINUOUS
 62
3
100
AcDbLine
 10
963.8480293297419
 20
680.9734997908603
 30
0.0000000000000000
 11
1019.311639151748
 21
680.9734997909472
 31
0.0000000000000000
  0
LINE
  5
106
100
AcDbEntity
  8
MAIN0
  6
CONTINUOUS
 62
3
100
AcDbLine
 10
949.9783058184232
 20
659.6401664575052
 30
0.0000000000000000
 11
955.8480293297419
 21
659.6401664575144
 31
0.0000000000000000
  0
LINE
  5
107
100
AcDbEntity
  8
MAIN0
  6
CONTINUOUS
 62
3
100
AcDbLine
 10
963.8480293297420
 20
659.6401664575269
 30
0.0000000000000000
 11
1019.311639151732
 21
659.6401664576140
 31
0.0000000000000000
  0
LINE
  5
108
100
AcDbEntity
  8
MAIN0
  6
CENTER
 62
3
100
AcDbLine
 10
1018.856907970252
 20
438.4244415234282
 30
0.0000000000000000
 11
1058.085884749109
 21
438.4244415234282
 31
0.0000000000000000
  0
LINE
  5
109
100
AcDbEntity
  8
MAIN0
  6
CONTINUOUS
 62
3
100
AcDbLine
 10
1040.355724664932
 20
450.5796825932359
 30
0.0000000000000000
 11
1051.466880220349
 21
439.4685270378270
 31
0.0000000000000000
  0
LINE
  5
10A
100
AcDbEntity
  8
MAIN0
  6
CONTINUOUS
 62
3
100
AcDbLine
 10
1027.156398082763
 20
437.3803560111074
 30
0.0000000000000000
 11
1038.267553638229
 21
426.2692004556481
 31
0.0000000000000000
  0
LINE
  5
10B
100
AcDbEntity
  8
MAIN0
  6
CONTINUOUS
 62
3
100
AcDbLine
 10
1027.156398082606
 20
439.4685270358662
 30
0.0000000000000000
 11
1038.267553640146
 21
450.5796825934162
 31
0.0000000000000000
  0
LINE
  5
10C
100
AcDbEntity
  8
MAIN0
  6
CONTINUOUS
 62
3
100
AcDbLine
 10
1040.355724666867
 20
426.2692004558301
 30
0.0000000000000000
 11
1051.466880220193
 21
437.3803560091648
 31
0.0000000000000000
  0
ARC
  5
10D
100
AcDbEntity
  8
MAIN0
  6
CONTINUOUS
 62
3
100
AcDbCircle
 10
1039.311639151568
 20
438.4244415244546
 30
0.0000000000000000
 40
12.20000000000000
100
AcDbArc
 50
85.09057720207062
 51
94.90942278884423
  0
ARC
  5
10E
100
AcDbEntity
  8
MAIN0
  6
CONTINUOUS
 62
3
100
AcDbCircle
 10
1039.311639151568
 20
438.4244415244546
 30
0.0000000000000000
 40
12.20000000000000
100
AcDbArc
 50
265.0905772020708
 51
274.9094228070995
  0
LINE
  5
10F
100
AcDbEntity
  8
MAIN0
  6
CONTINUOUS
 62
3
100
AcDbLine
 10
1040.355724665085
 20
471.6401664576469
 30
0.0000000000000000
 11
1040.355724665085
 21
492.9734997909802
 31
0.0000000000000000
  0
LINE
  5
110
100
AcDbEntity
  8
MAIN0
  6
CONTINUOUS
 62
3
100
AcDbLine
 10
1038.267553640280
 20
471.6401664576436
 30
0.0000000000000000
 11
1038.267553640265
 21
492.9734997909770
 31
0.0000000000000000
  0
LINE
  5
111
100
AcDbEntity
  8
MAIN0
  6
CONTINUOUS
 62
3
100
AcDbLine
 10
1029.978305818260
 20
471.6401664576306
 30
0.0000000000000000
 11
1031.311639151592
 21
470.3068331242994
 31
0.0000000000000000
  0
LINE
  5
112
100
AcDbEntity
  8
MAIN0
  6
CONTINUOUS
 62
3
100
AcDbLine
 10
1048.644972484926
 20
471.6401664576598
 30
0.0000000000000000
 11
1047.311639151592
 21
470.3068331243244
 31
0.0000000000000000
  0
LINE
  5
113
100
AcDbEntity
  8
MAIN0
  6
CONTINUOUS
 62
3
100
AcDbLine
 10
1040.355724665085
 20
492.9734997909802
 30
0.0000000000000000
 11
1048.644972484926
 21
471.6401664576599
 31
0.0000000000000000
  0
LINE
  5
114
100
AcDbEntity
  8
MAIN0
  6
CONTINUOUS
 62
3
100
AcDbLine
 10
1038.267553640264
 20
492.9734997909769
 30
0.0000000000000000
 11
1029.978305818260
 21
471.6401664576306
 31
0.0000000000000000
  0
LINE
  5
115
100
AcDbEntity
  8
MAIN0
  6
CONTINUOUS
 62
3
100
AcDbLine
 10
1029.978305818260
 20
471.6401664576306
 30
0.0000000000000000
 11
1038.267553640280
 21
471.6401664576436
 31
0.0000000000000000
  0
LINE
  5
116
100
AcDbEntity
  8
MAIN0
  6
CONTINUOUS
 62
3
100
AcDbLine
 10
1040.355724665085
 20
471.6401664576469
 30
0.0000000000000000
 11
1048.644972484926
 21
471.6401664576599
 31
0.0000000000000000
  0
LINE
  5
117
100
AcDbEntity
  8
MAIN0
  6
CONTINUOUS
 62
3
100
AcDbLine
 10
1029.823908206385
 20
492.9734997909638
 30
0.0000000000000000
 11
1038.267553640281
 21
470.3068331243103
 31
0.0000000000000000
  0
LINE
  5
118
100
AcDbEntity
  8
MAIN0
  6
CONTINUOUS
 62
3
100
AcDbLine
 10
1048.799370096835
 20
492.9734997909935
 30
0.0000000000000000
 11
1040.355724665085
 21
470.3068331243135
 31
0.0000000000000000
  0
LINE
  5
119
100
AcDbEntity
  8
MAIN0
  6
CONTINUOUS
 62
3
100
AcDbLine
 10
205.1288685350032
 20
555.8251437927891
 30
0.0000000000000000
 11
205.1288685350032
 21
374.4918104588576
 31
0.0000000000000000
  0
LINE
  5
11A
100
AcDbEntity
  8
MAIN0
  6
CONTINUOUS
 62
3
100
AcDbLine
 10
185.2941558856181
 20
602.4918104594444
 30
0.0000000000000000
 11
186.6274892189515
 21
602.4918104594444
 31
0.0000000000000000
  0
LINE
  5
11B
100
AcDbEntity
  8
MAIN0
  6
CONTINUOUS
 62
3
100
AcDbLine
 10
186.6274892189515
 20
602.4918104594444
 30
0.0000000000000000
 11
186.6274892189515
 21
647.8251437927778
 31
0.0000000000000000
  0
LINE
  5
11C
100
AcDbEntity
  8
MAIN0
  6
CONTINUOUS
 62
3
100
AcDbLine
 10
185.2941558856181
 20
647.8251437927778
 30
0.0000000000000000
 11
186.6274892189515
 21
647.8251437927778
 31
0.0000000000000000
  0
LINE
  5
11D
100
AcDbEntity
  8
MAIN0
  6
CONTINUOUS
 62
3
100
AcDbLine
 10
184.4941558736972
 20
665.1584771261112
 30
0.0000000000000000
 11
92.03677641336242
 21
665.1584771261112
 31
0.0000000000000000
  0
LINE
  5
11E
100
AcDbEntity
  8
MAIN0
  6
CONTINUOUS
 62
3
100
AcDbLine
 10
94.03677641336242
 20
665.1584771261112
 30
0.0000000000000000
 11
94.03677641336242
 21
265.1584771261112
 31
0.0000000000000000
  0
LINE
  5
11F
100
AcDbEntity
  8
MAIN0
  6
CONTINUOUS
 62
3
100
AcDbLine
 10
95.23677646104613
 20
661.1584771261112
 30
0.0000000000000000
 11
94.03677641336242
 21
665.1584771261112
 31
0.0000000000000000
  0
LINE
  5
120
100
AcDbEntity
  8
MAIN0
  6
CONTINUOUS
 62
3
100
AcDbLine
 10
94.03677641336242
 20
665.1584771261112
 30
0.0000000000000000
 11
92.83677636567870
 21
661.1584771261112
 31
0.0000000000000000
  0
LINE
  5
121
100
AcDbEntity
  8
MAIN0
  6
CONTINUOUS
 62
3
100
AcDbLine
 10
95.23677646104613
 20
269.1584771261112
 30
0.0000000000000000
 11
94.03677641336242
 21
265.1584771261112
 31
0.0000000000000000
  0
LINE
  5
122
100
AcDbEntity
  8
MAIN0
  6
CONTINUOUS
 62
3
100
AcDbLine
 10
94.03677641336242
 20
265.1584771261112
 30
0.0000000000000000
 11
92.83677636567870
 21
269.1584771261112
 31
0.0000000000000000
  0
MTEXT
  5
123
100
AcDbEntity
  8
MAIN0
  6
CONTINUOUS
 62
3
100
AcDbMText
 10
93.03677641336242
 20
465.1584771261112
 30
0.0000000000000000
 40
6.199999809265137
 41
0.0000000000000000
 71
     8
 72
     1
  1
{\U+2205300}
 11
6.123233995736766e-017
 21
1.000000000000000
 31
0.0000000000000000
  7
STANDARD
  0
LINE
  5
124
100
AcDbEntity
  8
MAIN0
  6
CONTINUOUS
 62
3
100
AcDbLine
 10
184.4941558736972
 20
265.1584771261112
 30
0.0000000000000000
 11
92.03677641336242
 21
265.1584771261112
 31
0.0000000000000000
  0
LINE
  5
125
100
AcDbEntity
  8
MAIN0
  6
CONTINUOUS
 62
3
100
AcDbLine
 10
186.6274892189515
 20
325.1214400890742
 30
0.0000000000000000
 11
186.6274892189515
 21
327.8251437927779
 31
0.0000000000000000
  0
LINE
  5
126
100
AcDbEntity
  8
MAIN0
  6
CONTINUOUS
 62
3
100
AcDbLine
 10
184.4941558736972
 20
602.4918104594444
 30
0.0000000000000000
 11
106.7913625763532
 21
602.4918104594444
 31
0.0000000000000000
  0
LINE
  5
127
100
AcDbEntity
  8
MAIN0
  6
CONTINUOUS
 62
3
100
AcDbLine
 10
108.7913625763532
 20
602.4918104594444
 30
0.0000000000000000
 11
108.7913625763532
 21
327.8251437927779
 31
0.0000000000000000
  0
LINE
  5
128
100
AcDbEntity
  8
MAIN0
  6
CONTINUOUS
 62
3
100
AcDbLine
 10
109.9913626240369
 20
598.4918104594444
 30
0.0000000000000000
 11
108.7913625763532
 21
602.4918104594444
 31
0.0000000000000000
  0
LINE
  5
129
100
AcDbEntity
  8
MAIN0
  6
CONTINUOUS
 62
3
100
AcDbLine
 10
108.7913625763532
 20
602.4918104594444
 30
0.0000000000000000
 11
107.5913625286695
 21
598.4918104594444
 31
0.0000000000000000
  0
LINE
  5
12A
100
AcDbEntity
  8
MAIN0
  6
CONTINUOUS
 62
3
100
AcDbLine
 10
109.9913626240369
 20
331.8251437927779
 30
0.0000000000000000
 11
108.7913625763532
 21
327.8251437927779
 31
0.0000000000000000
  0
LINE
  5
12B
100
AcDbEntity
  8
MAIN0
  6
CONTINUOUS
 62
3
100
AcDbLine
 10
108.7913625763532
 20
327.8251437927779
 30
0.0000000000000000
 11
107.5913625286695
 21
331.8251437927779
 31
0.0000000000000000
  0
MTEXT
  5
12C
100
AcDbEntity
  8
MAIN0
  6
CONTINUOUS
 62
3
100
AcDbMText
 10
107.7913625763532
 20
465.1584771261112
 30
0.0000000000000000
 40
6.199999809265137
 41
0.0000000000000000
 71
     8
 72
     1
  1
{\U+2205206}
 11
6.123233995736766e-017
 21
1.000000000000000
 31
0.0000000000000000
  7
STANDARD
  0
LINE
  5
12D
100
AcDbEntity
  8
MAIN0
  6
CONTINUOUS
 62
3
100
AcDbLine
 10
184.4941558736972
 20
327.8251437927779
 30
0.0000000000000000
 11
106.7913625763532
 21
327.8251437927779
 31
0.0000000000000000
  0
LINE
  5
12E
100
AcDbEntity
  8
MAIN0
  6
CONTINUOUS
 62
3
100
AcDbLine
 10
204.3288685231669
 20
555.8251437927778
 30
0.0000000000000000
 11
144.3121217400293
 21
555.8251437927778
 31
0.0000000000000000
  0
LINE
  5
12F
100
AcDbEntity
  8
MAIN0
  6
CONTINUOUS
 62
3
100
AcDbLine
 10
146.3121217400293
 20
555.8251437927778
 30
0.0000000000000000
 11
146.3121217400293
 21
374.4918104594445
 31
0.0000000000000000
  0
LINE
  5
130
100
AcDbEntity
  8
MAIN0
  6
CONTINUOUS
 62
3
100
AcDbLine
 10
147.5121217877130
 20
551.8251437927778
 30
0.0000000000000000
 11
146.3121217400293
 21
555.8251437927778
 31
0.0000000000000000
  0
LINE
  5
131
100
AcDbEntity
  8
MAIN0
  6
CONTINUOUS
 62
3
100
AcDbLine
 10
146.3121217400293
 20
555.8251437927778
 30
0.0000000000000000
 11
145.1121216923456
 21
551.8251437927778
 31
0.0000000000000000
  0
LINE
  5
132
100
AcDbEntity
  8
MAIN0
  6
CONTINUOUS
 62
3
100
AcDbLine
 10
147.5121217877130
 20
378.4918104594445
 30
0.0000000000000000
 11
146.3121217400293
 21
374.4918104594445
 31
0.0000000000000000
  0
LINE
  5
133
100
AcDbEntity
  8
MAIN0
  6
CONTINUOUS
 62
3
100
AcDbLine
 10
146.3121217400293
 20
374.4918104594445
 30
0.0000000000000000
 11
145.1121216923456
 21
378.4918104594445
 31
0.0000000000000000
  0
MTEXT
  5
134
100
AcDbEntity
  8
MAIN0
  6
CONTINUOUS
 62
3
100
AcDbMText
 10
145.3121217400293
 20
465.1584771261112
 30
0.0000000000000000
 40
6.199999809265137
 41
0.0000000000000000
 71
     8
 72
     1
  1
{\U+2205136}
 11
6.123233995736766e-017
 21
1.000000000000000
 31
0.0000000000000000
  7
STANDARD
  0
LINE
  5
135
100
AcDbEntity
  8
MAIN0
  6
CONTINUOUS
 62
3
100
AcDbLine
 10
204.3288685277779
 20
374.4918104594445
 30
0.0000000000000000
 11
144.3121217400293
 21
374.4918104594445
 31
0.0000000000000000
  0
POINT
  5
136
100
AcDbEntity
  8
MAIN0
  6
CONTINUOUS
 62
3
100
AcDbPoint
 10
185.2941558856185
 20
558.3044771258490
 30
0.0000000000000000
  0
POINT
  5
137
100
AcDbEntity
  8
MAIN0
  6
CONTINUOUS
 62
3
100
AcDbPoint
 10
185.2941558856198
 20
372.0124771258014
 30
0.0000000000000000
  0
LINE
  5
138
100
AcDbEntity
  8
MAIN0
  6
CONTINUOUS
 62
3
100
AcDbLine
 10
184.4941558736975
 20
558.3044771258490
 30
0.0000000000000000
 11
126.2650339378431
 21
558.3044771258490
 31
0.0000000000000000
  0
LINE
  5
139
100
AcDbEntity
  8
MAIN0
  6
CONTINUOUS
 62
3
100
AcDbLine
 10
128.2650339378431
 20
558.3044771258490
 30
0.0000000000000000
 11
128.2650339378431
 21
372.0124771258014
 31
0.0000000000000000
  0
LINE
  5
13A
100
AcDbEntity
  8
MAIN0
  6
CONTINUOUS
 62
3
100
AcDbLine
 10
129.4650339855268
 20
554.3044771258490
 30
0.0000000000000000
 11
128.2650339378431
 21
558.3044771258490
 31
0.0000000000000000
  0
LINE
  5
13B
100
AcDbEntity
  8
MAIN0
  6
CONTINUOUS
 62
3
100
AcDbLine
 10
128.2650339378431
 20
558.3044771258490
 30
0.0000000000000000
 11
127.0650338901594
 21
554.3044771258490
 31
0.0000000000000000
  0
LINE
  5
13C
100
AcDbEntity
  8
MAIN0
  6
CONTINUOUS
 62
3
100
AcDbLine
 10
129.4650339855268
 20
376.0124771258014
 30
0.0000000000000000
 11
128.2650339378431
 21
372.0124771258014
 31
0.0000000000000000
  0
LINE
  5
13D
100
AcDbEntity
  8
MAIN0
  6
CONTINUOUS
 62
3
100
AcDbLine
 10
128.2650339378431
 20
372.0124771258014
 30
0.0000000000000000
 11
127.0650338901594
 21
376.0124771258014
 31
0.0000000000000000
  0
MTEXT
  5
13E
100
AcDbEntity
  8
MAIN0
  6
CONTINUOUS
 62
3
100
AcDbMText
 10
127.2650339378431
 20
455.2084768546241
 30
0.0000000000000000
 40
6.199999809265137
 41
0.0000000000000000
 71
     8
 72
     1
  1
{\U+2205139.719}
 11
6.123233995736766e-017
 21
1.000000000000000
 31
0.0000000000000000
  7
STANDARD
  0
MTEXT
  5
13F
100
AcDbEntity
  8
MAIN0
  6
CONTINUOUS
 62
3
100
AcDbMText
 10
121.6650340332105
 20
481.4584771377461
 30
0.0000000000000000
 40
5.599999904632568
 41
0.0000000000000000
 71
     8
 72
     1
  1
{+0.004}
 11
6.123233995736766e-017
 21
1.000000000000000
 31
0.0000000000000000
  7
STANDARD
  0
MTEXT
  5
140
100
AcDbEntity
  8
MAIN0
  6
CONTINUOUS
 62
3
100
AcDbMText
 10
127.2650339378431
 20
481.4584771377461
 30
0.0000000000000000
 40
5.599999904632568
 41
0.0000000000000000
 71
     8
 72
     1
  1
{-0.008}
 11
6.123233995736766e-017
 21
1.000000000000000
 31
0.0000000000000000
  7
STANDARD
  0
LINE
  5
141
100
AcDbEntity
  8
MAIN0
  6
CONTINUOUS
 62
3
100
AcDbLine
 10
184.4941558736989
 20
372.0124771258014
 30
0.0000000000000000
 11
126.2650339378431
 21
372.0124771258014
 31
0.0000000000000000
  0
LINE
  5
142
100
AcDbEntity
  8
MAIN0
  6
CONTINUOUS
 62
3
100
AcDbLine
 10
318.0941558975391
 20
365.1584771261112
 30
0.0000000000000000
 11
356.0367764133624
 21
365.1584771261112
 31
0.0000000000000000
  0
LINE
  5
143
100
AcDbEntity
  8
MAIN0
  6
CONTINUOUS
 62
3
100
AcDbLine
 10
354.0367764133624
 20
365.1584771261112
 30
0.0000000000000000
 11
354.0367764133624
 21
331.8251437927779
 31
0.0000000000000000
  0
LINE
  5
144
100
AcDbEntity
  8
MAIN0
  6
CONTINUOUS
 62
3
100
AcDbLine
 10
355.2367764610461
 20
361.1584771261112
 30
0.0000000000000000
 11
354.0367764133624
 21
365.1584771261112
 31
0.0000000000000000
  0
LINE
  5
145
100
AcDbEntity
  8
MAIN0
  6
CONTINUOUS
 62
3
100
AcDbLine
 10
354.0367764133624
 20
365.1584771261112
 30
0.0000000000000000
 11
352.8367763656787
 21
361.1584771261112
 31
0.0000000000000000
  0
LINE
  5
146
100
AcDbEntity
  8
MAIN0
  6
CONTINUOUS
 62
3
100
AcDbLine
 10
355.2367764610461
 20
335.8251437927779
 30
0.0000000000000000
 11
354.0367764133624
 21
331.8251437927779
 31
0.0000000000000000
  0
LINE
  5
147
100
AcDbEntity
  8
MAIN0
  6
CONTINUOUS
 62
3
100
AcDbLine
 10
354.0367764133624
 20
331.8251437927779
 30
0.0000000000000000
 11
352.8367763656787
 21
335.8251437927779
 31
0.0000000000000000
  0
MTEXT
  5
148
100
AcDbEntity
  8
MAIN0
  6
CONTINUOUS
 62
3
100
AcDbMText
 10
353.0367764133624
 20
348.4918104594445
 30
0.0000000000000000
 40
6.199999809265137
 41
0.0000000000000000
 71
     8
 72
     1
  1
{\U+220525}
 11
6.123233995736766e-017
 21
1.000000000000000
 31
0.0000000000000000
  7
STANDARD
  0
LINE
  5
149
100
AcDbEntity
  8
MAIN0
  6
CONTINUOUS
 62
3
100
AcDbLine
 10
318.0941558975391
 20
331.8251437927779
 30
0.0000000000000000
 11
356.0367764133624
 21
331.8251437927779
 31
0.0000000000000000
  0
LINE
  5
14A
100
AcDbEntity
  8
MAIN0
  6
CONTINUOUS
 62
3
100
AcDbLine
 10
293.2941558856181
 20
365.9584771380321
 30
0.0000000000000000
 11
293.2941558856181
 21
387.1584771261112
 31
0.0000000000000000
  0
LINE
  5
14B
100
AcDbEntity
  8
MAIN0
  6
CONTINUOUS
 62
3
100
AcDbLine
 10
293.2941558856181
 20
385.1584771261112
 30
0.0000000000000000
 11
318.6274892189514
 21
385.1584771261112
 31
0.0000000000000000
  0
LINE
  5
14C
100
AcDbEntity
  8
MAIN0
  6
CONTINUOUS
 62
3
100
AcDbLine
 10
297.2941558856181
 20
386.3584771737949
 30
0.0000000000000000
 11
293.2941558856181
 21
385.1584771261112
 31
0.0000000000000000
  0
LINE
  5
14D
100
AcDbEntity
  8
MAIN0
  6
CONTINUOUS
 62
3
100
AcDbLine
 10
293.2941558856181
 20
385.1584771261112
 30
0.0000000000000000
 11
297.2941558856181
 21
383.9584770784275
 31
0.0000000000000000
  0
LINE
  5
14E
100
AcDbEntity
  8
MAIN0
  6
CONTINUOUS
 62
3
100
AcDbLine
 10
314.6274892189514
 20
386.3584771737949
 30
0.0000000000000000
 11
318.6274892189514
 21
385.1584771261112
 31
0.0000000000000000
  0
LINE
  5
14F
100
AcDbEntity
  8
MAIN0
  6
CONTINUOUS
 62
3
100
AcDbLine
 10
318.6274892189514
 20
385.1584771261112
 30
0.0000000000000000
 11
314.6274892189514
 21
383.9584770784275
 31
0.0000000000000000
  0
MTEXT
  5
150
100
AcDbEntity
  8
MAIN0
  6
CONTINUOUS
 62
3
100
AcDbMText
 10
305.9608225522848
 20
386.1584771261112
 30
0.0000000000000000
 40
6.199999809265137
 41
0.0000000000000000
 71
     8
 72
     1
  1
{\H0.69x;{19}}
 11
1.000000000000000
 21
0.0000000000000000
 31
0.0000000000000000
  7
STANDARD
  0
LINE
  5
151
100
AcDbEntity
  8
MAIN0
  6
CONTINUOUS
 62
3
100
AcDbLine
 10
234.0367764133624
 20
359.8251437927779
 30
0.0000000000000000
 11
234.0367764133624
 21
337.1584771261112
 31
0.0000000000000000
  0
LINE
  5
152
100
AcDbEntity
  8
MAIN0
  6
CONTINUOUS
 62
3
100
AcDbLine
 10
235.2367764610461
 20
355.8251437927779
 30
0.0000000000000000
 11
234.0367764133624
 21
359.8251437927779
 31
0.0000000000000000
  0
LINE
  5
153
100
AcDbEntity
  8
MAIN0
  6
CONTINUOUS
 62
3
100
AcDbLine
 10
234.0367764133624
 20
359.8251437927779
 30
0.0000000000000000
 11
232.8367763656787
 21
355.8251437927779
 31
0.0000000000000000
  0
LINE
  5
154
100
AcDbEntity
  8
MAIN0
  6
CONTINUOUS
 62
3
100
AcDbLine
 10
235.2367764610461
 20
341.1584771261112
 30
0.0000000000000000
 11
234.0367764133624
 21
337.1584771261112
 31
0.0000000000000000
  0
LINE
  5
155
100
AcDbEntity
  8
MAIN0
  6
CONTINUOUS
 62
3
100
AcDbLine
 10
234.0367764133624
 20
337.1584771261112
 30
0.0000000000000000
 11
232.8367763656787
 21
341.1584771261112
 31
0.0000000000000000
  0
MTEXT
  5
156
100
AcDbEntity
  8
MAIN0
  6
CONTINUOUS
 62
3
100
AcDbMText
 10
233.0367764133624
 20
348.4918104594445
 30
0.0000000000000000
 40
6.199999809265137
 41
0.0000000000000000
 71
     8
 72
     1
  1
{\U+220517}
 11
6.123233995736766e-017
 21
1.000000000000000
 31
0.0000000000000000
  7
STANDARD
  0
LINE
  5
157
100
AcDbEntity
  8
MAIN0
  6
CONTINUOUS
 62
3
100
AcDbLine
 10
185.2941558856181
 20
665.9584771380321
 30
0.0000000000000000
 11
185.2941558856181
 21
733.8251437927778
 31
0.0000000000000000
  0
LINE
  5
158
100
AcDbEntity
  8
MAIN0
  6
CONTINUOUS
 62
3
100
AcDbLine
 10
185.2941558856181
 20
731.8251437927778
 30
0.0000000000000000
 11
318.6274892189514
 21
731.8251437927778
 31
0.0000000000000000
  0
LINE
  5
159
100
AcDbEntity
  8
MAIN0
  6
CONTINUOUS
 62
3
100
AcDbLine
 10
189.2941558856181
 20
733.0251438404615
 30
0.0000000000000000
 11
185.2941558856181
 21
731.8251437927778
 31
0.0000000000000000
  0
LINE
  5
15A
100
AcDbEntity
  8
MAIN0
  6
CONTINUOUS
 62
3
100
AcDbLine
 10
185.2941558856181
 20
731.8251437927778
 30
0.0000000000000000
 11
189.2941558856181
 21
730.6251437450941
 31
0.0000000000000000
  0
LINE
  5
15B
100
AcDbEntity
  8
MAIN0
  6
CONTINUOUS
 62
3
100
AcDbLine
 10
314.6274892189514
 20
733.0251438404615
 30
0.0000000000000000
 11
318.6274892189514
 21
731.8251437927778
 31
0.0000000000000000
  0
LINE
  5
15C
100
AcDbEntity
  8
MAIN0
  6
CONTINUOUS
 62
3
100
AcDbLine
 10
318.6274892189514
 20
731.8251437927778
 30
0.0000000000000000
 11
314.6274892189514
 21
730.6251437450941
 31
0.0000000000000000
  0
MTEXT
  5
15D
100
AcDbEntity
  8
MAIN0
  6
CONTINUOUS
 62
3
100
AcDbMText
 10
251.9608225522848
 20
732.8251437927778
 30
0.0000000000000000
 40
6.199999809265137
 41
0.0000000000000000
 71
     8
 72
     1
  1
{\H0.70x;{100}}
 11
1.000000000000000
 21
0.0000000000000000
 31
0.0000000000000000
  7
STANDARD
  0
LINE
  5
15E
100
AcDbEntity
  8
MAIN0
  6
CONTINUOUS
 62
3
100
AcDbLine
 10
318.6274892189514
 20
665.9584771380321
 30
0.0000000000000000
 11
318.6274892189514
 21
733.8251437927778
 31
0.0000000000000000
  0
LINE
  5
15F
100
AcDbEntity
  8
MAIN0
  6
CENTER
 62
3
100
AcDbLine
 10
263.2941558856181
 20
758.2188644328079
 30
0.0000000000000000
 11
263.2941558856181
 21
811.5521977661413
 31
0.0000000000000000
  0
LINE
  5
160
100
AcDbEntity
  8
MAIN0
  6
CONTINUOUS
 62
3
100
AcDbLine
 10
318.6274892189514
 20
665.9584771380321
 30
0.0000000000000000
 11
318.6274892189514
 21
707.1584771261112
 31
0.0000000000000000
  0
LINE
  5
161
100
AcDbEntity
  8
MAIN0
  6
CONTINUOUS
 62
3
100
AcDbLine
 10
318.6274892189514
 20
705.1584771261112
 30
0.0000000000000000
 11
263.2941558856181
 21
705.1584771261112
 31
0.0000000000000000
  0
LINE
  5
162
100
AcDbEntity
  8
MAIN0
  6
CONTINUOUS
 62
3
100
AcDbLine
 10
314.6274892189514
 20
703.9584770784275
 30
0.0000000000000000
 11
318.6274892189514
 21
705.1584771261112
 31
0.0000000000000000
  0
LINE
  5
163
100
AcDbEntity
  8
MAIN0
  6
CONTINUOUS
 62
3
100
AcDbLine
 10
318.6274892189514
 20
705.1584771261112
 30
0.0000000000000000
 11
314.6274892189514
 21
706.3584771737949
 31
0.0000000000000000
  0
LINE
  5
164
100
AcDbEntity
  8
MAIN0
  6
CONTINUOUS
 62
3
100
AcDbLine
 10
267.2941558856181
 20
703.9584770784275
 30
0.0000000000000000
 11
263.2941558856181
 21
705.1584771261112
 31
0.0000000000000000
  0
LINE
  5
165
100
AcDbEntity
  8
MAIN0
  6
CONTINUOUS
 62
3
100
AcDbLine
 10
263.2941558856181
 20
705.1584771261112
 30
0.0000000000000000
 11
267.2941558856181
 21
706.3584771737949
 31
0.0000000000000000
  0
MTEXT
  5
166
100
AcDbEntity
  8
MAIN0
  6
CONTINUOUS
 62
3
100
AcDbMText
 10
290.9608225522848
 20
706.1584771261112
 30
0.0000000000000000
 40
6.199999809265137
 41
0.0000000000000000
 71
     8
 72
     1
  1
{\H0.62x;{41.5}}
 11
1.000000000000000
 21
0.0000000000000000
 31
0.0000000000000000
  7
STANDARD
  0
LINE
  5
167
100
AcDbEntity
  8
MAIN0
  6
CONTINUOUS
 62
3
100
AcDbLine
 10
263.2941558856181
 20
670.3829328812863
 30
0.0000000000000000
 11
263.2941558856181
 21
707.1584771261112
 31
0.0000000000000000
  0
LINE
  5
168
100
AcDbEntity
  8
MAIN0
  6
CONTINUOUS
 62
3
100
AcDbLine
 10
263.2941558856181
 20
705.1584771261112
 30
0.0000000000000000
 11
185.2941558856181
 21
705.1584771261112
 31
0.0000000000000000
  0
LINE
  5
169
100
AcDbEntity
  8
MAIN0
  6
CONTINUOUS
 62
3
100
AcDbLine
 10
259.2941558856181
 20
703.9584770784275
 30
0.0000000000000000
 11
263.2941558856181
 21
705.1584771261112
 31
0.0000000000000000
  0
LINE
  5
16A
100
AcDbEntity
  8
MAIN0
  6
CONTINUOUS
 62
3
100
AcDbLine
 10
263.2941558856181
 20
705.1584771261112
 30
0.0000000000000000
 11
259.2941558856181
 21
706.3584771737949
 31
0.0000000000000000
  0
LINE
  5
16B
100
AcDbEntity
  8
MAIN0
  6
CONTINUOUS
 62
3
100
AcDbLine
 10
189.2941558856181
 20
703.9584770784275
 30
0.0000000000000000
 11
185.2941558856181
 21
705.1584771261112
 31
0.0000000000000000
  0
LINE
  5
16C
100
AcDbEntity
  8
MAIN0
  6
CONTINUOUS
 62
3
100
AcDbLine
 10
185.2941558856181
 20
705.1584771261112
 30
0.0000000000000000
 11
189.2941558856181
 21
706.3584771737949
 31
0.0000000000000000
  0
MTEXT
  5
16D
100
AcDbEntity
  8
MAIN0
  6
CONTINUOUS
 62
3
100
AcDbMText
 10
224.2941558856181
 20
706.1584771261112
 30
0.0000000000000000
 40
6.199999809265137
 41
0.0000000000000000
 71
     8
 72
     1
  1
{（58.5）}
 11
1.000000000000000
 21
0.0000000000000000
 31
0.0000000000000000
  7
KNJYOKO
  0
LINE
  5
16E
100
AcDbEntity
  8
MAIN0
  6
CONTINUOUS
 62
3
100
AcDbLine
 10
185.2941558856181
 20
665.9584771380321
 30
0.0000000000000000
 11
185.2941558856181
 21
707.1584771261112
 31
0.0000000000000000
  0
LINE
  5
16F
100
AcDbEntity
  8
MAIN0
  6
CONTINUOUS
 62
3
100
AcDbLine
 10
185.2941558856181
 20
425.1584771261112
 30
0.0000000000000000
 11
209.9608225522848
 21
425.1584771261112
 31
0.0000000000000000
  0
LINE
  5
170
100
AcDbEntity
  8
MAIN0
  6
CONTINUOUS
 62
3
100
AcDbLine
 10
189.2941558856181
 20
426.3584771737949
 30
0.0000000000000000
 11
185.2941558856181
 21
425.1584771261112
 31
0.0000000000000000
  0
LINE
  5
171
100
AcDbEntity
  8
MAIN0
  6
CONTINUOUS
 62
3
100
AcDbLine
 10
185.2941558856181
 20
425.1584771261112
 30
0.0000000000000000
 11
189.2941558856181
 21
423.9584770784275
 31
0.0000000000000000
  0
LINE
  5
172
100
AcDbEntity
  8
MAIN0
  6
CONTINUOUS
 62
3
100
AcDbLine
 10
205.9608225522848
 20
426.3584771737949
 30
0.0000000000000000
 11
209.9608225522848
 21
425.1584771261112
 31
0.0000000000000000
  0
LINE
  5
173
100
AcDbEntity
  8
MAIN0
  6
CONTINUOUS
 62
3
100
AcDbLine
 10
209.9608225522848
 20
425.1584771261112
 30
0.0000000000000000
 11
205.9608225522848
 21
423.9584770784275
 31
0.0000000000000000
  0
MTEXT
  5
174
100
AcDbEntity
  8
MAIN0
  6
CONTINUOUS
 62
3
100
AcDbMText
 10
195.9136529648993
 20
426.1584771261112
 30
0.0000000000000000
 40
6.199999809265137
 41
0.0000000000000000
 71
     8
 72
     1
  1
{\H0.62x;{18.5}}
 11
1.000000000000000
 21
0.0000000000000000
 31
0.0000000000000000
  7
STANDARD
  0
LINE
  5
175
100
AcDbEntity
  8
MAIN0
  6
CONTINUOUS
 62
3
100
AcDbLine
 10
939.3116391517506
 20
678.7999401257571
 30
0.0000000000000000
 11
939.3116391517506
 21
725.4111988450542
 31
0.0000000000000000
  0
LINE
  5
176
100
AcDbEntity
  8
MAIN0
  6
CONTINUOUS
 62
3
100
AcDbLine
 10
939.3116391517506
 20
723.4111988450542
 30
0.0000000000000000
 11
1139.311639151751
 21
723.4111988450542
 31
0.0000000000000000
  0
LINE
  5
177
100
AcDbEntity
  8
MAIN0
  6
CONTINUOUS
 62
3
100
AcDbLine
 10
943.3116391517506
 20
724.6111988927379
 30
0.0000000000000000
 11
939.3116391517506
 21
723.4111988450542
 31
0.0000000000000000
  0
LINE
  5
178
100
AcDbEntity
  8
MAIN0
  6
CONTINUOUS
 62
3
100
AcDbLine
 10
939.3116391517506
 20
723.4111988450542
 30
0.0000000000000000
 11
943.3116391517506
 21
722.2111987973705
 31
0.0000000000000000
  0
LINE
  5
179
100
AcDbEntity
  8
MAIN0
  6
CONTINUOUS
 62
3
100
AcDbLine
 10
1135.311639151751
 20
724.6111988927379
 30
0.0000000000000000
 11
1139.311639151751
 21
723.4111988450542
 31
0.0000000000000000
  0
LINE
  5
17A
100
AcDbEntity
  8
MAIN0
  6
CONTINUOUS
 62
3
100
AcDbLine
 10
1139.311639151751
 20
723.4111988450542
 30
0.0000000000000000
 11
1135.311639151751
 21
722.2111987973705
 31
0.0000000000000000
  0
MTEXT
  5
17B
100
AcDbEntity
  8
MAIN0
  6
CONTINUOUS
 62
3
100
AcDbMText
 10
1039.311639151751
 20
724.4111988450542
 30
0.0000000000000000
 40
6.199999809265137
 41
0.0000000000000000
 71
     8
 72
     1
  1
{\H0.70x;{400}}
 11
1.000000000000000
 21
0.0000000000000000
 31
0.0000000000000000
  7
STANDARD
  0
LINE
  5
17C
100
AcDbEntity
  8
MAIN0
  6
CONTINUOUS
 62
3
100
AcDbLine
 10
1139.311639151751
 20
679.1204819841286
 30
0.0000000000000000
 11
1139.311639151751
 21
725.4111988450542
 31
0.0000000000000000
  0
LINE
  5
17D
100
AcDbEntity
  8
MAIN0
  6
CONTINUOUS
 62
3
100
AcDbLine
 10
1057.444972497014
 20
696.9734997910057
 30
0.0000000000000000
 11
1123.824578438980
 21
696.9734997910057
 31
0.0000000000000000
  0
LINE
  5
17E
100
AcDbEntity
  8
MAIN0
  6
CONTINUOUS
 62
3
100
AcDbLine
 10
1121.824578438980
 20
696.9734997910057
 30
0.0000000000000000
 11
1121.824578438980
 21
470.3068331243244
 31
0.0000000000000000
  0
LINE
  5
17F
100
AcDbEntity
  8
MAIN0
  6
CONTINUOUS
 62
3
100
AcDbLine
 10
1123.024578486663
 20
692.9734997910057
 30
0.0000000000000000
 11
1121.824578438980
 21
696.9734997910057
 31
0.0000000000000000
  0
LINE
  5
180
100
AcDbEntity
  8
MAIN0
  6
CONTINUOUS
 62
3
100
AcDbLine
 10
1121.824578438980
 20
696.9734997910057
 30
0.0000000000000000
 11
1120.624578391296
 21
692.9734997910057
 31
0.0000000000000000
  0
LINE
  5
181
100
AcDbEntity
  8
MAIN0
  6
CONTINUOUS
 62
3
100
AcDbLine
 10
1123.024578486663
 20
474.3068331243244
 30
0.0000000000000000
 11
1121.824578438980
 21
470.3068331243244
 31
0.0000000000000000
  0
LINE
  5
182
100
AcDbEntity
  8
MAIN0
  6
CONTINUOUS
 62
3
100
AcDbLine
 10
1121.824578438980
 20
470.3068331243244
 30
0.0000000000000000
 11
1120.624578391296
 21
474.3068331243244
 31
0.0000000000000000
  0
MTEXT
  5
183
100
AcDbEntity
  8
MAIN0
  6
CONTINUOUS
 62
3
100
AcDbMText
 10
1120.824578438980
 20
583.6401664576652
 30
0.0000000000000000
 40
6.199999809265137
 41
0.0000000000000000
 71
     8
 72
     1
  1
{\H0.70x;{220}}
 11
6.123233995736766e-017
 21
1.000000000000000
 31
0.0000000000000000
  7
STANDARD
  0
LINE
  5
184
100
AcDbEntity
  8
MAIN0
  6
CONTINUOUS
 62
3
100
AcDbLine
 10
1048.111639163513
 20
470.3068331243244
 30
0.0000000000000000
 11
1123.824578438980
 21
470.3068331243244
 31
0.0000000000000000
  0
LINE
  5
185
100
AcDbEntity
  8
MAIN0
  6
CONTINUOUS
 62
3
100
AcDbLine
 10
1057.444972497014
 20
696.9734997910057
 30
0.0000000000000000
 11
1083.824578438999
 21
696.9734997910057
 31
0.0000000000000000
  0
LINE
  5
186
100
AcDbEntity
  8
MAIN0
  6
CONTINUOUS
 62
3
100
AcDbLine
 10
1081.824578438999
 20
696.9734997910057
 30
0.0000000000000000
 11
1081.824578438999
 21
670.3068331244845
 31
0.0000000000000000
  0
LINE
  5
187
100
AcDbEntity
  8
MAIN0
  6
CONTINUOUS
 62
3
100
AcDbLine
 10
1083.024578486683
 20
692.9734997910057
 30
0.0000000000000000
 11
1081.824578438999
 21
696.9734997910057
 31
0.0000000000000000
  0
LINE
  5
188
100
AcDbEntity
  8
MAIN0
  6
CONTINUOUS
 62
3
100
AcDbLine
 10
1081.824578438999
 20
696.9734997910057
 30
0.0000000000000000
 11
1080.624578391316
 21
692.9734997910057
 31
0.0000000000000000
  0
LINE
  5
189
100
AcDbEntity
  8
MAIN0
  6
CONTINUOUS
 62
3
100
AcDbLine
 10
1083.024578486683
 20
674.3068331244845
 30
0.0000000000000000
 11
1081.824578438999
 21
670.3068331244845
 31
0.0000000000000000
  0
LINE
  5
18A
100
AcDbEntity
  8
MAIN0
  6
CONTINUOUS
 62
3
100
AcDbLine
 10
1081.824578438999
 20
670.3068331244845
 30
0.0000000000000000
 11
1080.624578391316
 21
674.3068331244845
 31
0.0000000000000000
  0
MTEXT
  5
18B
100
AcDbEntity
  8
MAIN0
  6
CONTINUOUS
 62
3
100
AcDbMText
 10
1080.824578438999
 20
688.2152151797906
 30
0.0000000000000000
 40
6.199999809265137
 41
0.0000000000000000
 71
     8
 72
     1
  1
{\H0.69x;{20}}
 11
6.123233995736766e-017
 21
1.000000000000000
 31
0.0000000000000000
  7
STANDARD
  0
LINE
  5
18C
100
AcDbEntity
  8
MAIN0
  6
CONTINUOUS
 62
3
100
AcDbLine
 10
1019.311639151757
 20
695.1068331362014
 30
0.0000000000000000
 11
1019.311639151746
 21
712.0778655117208
 31
0.0000000000000000
  0
LINE
  5
18D
100
AcDbEntity
  8
MAIN0
  6
CONTINUOUS
 62
3
100
AcDbLine
 10
1019.311639151748
 20
710.0778655117208
 30
0.0000000000000000
 11
1059.311639151757
 21
710.0778655117208
 31
0.0000000000000000
  0
LINE
  5
18E
100
AcDbEntity
  8
MAIN0
  6
CONTINUOUS
 62
3
100
AcDbLine
 10
1023.311639151748
 20
711.2778655594045
 30
0.0000000000000000
 11
1019.311639151748
 21
710.0778655117208
 31
0.0000000000000000
  0
LINE
  5
18F
100
AcDbEntity
  8
MAIN0
  6
CONTINUOUS
 62
3
100
AcDbLine
 10
1019.311639151748
 20
710.0778655117208
 30
0.0000000000000000
 11
1023.311639151748
 21
708.8778654640371
 31
0.0000000000000000
  0
LINE
  5
190
100
AcDbEntity
  8
MAIN0
  6
CONTINUOUS
 62
3
100
AcDbLine
 10
1055.311639151757
 20
711.2778655594045
 30
0.0000000000000000
 11
1059.311639151757
 21
710.0778655117208
 31
0.0000000000000000
  0
LINE
  5
191
100
AcDbEntity
  8
MAIN0
  6
CONTINUOUS
 62
3
100
AcDbLine
 10
1059.311639151757
 20
710.0778655117208
 30
0.0000000000000000
 11
1055.311639151757
 21
708.8778654640371
 31
0.0000000000000000
  0
MTEXT
  5
192
100
AcDbEntity
  8
MAIN0
  6
CONTINUOUS
 62
3
100
AcDbMText
 10
1039.311639151752
 20
711.0778655117208
 30
0.0000000000000000
 40
6.199999809265137
 41
0.0000000000000000
 71
     8
 72
     1
  1
{\U+220530}
 11
1.000000000000000
 21
0.0000000000000000
 31
0.0000000000000000
  7
STANDARD
  0
LINE
  5
193
100
AcDbEntity
  8
MAIN0
  6
CONTINUOUS
 62
3
100
AcDbLine
 10
1059.311639151757
 20
695.1068331362642
 30
0.0000000000000000
 11
1059.311639151757
 21
712.0778655117208
 31
0.0000000000000000
  0
LINE
  5
194
100
AcDbEntity
  8
MAIN0
  6
CONTINUOUS
 62
3
100
AcDbLine
 10
988.4912451056662
 20
680.9734997908602
 30
0.0000000000000000
 11
988.4912451056662
 21
659.6401664575269
 31
0.0000000000000000
  0
LINE
  5
195
100
AcDbEntity
  8
MAIN0
  6
CONTINUOUS
 62
3
100
AcDbLine
 10
989.6912451533499
 20
676.9734997908602
 30
0.0000000000000000
 11
988.4912451056662
 21
680.9734997908602
 31
0.0000000000000000
  0
LINE
  5
196
100
AcDbEntity
  8
MAIN0
  6
CONTINUOUS
 62
3
100
AcDbLine
 10
988.4912451056662
 20
680.9734997908602
 30
0.0000000000000000
 11
987.2912450579825
 21
676.9734997908602
 31
0.0000000000000000
  0
LINE
  5
197
100
AcDbEntity
  8
MAIN0
  6
CONTINUOUS
 62
3
100
AcDbLine
 10
989.6912451533499
 20
663.6401664575269
 30
0.0000000000000000
 11
988.4912451056662
 21
659.6401664575269
 31
0.0000000000000000
  0
LINE
  5
198
100
AcDbEntity
  8
MAIN0
  6
CONTINUOUS
 62
3
100
AcDbLine
 10
988.4912451056662
 20
659.6401664575269
 30
0.0000000000000000
 11
987.2912450579825
 21
663.6401664575269
 31
0.0000000000000000
  0
MTEXT
  5
199
100
AcDbEntity
  8
MAIN0
  6
CONTINUOUS
 62
3
100
AcDbMText
 10
987.4912451056662
 20
670.3068331241935
 30
0.0000000000000000
 40
6.199999809265137
 41
0.0000000000000000
 71
     8
 72
     1
  1
{\U+220516}
 11
6.123233995736766e-017
 21
1.000000000000000
 31
0.0000000000000000
  7
STANDARD
  0
LINE
  5
19A
100
AcDbEntity
  8
MAIN0
  6
CONTINUOUS
 62
3
100
AcDbLine
 10
1024.644972485023
 20
536.7445321783875
 30
0.0000000000000000
 11
1053.978305818357
 21
536.7445321783875
 31
0.0000000000000000
  0
LINE
  5
19B
100
AcDbEntity
  8
MAIN0
  6
CONTINUOUS
 62
3
100
AcDbLine
 10
1028.644972485023
 20
537.9445322260713
 30
0.0000000000000000
 11
1024.644972485023
 21
536.7445321783875
 31
0.0000000000000000
  0
LINE
  5
19C
100
AcDbEntity
  8
MAIN0
  6
CONTINUOUS
 62
3
100
AcDbLine
 10
1024.644972485023
 20
536.7445321783875
 30
0.0000000000000000
 11
1028.644972485023
 21
535.5445321307038
 31
0.0000000000000000
  0
LINE
  5
19D
100
AcDbEntity
  8
MAIN0
  6
CONTINUOUS
 62
3
100
AcDbLine
 10
1049.978305818357
 20
537.9445322260713
 30
0.0000000000000000
 11
1053.978305818357
 21
536.7445321783875
 31
0.0000000000000000
  0
LINE
  5
19E
100
AcDbEntity
  8
MAIN0
  6
CONTINUOUS
 62
3
100
AcDbLine
 10
1053.978305818357
 20
536.7445321783875
 30
0.0000000000000000
 11
1049.978305818357
 21
535.5445321307038
 31
0.0000000000000000
  0
MTEXT
  5
19F
100
AcDbEntity
  8
MAIN0
  6
CONTINUOUS
 62
3
100
AcDbMText
 10
1039.311639151690
 20
537.7445321783875
 30
0.0000000000000000
 40
6.199999809265137
 41
0.0000000000000000
 71
     8
 72
     1
  1
{\U+220522}
 11
1.000000000000000
 21
0.0000000000000000
 31
0.0000000000000000
  7
STANDARD
  0
LINE
  5
1A0
100
AcDbEntity
  8
MAIN0
  6
CONTINUOUS
 62
3
100
AcDbLine
 10
1049.599370108756
 20
492.9734997909935
 30
0.0000000000000000
 11
1083.824578439049
 21
492.9734997909935
 31
0.0000000000000000
  0
LINE
  5
1A1
100
AcDbEntity
  8
MAIN0
  6
CONTINUOUS
 62
3
100
AcDbLine
 10
1081.824578439049
 20
492.9734997909935
 30
0.0000000000000000
 11
1081.824578439049
 21
470.3068331243244
 31
0.0000000000000000
  0
LINE
  5
1A2
100
AcDbEntity
  8
MAIN0
  6
CONTINUOUS
 62
3
100
AcDbLine
 10
1083.024578486733
 20
488.9734997909935
 30
0.0000000000000000
 11
1081.824578439049
 21
492.9734997909935
 31
0.0000000000000000
  0
LINE
  5
1A3
100
AcDbEntity
  8
MAIN0
  6
CONTINUOUS
 62
3
100
AcDbLine
 10
1081.824578439049
 20
492.9734997909935
 30
0.0000000000000000
 11
1080.624578391365
 21
488.9734997909935
 31
0.0000000000000000
  0
LINE
  5
1A4
100
AcDbEntity
  8
MAIN0
  6
CONTINUOUS
 62
3
100
AcDbLine
 10
1083.024578486733
 20
474.3068331243244
 30
0.0000000000000000
 11
1081.824578439049
 21
470.3068331243244
 31
0.0000000000000000
  0
LINE
  5
1A5
100
AcDbEntity
  8
MAIN0
  6
CONTINUOUS
 62
3
100
AcDbLine
 10
1081.824578439049
 20
470.3068331243244
 30
0.0000000000000000
 11
1080.624578391365
 21
474.3068331243244
 31
0.0000000000000000
  0
MTEXT
  5
1A6
100
AcDbEntity
  8
MAIN0
  6
CONTINUOUS
 62
3
100
AcDbMText
 10
1080.824578439049
 20
481.6401664576590
 30
0.0000000000000000
 40
6.199999809265137
 41
0.0000000000000000
 71
     8
 72
     1
  1
{\H0.69x;{17}}
 11
6.123233995736766e-017
 21
1.000000000000000
 31
0.0000000000000000
  7
STANDARD
  0
LINE
  5
1A7
100
AcDbEntity
  8
MAIN0
  6
CONTINUOUS
 62
3
100
AcDbLine
 10
1048.111639163513
 20
470.3068331243244
 30
0.0000000000000000
 11
1083.824578439049
 21
470.3068331243244
 31
0.0000000000000000
  0
LINE
  5
1A8
100
AcDbEntity
  8
MAIN0
  6
CONTINUOUS
 62
3
100
AcDbLine
 10
1052.032565653728
 20
438.9028416044485
 30
0.0000000000000000
 11
1069.034288994283
 21
421.9011182639051
 31
0.0000000000000000
  0
LINE
  5
1A9
100
AcDbEntity
  8
MAIN0
  6
CONTINUOUS
 62
3
100
AcDbLine
 10
1075.937279220381
 20
431.6325356147551
 30
0.0000000000000000
 11
1054.420748849765
 21
410.1160052441240
 31
0.0000000000000000
  0
LINE
  5
1AA
100
AcDbEntity
  8
MAIN0
  6
CONTINUOUS
 62
3
100
AcDbLine
 10
1065.640176478305
 20
419.6383765303895
 30
0.0000000000000000
 11
1067.620075431909
 21
423.3153318262777
 31
0.0000000000000000
  0
LINE
  5
1AB
100
AcDbEntity
  8
MAIN0
  6
CONTINUOUS
 62
3
100
AcDbLine
 10
1067.620075431909
 20
423.3153318262777
 30
0.0000000000000000
 11
1063.943120136022
 21
421.3354328726716
 31
0.0000000000000000
  0
LINE
  5
1AC
100
AcDbEntity
  8
MAIN0
  6
CONTINUOUS
 62
3
100
AcDbLine
 10
1058.097704145652
 20
412.0959041977301
 30
0.0000000000000000
 11
1054.420748849765
 21
410.1160052441240
 31
0.0000000000000000
  0
LINE
  5
1AD
100
AcDbEntity
  8
MAIN0
  6
CONTINUOUS
 62
3
100
AcDbLine
 10
1054.420748849765
 20
410.1160052441240
 30
0.0000000000000000
 11
1056.400647803368
 21
413.7929605400122
 31
0.0000000000000000
  0
MTEXT
  5
1AE
100
AcDbEntity
  8
MAIN0
  6
CONTINUOUS
 62
3
100
AcDbMText
 10
1071.597271220455
 20
428.7067411772003
 30
0.0000000000000000
 40
6.199999809265137
 41
0.0000000000000000
 71
     8
 72
     1
  1
{\H0.69x;{14}}
 11
0.7071067811863048
 21
0.7071067811867903
 31
0.0000000000000000
  7
STANDARD
  0
MTEXT
  5
1AF
100
AcDbEntity
  8
MAIN0
  6
CONTINUOUS
 62
3
100
AcDbMText
 10
1073.152906278147
 20
438.1819720493153
 30
0.0000000000000000
 40
5.599999904632568
 41
0.0000000000000000
 71
     8
 72
     1
  1
{ 0}
 11
0.7071067811863048
 21
0.7071067811867903
 31
0.0000000000000000
  7
STANDARD
  0
MTEXT
  5
1B0
100
AcDbEntity
  8
MAIN0
  6
CONTINUOUS
 62
3
100
AcDbMText
 10
1079.057247886304
 20
436.1667178430542
 30
0.0000000000000000
 40
5.599999904632568
 41
0.0000000000000000
 71
     8
 72
     1
  1
{-0.1}
 11
0.7071067811863048
 21
0.7071067811867903
 31
0.0000000000000000
  7
STANDARD
  0
LINE
  5
1B1
100
AcDbEntity
  8
MAIN0
  6
CONTINUOUS
 62
3
100
AcDbLine
 10
1038.833239071608
 20
425.7035150222697
 30
0.0000000000000000
 11
1055.834962412138
 21
408.7017916817515
 31
0.0000000000000000
  0
POINT
  5
1B2
100
AcDbEntity
  8
MAIN0
  6
CONTINUOUS
 62
3
100
AcDbPoint
 10
1051.466880220376
 20
439.4685270378000
 30
0.0000000000000000
  0
ARC
  5
1B3
100
AcDbEntity
  8
MAIN0
  6
CONTINUOUS
 62
3
100
AcDbCircle
 10
1039.311639151568
 20
438.4244415244546
 30
0.0000000000000000
 40
12.20000000000000
100
AcDbArc
 50
355.0905771929490
 51
364.9094227979678
  0
ARC
  5
1B4
100
AcDbEntity
  8
MAIN0
  6
CONTINUOUS
 62
3
100
AcDbCircle
 10
1039.311639151568
 20
438.4244415244546
 30
0.0000000000000000
 40
12.20000000000000
100
AcDbArc
 50
4.909422797967740
 51
67.74709674112245
  0
POINT
  5
1B5
100
AcDbEntity
  8
MAIN0
  6
CONTINUOUS
 62
3
100
AcDbPoint
 10
1027.156398082761
 20
437.3803560111091
 30
0.0000000000000000
  0
ARC
  5
1B6
100
AcDbEntity
  8
MAIN0
  6
CONTINUOUS
 62
3
100
AcDbCircle
 10
1039.311639151568
 20
438.4244415244546
 30
0.0000000000000000
 40
12.20000000000000
100
AcDbArc
 50
175.0905772112041
 51
184.9094227979684
  0
ARC
  5
1B7
100
AcDbEntity
  8
MAIN0
  6
CONTINUOUS
 62
3
100
AcDbCircle
 10
1039.311639151568
 20
438.4244415244546
 30
0.0000000000000000
 40
12.20000000000000
100
AcDbArc
 50
184.9094227979684
 51
236.0006194183723
  0
LINE
  5
1B8
100
AcDbEntity
  8
MAIN0
  6
CONTINUOUS
 62
3
100
AcDbLine
 10
1055.593578365188
 20
456.0299774965420
 30
0.0000000000000000
 11
1028.991287851664
 21
427.2651248318177
 31
0.0000000000000000
  0
LINE
  5
1B9
100
AcDbEntity
  8
MAIN0
  6
CONTINUOUS
 62
3
100
AcDbLine
 10
1051.191959652998
 20
449.5031591802913
 30
0.0000000000000000
 11
1047.595079010702
 21
447.3812615014394
 31
0.0000000000000000
  0
LINE
  5
1BA
100
AcDbEntity
  8
MAIN0
  6
CONTINUOUS
 62
3
100
AcDbLine
 10
1047.595079010702
 20
447.3812615014394
 30
0.0000000000000000
 11
1049.429962210461
 21
451.1326883976595
 31
0.0000000000000000
  0
LINE
  5
1BB
100
AcDbEntity
  8
MAIN0
  6
CONTINUOUS
 62
3
100
AcDbLine
 10
1029.193316092676
 20
425.7161946512496
 30
0.0000000000000000
 11
1031.028199292435
 21
429.4676215474697
 31
0.0000000000000000
  0
LINE
  5
1BC
100
AcDbEntity
  8
MAIN0
  6
CONTINUOUS
 62
3
100
AcDbLine
 10
1031.028199292435
 20
429.4676215474697
 30
0.0000000000000000
 11
1027.431318650139
 21
427.3457238686177
 31
0.0000000000000000
  0
MTEXT
  5
1BD
100
AcDbEntity
  8
MAIN0
  6
CONTINUOUS
 62
3
100
AcDbMText
 10
1056.068207978759
 20
458.0160089381017
 30
0.0000000000000000
 40
6.199999809265137
 41
0.0000000000000000
 71
     8
 72
     1
  1
{\U+220518.3}
 11
0.6789704802568588
 21
0.7341655718840066
 31
0.0000000000000000
  7
STANDARD
  0
ARC
  5
1BE
100
AcDbEntity
  8
MAIN0
  6
PHANTOM
 62
3
100
AcDbCircle
 10
752.7886088899895
 20
465.1584771261112
 30
0.0000000000000000
 40
93.33333333333333
100
AcDbArc
 50
106.6015495990203
 51
163.3984504009798
  0
ARC
  5
1BF
100
AcDbEntity
  8
MAIN0
  6
PHANTOM
 62
3
100
AcDbCircle
 10
752.7886088899895
 20
465.1584771261112
 30
0.0000000000000000
 40
93.33333333333333
100
AcDbArc
 50
196.6015495990203
 51
253.3984504009797
  0
ARC
  5
1C0
100
AcDbEntity
  8
MAIN0
  6
PHANTOM
 62
3
100
AcDbCircle
 10
752.7886088899895
 20
465.1584771261112
 30
0.0000000000000000
 40
66.66666666666666
100
AcDbArc
 50
113.5781784782018
 51
156.4218215217982
  0
ARC
  5
1C1
100
AcDbEntity
  8
MAIN0
  6
PHANTOM
 62
3
100
AcDbCircle
 10
752.7886088899895
 20
465.1584771261112
 30
0.0000000000000000
 40
66.66666666666666
100
AcDbArc
 50
203.5781784782019
 51
246.4218215217982
  0
LINE
  5
1C2
100
AcDbEntity
  8
MAIN0
  6
CONTINUOUS
 62
3
100
AcDbLine
 10
209.1608225403638
 20
515.1584771261112
 30
0.0000000000000000
 11
158.4378732414739
 21
515.1584771261112
 31
0.0000000000000000
  0
LINE
  5
1C3
100
AcDbEntity
  8
MAIN0
  6
CONTINUOUS
 62
3
100
AcDbLine
 10
160.4378732414739
 20
515.1584771261112
 30
0.0000000000000000
 11
160.4378732414739
 21
415.1584771261112
 31
0.0000000000000000
  0
LINE
  5
1C4
100
AcDbEntity
  8
MAIN0
  6
CONTINUOUS
 62
3
100
AcDbLine
 10
161.6378732891576
 20
511.1584771261112
 30
0.0000000000000000
 11
160.4378732414739
 21
515.1584771261112
 31
0.0000000000000000
  0
LINE
  5
1C5
100
AcDbEntity
  8
MAIN0
  6
CONTINUOUS
 62
3
100
AcDbLine
 10
160.4378732414739
 20
515.1584771261112
 30
0.0000000000000000
 11
159.2378731937902
 21
511.1584771261112
 31
0.0000000000000000
  0
LINE
  5
1C6
100
AcDbEntity
  8
MAIN0
  6
CONTINUOUS
 62
3
100
AcDbLine
 10
161.6378732891576
 20
419.1584771261112
 30
0.0000000000000000
 11
160.4378732414739
 21
415.1584771261112
 31
0.0000000000000000
  0
LINE
  5
1C7
100
AcDbEntity
  8
MAIN0
  6
CONTINUOUS
 62
3
100
AcDbLine
 10
160.4378732414739
 20
415.1584771261112
 30
0.0000000000000000
 11
159.2378731937902
 21
419.1584771261112
 31
0.0000000000000000
  0
MTEXT
  5
1C8
100
AcDbEntity
  8
MAIN0
  6
CONTINUOUS
 62
3
100
AcDbMText
 10
159.4378732414739
 20
465.1584771261112
 30
0.0000000000000000
 40
6.199999809265137
 41
0.0000000000000000
 71
     8
 72
     1
  1
{\U+220575}
 11
6.123233995736766e-017
 21
1.000000000000000
 31
0.0000000000000000
  7
STANDARD
  0
LINE
  5
1C9
100
AcDbEntity
  8
MAIN0
  6
CONTINUOUS
 62
3
100
AcDbLine
 10
209.1608225403638
 20
415.1584771261112
 30
0.0000000000000000
 11
158.4378732414739
 21
415.1584771261112
 31
0.0000000000000000
  0
LINE
  5
1CA
100
AcDbEntity
  8
MAIN0
  6
CONTINUOUS
 62
3
100
AcDbLine
 10
553.7743589138219
 20
491.8251437927778
 30
0.0000000000000000
 11
517.8995259924291
 21
491.8251437927778
 31
0.0000000000000000
  0
LINE
  5
1CB
100
AcDbEntity
  8
MAIN0
  6
CONTINUOUS
 62
3
100
AcDbLine
 10
519.8995259924291
 20
491.8251437927778
 30
0.0000000000000000
 11
519.8995259924291
 21
438.4918104594445
 31
0.0000000000000000
  0
LINE
  5
1CC
100
AcDbEntity
  8
MAIN0
  6
CONTINUOUS
 62
3
100
AcDbLine
 10
521.0995260401128
 20
487.8251437927778
 30
0.0000000000000000
 11
519.8995259924291
 21
491.8251437927778
 31
0.0000000000000000
  0
LINE
  5
1CD
100
AcDbEntity
  8
MAIN0
  6
CONTINUOUS
 62
3
100
AcDbLine
 10
519.8995259924291
 20
491.8251437927778
 30
0.0000000000000000
 11
518.6995259447454
 21
487.8251437927778
 31
0.0000000000000000
  0
LINE
  5
1CE
100
AcDbEntity
  8
MAIN0
  6
CONTINUOUS
 62
3
100
AcDbLine
 10
521.0995260401128
 20
442.4918104594445
 30
0.0000000000000000
 11
519.8995259924291
 21
438.4918104594445
 31
0.0000000000000000
  0
LINE
  5
1CF
100
AcDbEntity
  8
MAIN0
  6
CONTINUOUS
 62
3
100
AcDbLine
 10
519.8995259924291
 20
438.4918104594445
 30
0.0000000000000000
 11
518.6995259447454
 21
442.4918104594445
 31
0.0000000000000000
  0
MTEXT
  5
1D0
100
AcDbEntity
  8
MAIN0
  6
CONTINUOUS
 62
3
100
AcDbMText
 10
518.8995259924291
 20
465.1584771261112
 30
0.0000000000000000
 40
6.199999809265137
 41
0.0000000000000000
 71
     8
 72
     1
  1
{\H0.69x;{40}}
 11
6.123233995736766e-017
 21
1.000000000000000
 31
0.0000000000000000
  7
STANDARD
  0
LINE
  5
1D1
100
AcDbEntity
  8
MAIN0
  6
CONTINUOUS
 62
3
100
AcDbLine
 10
553.7743589138219
 20
438.4918104594445
 30
0.0000000000000000
 11
517.8995259924291
 21
438.4918104594445
 31
0.0000000000000000
  0
LINE
  5
1D2
100
AcDbEntity
  8
MAIN0
  6
CONTINUOUS
 62
3
100
AcDbLine
 10
861.7951760209390
 20
499.4285724489565
 30
0.0000000000000000
 11
684.6417514807120
 21
443.7340862766794
 31
0.0000000000000000
  0
LINE
  5
1D3
100
AcDbEntity
  8
MAIN0
  6
CONTINUOUS
 62
3
100
AcDbLine
 10
858.3392061915728
 20
497.0841593767889
 30
0.0000000000000000
 11
861.7951760209390
 21
499.4285724489565
 31
0.0000000000000000
  0
LINE
  5
1D4
100
AcDbEntity
  8
MAIN0
  6
CONTINUOUS
 62
3
100
AcDbLine
 10
861.7951760209390
 20
499.4285724489565
 30
0.0000000000000000
 11
857.6194141958631
 21
499.3736789640988
 31
0.0000000000000000
  0
MTEXT
  5
1D5
100
AcDbEntity
  8
MAIN0
  6
CONTINUOUS
 62
3
100
AcDbMText
 10
778.7320523538070
 20
474.3629771262737
 30
0.0000000000000000
 40
6.199999809265137
 41
0.0000000000000000
 71
     8
 72
     1
  1
{\U+2205171.4}
 11
0.9539664568052759
 21
0.2999133196281681
 31
0.0000000000000000
  7
STANDARD
  0
ARC
  5
1D6
100
AcDbEntity
  8
MAIN0
  6
CENTER
 62
3
100
AcDbCircle
 10
752.7886088899895
 20
465.1584771261112
 30
0.0000000000000000
 40
140.0000000000000
100
AcDbArc
 50
74.26897698703201
 51
95.18025814050199
  0
ARC
  5
1D7
100
AcDbEntity
  8
MAIN0
  6
CENTER
 62
3
100
AcDbCircle
 10
752.7886088899895
 20
465.1584771261112
 30
0.0000000000000000
 40
140.0000000000000
100
AcDbArc
 50
340.4278286571754
 51
374.3379933198466
  0
ARC
  5
1D8
100
AcDbEntity
  8
MAIN0
  6
PHANTOM
 62
3
100
AcDbCircle
 10
752.7886088899895
 20
465.1584771261112
 30
0.0000000000000000
 40
173.3333333333333
100
AcDbArc
 50
98.84988309842903
 51
133.2450651162233
  0
ARC
  5
1D9
100
AcDbEntity
  8
MAIN0
  6
PHANTOM
 62
3
100
AcDbCircle
 10
752.7886088899895
 20
465.1584771261112
 30
0.0000000000000000
 40
173.3333333333333
100
AcDbArc
 50
136.7549348837767
 51
171.1501169015710
  0
ARC
  5
1DA
100
AcDbEntity
  8
MAIN0
  6
PHANTOM
 62
3
100
AcDbCircle
 10
752.7886088899895
 20
465.1584771261112
 30
0.0000000000000000
 40
146.6666666666667
100
AcDbArc
 50
100.4756816963899
 51
130.8293520881385
  0
ARC
  5
1DB
100
AcDbEntity
  8
MAIN0
  6
PHANTOM
 62
3
100
AcDbCircle
 10
752.7886088899895
 20
465.1584771261112
 30
0.0000000000000000
 40
146.6666666666667
100
AcDbArc
 50
139.1706479118616
 51
169.5243183036101
  0
ARC
  5
1DC
100
AcDbEntity
  8
MAIN0
  6
PHANTOM
 62
3
100
AcDbCircle
 10
752.7886088899895
 20
465.1584771261112
 30
0.0000000000000000
 40
120.0000000000000
100
AcDbArc
 50
102.8395884069041
 51
112.3370451734978
  0
ARC
  5
1DD
100
AcDbEntity
  8
MAIN0
  6
PHANTOM
 62
3
100
AcDbCircle
 10
752.7886088899895
 20
465.1584771261112
 30
0.0000000000000000
 40
120.0000000000000
100
AcDbArc
 50
127.6629548265020
 51
167.1604115930959
  0
ARC
  5
1DE
100
AcDbEntity
  8
MAIN0
  6
PHANTOM
 62
3
100
AcDbCircle
 10
752.7886088899895
 20
465.1584771261112
 30
0.0000000000000000
 40
120.0000000000000
100
AcDbArc
 50
192.8395884069041
 51
202.3370451734978
  0
ARC
  5
1DF
100
AcDbEntity
  8
MAIN0
  6
PHANTOM
 62
3
100
AcDbCircle
 10
752.7886088899895
 20
465.1584771261112
 30
0.0000000000000000
 40
120.0000000000000
100
AcDbArc
 50
217.6629548265020
 51
257.1604115930958
  0
ARC
  5
1E0
100
AcDbEntity
  8
MAIN0
  6
PHANTOM
 62
3
100
AcDbCircle
 10
752.7886088899895
 20
465.1584771261112
 30
0.0000000000000000
 40
146.6666666666667
100
AcDbArc
 50
190.4756816963899
 51
220.8293520881385
  0
ARC
  5
1E1
100
AcDbEntity
  8
MAIN0
  6
PHANTOM
 62
3
100
AcDbCircle
 10
752.7886088899895
 20
465.1584771261112
 30
0.0000000000000000
 40
146.6666666666667
100
AcDbArc
 50
229.1706479118616
 51
259.5243183036101
  0
ARC
  5
1E2
100
AcDbEntity
  8
MAIN0
  6
PHANTOM
 62
3
100
AcDbCircle
 10
752.7886088899895
 20
465.1584771261112
 30
0.0000000000000000
 40
173.3333333333333
100
AcDbArc
 50
188.8498830984291
 51
223.2450651162233
  0
ARC
  5
1E3
100
AcDbEntity
  8
MAIN0
  6
PHANTOM
 62
3
100
AcDbCircle
 10
752.7886088899895
 20
465.1584771261112
 30
0.0000000000000000
 40
173.3333333333333
100
AcDbArc
 50
226.7549348837767
 51
261.1501169015710
  0
LINE
  5
1E4
100
AcDbEntity
  8
MAIN0
  6
CONTINUOUS
 62
3
100
AcDbLine
 10
887.7583695723308
 20
427.9675682725822
 30
0.0000000000000000
 11
671.5940050242872
 21
487.5316449860940
 31
0.0000000000000000
  0
LINE
  5
1E5
100
AcDbEntity
  8
MAIN0
  6
CONTINUOUS
 62
3
100
AcDbLine
 10
883.5833114642808
 20
427.8732819594354
 30
0.0000000000000000
 11
887.7583695723308
 21
427.9675682725822
 31
0.0000000000000000
  0
LINE
  5
1E6
100
AcDbEntity
  8
MAIN0
  6
CONTINUOUS
 62
3
100
AcDbLine
 10
887.7583695723308
 20
427.9675682725822
 30
0.0000000000000000
 11
884.2208699271042
 21
430.1870493773593
 31
0.0000000000000000
  0
MTEXT
  5
1E7
100
AcDbEntity
  8
MAIN0
  6
CONTINUOUS
 62
3
100
AcDbMText
 10
859.1665264911994
 20
436.8833181701976
 30
0.0000000000000000
 40
6.199999809265137
 41
0.0000000000000000
 71
     8
 72
     1
  1
{\U+2205210}
 11
0.9640697191595812
 21
-0.2656493489537784
 31
0.0000000000000000
  7
STANDARD
  0
ARC
  5
1E8
100
AcDbEntity
  8
MAIN0
  6
CONTINUOUS
 62
3
100
AcDbCircle
 10
752.7886088899893
 20
465.1584771261112
 30
0.0000000000000000
 40
90.66666666666659
100
AcDbArc
 50
270.0000000000000
 51
450.0000000000000
  0
ARC
  5
1E9
100
AcDbEntity
  8
MAIN0
  6
CONTINUOUS
 62
3
100
AcDbCircle
 10
752.7886088899895
 20
465.1584771261112
 30
0.0000000000000000
 40
93.14599999971688
100
AcDbArc
 50
270.0000000000000
 51
450.0000000000000
  0
POINT
  5
1EA
100
AcDbEntity
  8
MAIN0
  6
CONTINUOUS
 62
3
100
AcDbPoint
 10
657.5648956902021
 20
369.9347639263237
 30
0.0000000000000000
  0
POINT
  5
1EB
100
AcDbEntity
  8
MAIN0
  6
CONTINUOUS
 62
3
100
AcDbPoint
 10
629.2806244427402
 20
341.6504926788618
 30
0.0000000000000000
  0
POINT
  5
1EC
100
AcDbEntity
  8
MAIN0
  6
CONTINUOUS
 62
3
100
AcDbPoint
 10
611.3672526526800
 20
323.7371208888017
 30
0.0000000000000000
  0
LINE
  5
1ED
100
AcDbEntity
  8
MAIN0
  6
CENTER
 62
3
100
AcDbLine
 10
663.4349502020036
 20
375.8048184381253
 30
0.0000000000000000
 11
605.0307511107054
 21
317.4006193468271
 31
0.0000000000000000
  0
INSERT
  5
1F3
100
AcDbEntity
  8
MAIN0
  6
CONTINUOUS
 62
3
100
AcDbBlockReference
  2
M0
 10
0.0000000000000000
 20
0.0000000000000000
 30
0.0000000000000000
 50
0.0000000000000000
  0
INSERT
  5
1F9
100
AcDbEntity
  8
MAIN0
  6
CONTINUOUS
 62
3
100
AcDbBlockReference
  2
M1
 10
0.0000000000000000
 20
0.0000000000000000
 30
0.0000000000000000
 50
0.0000000000000000
  0
ARC
  5
1FA
100
AcDbEntity
  8
MAIN0
  6
CONTINUOUS
 62
3
100
AcDbCircle
 10
1031.978306289383
 20
574.0179906325502
 30
0.0000000000000000
 40
11.00000000000017
100
AcDbArc
 50
228.1896751042212
 51
311.8103048957788
  0
ARC
  5
1FB
100
AcDbEntity
  8
MAIN0
  6
CONTINUOUS
 62
3
100
AcDbCircle
 10
1031.978303427422
 20
557.6201587975518
 30
0.0000000000000000
 40
11.00000000000017
100
AcDbArc
 50
48.18967510422134
 51
131.8103048957789
  0
ARC
  5
1FC
100
AcDbEntity
  8
MAIN0
  6
CONTINUOUS
 62
3
100
AcDbCircle
 10
1031.978308209245
 20
585.0179906325502
 30
0.0000000000000000
 40
11.00000000000017
100
AcDbArc
 50
228.1896751042215
 51
311.8103048957784
  0
ARC
  5
1FD
100
AcDbEntity
  8
MAIN0
  6
CONTINUOUS
 62
3
100
AcDbCircle
 10
1046.644970094088
 20
557.6201562377355
 30
0.0000000000000000
 40
11.00000000000017
100
AcDbArc
 50
48.18967510422162
 51
131.8103048957786
  0
ARC
  5
1FE
100
AcDbEntity
  8
MAIN0
  6
CONTINUOUS
 62
3
100
AcDbCircle
 10
1046.644974875912
 20
585.0179880727339
 30
0.0000000000000000
 40
11.00000000000017
100
AcDbArc
 50
228.1896751042212
 51
311.8103048957788
  0
ARC
  5
1FF
100
AcDbEntity
  8
MAIN0
  6
CONTINUOUS
 62
3
100
AcDbCircle
 10
1046.644972013950
 20
568.6201562377356
 30
0.0000000000000000
 40
11.00000000000017
100
AcDbArc
 50
48.18967510422134
 51
131.8103048957789
  0
LINE
  5
200
100
AcDbEntity
  8
MAIN0
  6
CONTINUOUS
 62
3
100
AcDbLine
 10
1024.644972484996
 20
565.8190759949591
 30
0.0000000000000000
 11
1024.644972484962
 21
519.6401664576223
 31
0.0000000000000000
  0
LINE
  5
201
100
AcDbEntity
  8
MAIN0
  6
CONTINUOUS
 62
3
100
AcDbLine
 10
1024.644972485043
 20
629.5294927985988
 30
0.0000000000000000
 11
1024.644972485004
 21
576.8190759949591
 31
0.0000000000000000
  0
LINE
  5
202
100
AcDbEntity
  8
MAIN0
  6
CONTINUOUS
 62
3
100
AcDbLine
 10
1053.978305818329
 20
565.8190708753266
 30
0.0000000000000000
 11
1053.978305818295
 21
519.6401664576682
 31
0.0000000000000000
  0
LINE
  5
203
100
AcDbEntity
  8
MAIN0
  6
CONTINUOUS
 62
3
100
AcDbLine
 10
1053.978305818376
 20
629.5294927985772
 30
0.0000000000000000
 11
1053.978305818337
 21
576.8190708753266
 31
0.0000000000000000
  0
MTEXT
  5
204
100
AcDbEntity
  8
MAIN0
  6
CONTINUOUS
 62
3
100
AcDbMText
 10
62.05958856309212
 20
479.4302479971484
 30
0.0000000000000000
 40
12.00000000000000
 41
0.0000000000000000
 71
     1
 72
     1
  1
{\H0.82x;{A}}
 11
1.000000000000000
 21
0.0000000000000000
 31
0.0000000000000000
  7
STANDARD
  0
MTEXT
  5
205
100
AcDbEntity
  8
MAIN0
  6
CONTINUOUS
 62
3
100
AcDbMText
 10
450.9367603360518
 20
479.7466675771364
 30
0.0000000000000000
 40
12.00000000000000
 41
0.0000000000000000
 71
     1
 72
     1
  1
{\H0.82x;{B}}
 11
1.000000000000000
 21
0.0000000000000000
 31
0.0000000000000000
  7
STANDARD
  0
ARC
  5
206
100
AcDbEntity
  8
MAIN0
  6
CONTINUOUS
 62
3
100
AcDbCircle
 10
185.2941558861214
 20
372.0124771258641
 30
0.0000000000000000
 40
57.02912194827839
100
AcDbArc
 50
173.9719451162114
 51
196.1844973605311
  0
LINE
  5
207
100
AcDbEntity
  8
MAIN0
  6
CONTINUOUS
 62
3
100
AcDbLine
 10
129.4650339855268
 20
376.0124771258641
 30
0.0000000000000000
 11
128.2650339378430
 21
372.0124771258641
 31
0.0000000000000000
  0
LINE
  5
208
100
AcDbEntity
  8
MAIN0
  6
CONTINUOUS
 62
3
100
AcDbLine
 10
128.2650339378430
 20
372.0124771258641
 30
0.0000000000000000
 11
127.0650338901593
 21
376.0124771258641
 31
0.0000000000000000
  0
LINE
  5
209
100
AcDbEntity
  8
MAIN0
  6
CONTINUOUS
 62
3
100
AcDbLine
 10
130.3922891776893
 20
361.1186309675501
 30
0.0000000000000000
 11
128.7054178300456
 21
364.9389012683193
 31
0.0000000000000000
  0
LINE
  5
20A
100
AcDbEntity
  8
MAIN0
  6
CONTINUOUS
 62
3
100
AcDbLine
 10
128.7054178300456
 20
364.9389012683193
 30
0.0000000000000000
 11
128.0108220940039
 21
360.8209482722406
 31
0.0000000000000000
  0
MTEXT
  5
20B
100
AcDbEntity
  8
MAIN0
  6
CONTINUOUS
 62
3
100
AcDbMText
 10
128.3639149870218
 20
360.7729635572690
 30
0.0000000000000000
 40
6.199999809265137
 41
0.0000000000000000
 71
     8
 72
     1
  1
{\H0.56x;{7\U+00B007′30″}}
 11
-0.1936874657282078
 21
0.9810632831880848
 31
0.0000000000000000
  7
KNJYOKO
  0
LINE
  5
20C
100
AcDbEntity
  8
MAIN0
  6
CONTINUOUS
 62
3
100
AcDbLine
 10
184.5003335441061
 20
371.9132495631625
 30
0.0000000000000000
 11
126.7208620058334
 21
364.6908323654188
 31
0.0000000000000000
  0
MTEXT
  5
20D
100
AcDbEntity
  8
MAIN0
  6
CONTINUOUS
 62
3
100
AcDbMText
 10
659.1088583531922
 20
248.8820250215161
 30
0.0000000000000000
 40
12.00000000000000
 41
0.0000000000000000
 71
     1
 72
     1
  1
{\H0.92x;{Ｂから見る}}
 11
1.000000000000000
 21
0.0000000000000000
 31
0.0000000000000000
  7
KNJYOKO
  0
MTEXT
  5
20E
100
AcDbEntity
  8
MAIN0
  6
CONTINUOUS
 62
3
100
AcDbMText
 10
775.5614246220640
 20
248.8820250214553
 30
0.0000000000000000
 40
12.00000000000000
 41
0.0000000000000000
 71
     1
 72
     1
  1
{\H0.92x;{Ａから見る}}
 11
1.000000000000000
 21
0.0000000000000000
 31
0.0000000000000000
  7
KNJYOKO
  0
LINE
  5
20F
100
AcDbEntity
  8
MAIN0
  6
CONTINUOUS
 62
3
100
AcDbLine
 10
276.0150823877821
 20
786.2083824621859
 30
0.0000000000000000
 11
291.4308521449879
 21
770.7926127049481
 31
0.0000000000000000
  0
LINE
  5
210
100
AcDbEntity
  8
MAIN0
  6
CONTINUOUS
 62
3
100
AcDbLine
 10
299.8909499343160
 20
782.0811376190018
 30
0.0000000000000000
 11
276.8173120004535
 21
759.0074996851876
 31
0.0000000000000000
  0
LINE
  5
211
100
AcDbEntity
  8
MAIN0
  6
CONTINUOUS
 62
3
100
AcDbLine
 10
288.0367396290075
 20
768.5298709714372
 30
0.0000000000000000
 11
290.0166385826162
 21
772.2068262673226
 31
0.0000000000000000
  0
LINE
  5
212
100
AcDbEntity
  8
MAIN0
  6
CONTINUOUS
 62
3
100
AcDbLine
 10
290.0166385826162
 20
772.2068262673226
 30
0.0000000000000000
 11
286.3396832867266
 21
770.2269273137216
 31
0.0000000000000000
  0
LINE
  5
213
100
AcDbEntity
  8
MAIN0
  6
CONTINUOUS
 62
3
100
AcDbLine
 10
280.4942672963431
 20
760.9873986387886
 30
0.0000000000000000
 11
276.8173120004535
 21
759.0074996851876
 31
0.0000000000000000
  0
LINE
  5
214
100
AcDbEntity
  8
MAIN0
  6
CONTINUOUS
 62
3
100
AcDbLine
 10
276.8173120004535
 20
759.0074996851876
 30
0.0000000000000000
 11
278.7972109540622
 21
762.6844549810730
 31
0.0000000000000000
  0
MTEXT
  5
215
100
AcDbEntity
  8
MAIN0
  6
CONTINUOUS
 62
3
100
AcDbMText
 10
294.5624655550841
 20
778.1668668021530
 30
0.0000000000000000
 40
6.199999809265137
 41
0.0000000000000000
 71
     8
 72
     1
  1
{\H0.69x;{14}}
 11
0.7071067811872864
 21
0.7071067811858086
 31
0.0000000000000000
  7
STANDARD
  0
MTEXT
  5
216
100
AcDbEntity
  8
MAIN0
  6
CONTINUOUS
 62
3
100
AcDbMText
 10
299.3354365546459
 20
790.8594336161159
 30
0.0000000000000000
 40
5.599999904632568
 41
0.0000000000000000
 71
     8
 72
     1
  1
{+0.15}
 11
0.7071067811872864
 21
0.7071067811858086
 31
0.0000000000000000
  7
STANDARD
  0
MTEXT
  5
217
100
AcDbEntity
  8
MAIN0
  6
CONTINUOUS
 62
3
100
AcDbMText
 10
303.2952344618515
 20
786.8996357089021
 30
0.0000000000000000
 40
5.599999904632568
 41
0.0000000000000000
 71
     8
 72
     1
  1
{+0.05}
 11
0.7071067811872864
 21
0.7071067811858086
 31
0.0000000000000000
  7
STANDARD
  0
LINE
  5
218
100
AcDbEntity
  8
MAIN0
  6
CONTINUOUS
 62
3
100
AcDbLine
 10
262.8157558058906
 20
773.0090558797797
 30
0.0000000000000000
 11
278.2315255628250
 21
757.5932861228130
 31
0.0000000000000000
  0
POINT
  5
219
100
AcDbEntity
  8
MAIN0
  6
CONTINUOUS
 62
3
100
AcDbPoint
 10
275.4493969544055
 20
786.7740678955638
 30
0.0000000000000000
  0
ARC
  5
21A
100
AcDbEntity
  8
MAIN0
  6
CONTINUOUS
 62
3
100
AcDbCircle
 10
263.2941558856180
 20
785.7299823819859
 30
0.0000000000000000
 40
12.20000000000000
100
AcDbArc
 50
355.0905772066870
 51
364.9094227990635
  0
ARC
  5
21B
100
AcDbEntity
  8
MAIN0
  6
CONTINUOUS
 62
3
100
AcDbCircle
 10
263.2941558856180
 20
785.7299823819859
 30
0.0000000000000000
 40
12.20000000000000
100
AcDbArc
 50
4.909422799063480
 51
63.11109128057898
  0
POINT
  5
21C
100
AcDbEntity
  8
MAIN0
  6
CONTINUOUS
 62
3
100
AcDbPoint
 10
251.1389148167878
 20
784.6858968689068
 30
0.0000000000000000
  0
ARC
  5
21D
100
AcDbEntity
  8
MAIN0
  6
CONTINUOUS
 62
3
100
AcDbCircle
 10
263.2941558856180
 20
785.7299823819859
 30
0.0000000000000000
 40
12.20000000000000
100
AcDbArc
 50
175.0905771973856
 51
184.9094227967129
  0
ARC
  5
21E
100
AcDbEntity
  8
MAIN0
  6
CONTINUOUS
 62
3
100
AcDbCircle
 10
263.2941558856180
 20
785.7299823819859
 30
0.0000000000000000
 40
12.20000000000000
100
AcDbArc
 50
184.9094227967129
 51
240.7944357306391
  0
LINE
  5
21F
100
AcDbEntity
  8
MAIN0
  6
CONTINUOUS
 62
3
100
AcDbLine
 10
278.9163604444919
 20
802.4847082126643
 30
0.0000000000000000
 11
252.9284303218289
 21
774.6128004757559
 31
0.0000000000000000
  0
LINE
  5
220
100
AcDbEntity
  8
MAIN0
  6
CONTINUOUS
 62
3
100
AcDbLine
 10
275.2195093692343
 20
796.7602110471245
 30
0.0000000000000000
 11
271.6140145618171
 21
794.6529836488286
 31
0.0000000000000000
  0
LINE
  5
221
100
AcDbEntity
  8
MAIN0
  6
CONTINUOUS
 62
3
100
AcDbLine
 10
271.6140145618171
 20
794.6529836488286
 30
0.0000000000000000
 11
273.4641647879731
 21
798.3969046222328
 31
0.0000000000000000
  0
LINE
  5
222
100
AcDbEntity
  8
MAIN0
  6
CONTINUOUS
 62
3
100
AcDbLine
 10
253.1241469832628
 20
773.0630601417391
 30
0.0000000000000000
 11
254.9742972094188
 21
776.8069811151433
 31
0.0000000000000000
  0
LINE
  5
223
100
AcDbEntity
  8
MAIN0
  6
CONTINUOUS
 62
3
100
AcDbLine
 10
254.9742972094188
 20
776.8069811151433
 30
0.0000000000000000
 11
251.3688024020017
 21
774.6997537168475
 31
0.0000000000000000
  0
MTEXT
  5
224
100
AcDbEntity
  8
MAIN0
  6
CONTINUOUS
 62
3
100
AcDbMText
 10
278.6677565579994
 20
803.6844530153555
 30
0.0000000000000000
 40
6.199999809265137
 41
0.0000000000000000
 71
     8
 72
     1
  1
{\U+220518.3}
 11
0.6819556291966503
 21
0.7313935464625053
 31
0.0000000000000000
  7
STANDARD
  0
LEADER
  5
225
100
AcDbEntity
  8
MAIN0
  6
CONTINUOUS
 62
3
100
AcDbLeader
  3
MAIN001
 73
     0
 75
     1
 40
6.199999809265137
 41
82.75900189781191
 76
     3
 10
849.8280210890607
 20
538.3173915592463
 30
0.0000000000000000
 10
827.4870547410125
 20
724.9429650770992
 30
0.0000000000000000
 10
823.6340548525924
 20
724.9429650770993
 30
0.0000000000000000
340
226
213
0.0000000000000000
223
-1.000000000000000
233
0.0000000000000000
1001
ACAD
1000
DSTYLE
1002
{
1070
   147
1040
0.0
1070
    77
1070
     1
1070
   173
1070
     1
1070
     6
1000
_OPEN
1070
     7
1000
_OPEN
1002
}
  0
MTEXT
  5
226
102
{ACAD_REACTORS
330
225
102
}
100
AcDbEntity
  8
MAIN0
  6
CONTINUOUS
 62
3
100
AcDbMText
 10
740.8750529547805
 20
732.1429648863644
 30
0.0000000000000000
 40
6.199999809265137
 41
0.0000000000000000
 71
     1
 72
     1
  1
{\H0.94x;{ドライブピン穴（１ケ所）\PDRIVE PIN HOLE}}
 11
1.000000000000000
 21
0.0000000000000000
 31
0.0000000000000000
  7
KNJYOKO
  0
LINE
  5
227
100
AcDbEntity
  8
MAIN0
  6
CONTINUOUS
 62
3
100
AcDbLine
 10
805.8686089019104
 20
757.4061937927776
 30
0.0000000000000000
 11
814.7886088899898
 21
757.4061937927776
 31
0.0000000000000000
  0
LINE
  5
228
100
AcDbEntity
  8
MAIN0
  6
CONTINUOUS
 62
3
100
AcDbLine
 10
812.7886088899898
 20
761.3888280987316
 30
0.0000000000000000
 11
812.7886088899898
 21
743.7395271261109
 31
0.0000000000000000
  0
LINE
  5
229
100
AcDbEntity
  8
MAIN0
  6
CONTINUOUS
 62
3
100
AcDbLine
 10
813.9886089376735
 20
761.4061937927776
 30
0.0000000000000000
 11
812.7886088899898
 21
757.4061937927776
 31
0.0000000000000000
  0
LINE
  5
22A
100
AcDbEntity
  8
MAIN0
  6
CONTINUOUS
 62
3
100
AcDbLine
 10
812.7886088899898
 20
757.4061937927776
 30
0.0000000000000000
 11
811.5886088423060
 21
761.4061937927776
 31
0.0000000000000000
  0
LINE
  5
22B
100
AcDbEntity
  8
MAIN0
  6
CONTINUOUS
 62
3
100
AcDbLine
 10
813.9886089376735
 20
742.7395271261109
 30
0.0000000000000000
 11
812.7886088899898
 21
746.7395271261109
 31
0.0000000000000000
  0
LINE
  5
22C
100
AcDbEntity
  8
MAIN0
  6
CONTINUOUS
 62
3
100
AcDbLine
 10
812.7886088899898
 20
746.7395271261109
 30
0.0000000000000000
 11
811.5886088423060
 21
742.7395271261109
 31
0.0000000000000000
  0
MTEXT
  5
22D
100
AcDbEntity
  8
MAIN0
  6
CONTINUOUS
 62
3
100
AcDbMText
 10
811.7886088899898
 20
763.2714624229653
 30
0.0000000000000000
 40
6.199999809265137
 41
0.0000000000000000
 71
     8
 72
     1
  1
{\H0.67x;{8}}
 11
6.123233995736766e-017
 21
1.000000000000000
 31
0.0000000000000000
  7
STANDARD
  0
LINE
  5
22E
100
AcDbEntity
  8
MAIN0
  6
CONTINUOUS
 62
3
100
AcDbLine
 10
789.7286089019107
 20
746.7395271261109
 30
0.0000000000000000
 11
814.7886088899898
 21
746.7395271261109
 31
0.0000000000000000
  0
LINE
  5
22F
100
AcDbEntity
  8
MAIN0
  6
CONTINUOUS
 62
3
100
AcDbLine
 10
756.6486088899898
 20
757.6728604713651
 30
0.0000000000000000
 11
756.6486088899898
 21
786.0728604594442
 31
0.0000000000000000
  0
LINE
  5
230
100
AcDbEntity
  8
MAIN0
  6
CONTINUOUS
 62
3
100
AcDbLine
 10
756.6486088899898
 20
784.0728604594442
 30
0.0000000000000000
 11
788.9286088899897
 21
784.0728604594442
 31
0.0000000000000000
  0
LINE
  5
231
100
AcDbEntity
  8
MAIN0
  6
CONTINUOUS
 62
3
100
AcDbLine
 10
760.6486088899898
 20
785.2728605071279
 30
0.0000000000000000
 11
756.6486088899898
 21
784.0728604594442
 31
0.0000000000000000
  0
LINE
  5
232
100
AcDbEntity
  8
MAIN0
  6
CONTINUOUS
 62
3
100
AcDbLine
 10
756.6486088899898
 20
784.0728604594442
 30
0.0000000000000000
 11
760.6486088899898
 21
782.8728604117605
 31
0.0000000000000000
  0
LINE
  5
233
100
AcDbEntity
  8
MAIN0
  6
CONTINUOUS
 62
3
100
AcDbLine
 10
784.9286088899897
 20
785.2728605071279
 30
0.0000000000000000
 11
788.9286088899897
 21
784.0728604594442
 31
0.0000000000000000
  0
LINE
  5
234
100
AcDbEntity
  8
MAIN0
  6
CONTINUOUS
 62
3
100
AcDbLine
 10
788.9286088899897
 20
784.0728604594442
 30
0.0000000000000000
 11
784.9286088899897
 21
782.8728604117605
 31
0.0000000000000000
  0
MTEXT
  5
235
100
AcDbEntity
  8
MAIN0
  6
CONTINUOUS
 62
3
100
AcDbMText
 10
766.4386087171363
 20
785.0728604594442
 30
0.0000000000000000
 40
6.199999809265137
 41
0.0000000000000000
 71
     8
 72
     1
  1
{\U+220524.2}
 11
1.000000000000000
 21
0.0000000000000000
 31
0.0000000000000000
  7
STANDARD
  0
MTEXT
  5
236
100
AcDbEntity
  8
MAIN0
  6
CONTINUOUS
 62
3
100
AcDbMText
 10
782.7886088974403
 20
790.6728603640768
 30
0.0000000000000000
 40
5.599999904632568
 41
0.0000000000000000
 71
     8
 72
     1
  1
{+0.1}
 11
1.000000000000000
 21
0.0000000000000000
 31
0.0000000000000000
  7
STANDARD
  0
MTEXT
  5
237
100
AcDbEntity
  8
MAIN0
  6
CONTINUOUS
 62
3
100
AcDbMText
 10
780.0386088229345
 20
785.0728604594442
 30
0.0000000000000000
 40
5.599999904632568
 41
0.0000000000000000
 71
     8
 72
     1
  1
{ 0}
 11
1.000000000000000
 21
0.0000000000000000
 31
0.0000000000000000
  7
STANDARD
  0
LINE
  5
238
100
AcDbEntity
  8
MAIN0
  6
CONTINUOUS
 62
3
100
AcDbLine
 10
788.9286088899897
 20
757.6728604713651
 30
0.0000000000000000
 11
788.9286088899897
 21
786.0728604594442
 31
0.0000000000000000
  0
INSERT
  5
245
100
AcDbEntity
  8
MAIN0
  6
CONTINUOUS
 62
3
100
AcDbBlockReference
  2
M2
 10
0.0000000000000000
 20
0.0000000000000000
 30
0.0000000000000000
 50
0.0000000000000000
  0
LINE
  5
246
100
AcDbEntity
  8
MAIN0
  6
CENTER
 62
3
100
AcDbLine
 10
143.3144457581727
 20
348.4918104594445
 30
0.0000000000000000
 11
223.8367766040972
 21
348.4918104594445
 31
0.0000000000000000
  0
LINE
  5
247
100
AcDbEntity
  8
MAIN0
  6
CENTER
 62
3
100
AcDbLine
 10
236.0367764133624
 20
348.4918104594445
 30
0.0000000000000000
 11
331.7709359069171
 21
348.4918104594445
 31
0.0000000000000000
  0
LINE
  5
248
100
AcDbEntity
  8
MAIN0
  6
CONTINUOUS
 62
3
100
AcDbLine
 10
153.2941558856181
 20
337.0251437808569
 30
0.0000000000000000
 11
153.2941558856181
 21
316.4918104594445
 31
0.0000000000000000
  0
LINE
  5
249
100
AcDbEntity
  8
MAIN0
  6
CONTINUOUS
 62
3
100
AcDbLine
 10
153.2941558856181
 20
318.4918104594445
 30
0.0000000000000000
 11
185.2941558856181
 21
318.4918104594445
 31
0.0000000000000000
  0
LINE
  5
24A
100
AcDbEntity
  8
MAIN0
  6
CONTINUOUS
 62
3
100
AcDbLine
 10
157.2941558856181
 20
319.6918105071283
 30
0.0000000000000000
 11
153.2941558856181
 21
318.4918104594445
 31
0.0000000000000000
  0
LINE
  5
24B
100
AcDbEntity
  8
MAIN0
  6
CONTINUOUS
 62
3
100
AcDbLine
 10
153.2941558856181
 20
318.4918104594445
 30
0.0000000000000000
 11
157.2941558856181
 21
317.2918104117608
 31
0.0000000000000000
  0
LINE
  5
24C
100
AcDbEntity
  8
MAIN0
  6
CONTINUOUS
 62
3
100
AcDbLine
 10
181.2941558856181
 20
319.6918105071283
 30
0.0000000000000000
 11
185.2941558856181
 21
318.4918104594445
 31
0.0000000000000000
  0
LINE
  5
24D
100
AcDbEntity
  8
MAIN0
  6
CONTINUOUS
 62
3
100
AcDbLine
 10
185.2941558856181
 20
318.4918104594445
 30
0.0000000000000000
 11
181.2941558856181
 21
317.2918104117608
 31
0.0000000000000000
  0
MTEXT
  5
24E
100
AcDbEntity
  8
MAIN0
  6
CONTINUOUS
 62
3
100
AcDbMText
 10
169.2941558856181
 20
319.4918104594445
 30
0.0000000000000000
 40
6.199999809265137
 41
0.0000000000000000
 71
     8
 72
     1
  1
{\H0.69x;{24}}
 11
1.000000000000000
 21
0.0000000000000000
 31
0.0000000000000000
  7
STANDARD
  0
LINE
  5
24F
100
AcDbEntity
  8
MAIN0
  6
CENTER
 62
3
100
AcDbLine
 10
921.9374593215372
 20
670.3068331241278
 30
0.0000000000000000
 11
978.2912452964010
 21
670.3068331242162
 31
0.0000000000000000
  0
LINE
  5
250
100
AcDbEntity
  8
MAIN0
  6
CENTER
 62
3
100
AcDbLine
 10
990.4912451056662
 20
670.3068331242354
 30
0.0000000000000000
 11
1149.392605408748
 21
670.3068331244845
 31
0.0000000000000000
  0
LINE
  5
251
100
AcDbEntity
  8
MAIN0
  6
CENTER
 62
3
100
AcDbLine
 10
1039.311639151649
 20
546.9445319876527
 30
0.0000000000000000
 11
1039.311639151764
 21
703.2056994235920
 31
0.0000000000000000
  0
LINE
  5
252
100
AcDbEntity
  8
MAIN0
  6
CENTER
 62
3
100
AcDbLine
 10
1039.311639151547
 20
409.7981104913250
 30
0.0000000000000000
 11
1039.311639151582
 21
457.0924925709429
 31
0.0000000000000000
  0
LINE
  5
253
100
AcDbEntity
  8
MAIN0
  6
CENTER
 62
3
100
AcDbLine
 10
1039.311639151589
 20
466.6135478126205
 30
0.0000000000000000
 11
1039.311639151639
 21
534.7445321783875
 31
0.0000000000000000
  0
LINE
  5
254
100
AcDbEntity
  8
MAIN0
  6
CONTINUOUS
 62
3
100
AcDbLine
 10
385.2941558856180
 20
519.1584771261112
 30
0.0000000000000000
 11
385.2941558856180
 21
561.1584771261112
 31
0.0000000000000000
  0
LINE
  5
255
100
AcDbEntity
  8
MAIN0
  6
CONTINUOUS
 62
3
100
AcDbLine
 10
358.6274892189514
 20
566.4918104594445
 30
0.0000000000000000
 11
358.6274892189514
 21
599.8251437927778
 31
0.0000000000000000
  0
LINE
  5
256
100
AcDbEntity
  8
MAIN0
  6
CONTINUOUS
 62
3
100
AcDbLine
 10
331.9608225522847
 20
619.8251437927778
 30
0.0000000000000000
 11
331.9608225522847
 21
651.1584771261112
 31
0.0000000000000000
  0
ARC
  5
257
100
AcDbEntity
  8
MAIN0
  6
CONTINUOUS
 62
3
100
AcDbCircle
 10
273.7374069354064
 20
683.1511074083908
 30
0.0000000000000000
 40
13.33333333333333
100
AcDbArc
 50
268.0949179078119
 51
336.4563707213433
  0
POINT
  5
258
100
AcDbEntity
  8
MAIN0
  6
CONTINUOUS
 62
3
100
AcDbPoint
 10
273.2941558856180
 20
665.1584771261112
 30
0.0000000000000000
  0
LINE
  5
259
100
AcDbEntity
  8
MAIN0
  6
CONTINUOUS
 62
3
100
AcDbLine
 10
187.2941558856181
 20
665.1584771261112
 30
0.0000000000000000
 11
273.2941558856180
 21
665.1584771261112
 31
0.0000000000000000
  0
LINE
  5
25A
100
AcDbEntity
  8
MAIN0
  6
CONTINUOUS
 62
3
100
AcDbLine
 10
273.2941558856180
 20
665.1584771261112
 30
0.0000000000000000
 11
316.6274892189513
 21
665.1584771261112
 31
0.0000000000000000
  0
LINE
  5
25B
100
AcDbEntity
  8
MAIN0
  6
CONTINUOUS
 62
3
100
AcDbLine
 10
726.1219422233229
 20
534.1307635071504
 30
0.0000000000000000
 11
726.1219422233229
 21
661.5195240791899
 31
0.0000000000000000
  0
ARC
  5
25C
100
AcDbEntity
  8
MAIN0
  6
CONTINUOUS
 62
3
100
AcDbCircle
 10
752.7886088899895
 20
379.1584771261112
 30
0.0000000000000000
 40
138.6666666666667
100
AcDbArc
 50
90.00000000000000
 51
94.13549700297840
  0
LINE
  5
25D
100
AcDbEntity
  8
MAIN0
  6
CONTINUOUS
 62
3
100
AcDbLine
 10
726.1219422233228
 20
534.1307635071505
 30
0.0000000000000000
 11
742.7886088904515
 21
517.4640968400391
 31
0.0000000000000000
  0
ARC
  5
25E
100
AcDbEntity
  8
MAIN0
  6
CONTINUOUS
 62
3
100
AcDbCircle
 10
752.7886088899895
 20
816.4918104594444
 30
0.0000000000000000
 40
138.6666666666667
100
AcDbArc
 50
265.8645029968302
 51
274.1354970031698
  0
LINE
  5
25F
100
AcDbEntity
  8
MAIN0
  6
CONTINUOUS
 62
3
100
AcDbLine
 10
762.7886088899893
 20
678.1861907447321
 30
0.0000000000000000
 11
777.3274133019854
 21
663.6473863327210
 31
0.0000000000000000
  0
LINE
  5
260
100
AcDbEntity
  8
MAIN0
  6
CONTINUOUS
 62
3
100
AcDbLine
 10
726.1219422233228
 20
661.5195240791899
 30
0.0000000000000000
 11
742.7886088899895
 21
678.1861907459029
 31
0.0000000000000000
  0
LINE
  5
261
100
AcDbEntity
  8
MAIN0
  6
CONTINUOUS
 62
3
100
AcDbLine
 10
292.6274892189514
 20
673.1861907457533
 30
0.0000000000000000
 11
307.9608225522848
 21
673.1861907457452
 31
0.0000000000000000
  0
LINE
  5
262
100
AcDbEntity
  8
MAIN0
  6
CONTINUOUS
 62
3
100
AcDbLine
 10
318.6274892189514
 20
661.5195240794029
 30
0.0000000000000000
 11
331.2941558856180
 21
661.5195240794095
 31
0.0000000000000000
  0
LINE
  5
263
100
AcDbEntity
  8
MAIN0
  6
CONTINUOUS
 62
3
100
AcDbLine
 10
318.6274892189514
 20
534.1307635070210
 30
0.0000000000000000
 11
385.2941558856180
 21
534.1307635070385
 31
0.0000000000000000
  0
LINE
  5
264
100
AcDbEntity
  8
MAIN0
  6
CONTINUOUS
 62
3
100
AcDbLine
 10
374.9608225541808
 20
517.8251437927780
 30
0.0000000000000000
 11
375.9608225541923
 21
519.5571946003647
 31
0.0000000000000000
  0
LINE
  5
265
100
AcDbEntity
  8
MAIN0
  6
CONTINUOUS
 62
3
100
AcDbLine
 10
375.9608225541924
 20
519.5571946003647
 30
0.0000000000000000
 11
376.9608225542062
 21
517.8251437927778
 31
0.0000000000000000
  0
LINE
  5
266
100
AcDbEntity
  8
MAIN0
  6
CONTINUOUS
 62
3
100
AcDbLine
 10
366.9608225541808
 20
517.8251437927780
 30
0.0000000000000000
 11
367.9608225541923
 21
519.5571946003647
 31
0.0000000000000000
  0
LINE
  5
267
100
AcDbEntity
  8
MAIN0
  6
CONTINUOUS
 62
3
100
AcDbLine
 10
367.9608225541924
 20
519.5571946003647
 30
0.0000000000000000
 11
368.9608225542062
 21
517.8251437927778
 31
0.0000000000000000
  0
LINE
  5
268
100
AcDbEntity
  8
MAIN0
  6
CONTINUOUS
 62
3
100
AcDbLine
 10
358.9608225541808
 20
517.8251437927780
 30
0.0000000000000000
 11
359.9608225541924
 21
519.5571946003647
 31
0.0000000000000000
  0
LINE
  5
269
100
AcDbEntity
  8
MAIN0
  6
CONTINUOUS
 62
3
100
AcDbLine
 10
359.9608225541924
 20
519.5571946003647
 30
0.0000000000000000
 11
360.9608225542062
 21
517.8251437927778
 31
0.0000000000000000
  0
LINE
  5
26A
100
AcDbEntity
  8
MAIN0
  6
CONTINUOUS
 62
3
100
AcDbLine
 10
350.9608225541808
 20
517.8251437927780
 30
0.0000000000000000
 11
351.9608225541924
 21
519.5571946003647
 31
0.0000000000000000
  0
LINE
  5
26B
100
AcDbEntity
  8
MAIN0
  6
CONTINUOUS
 62
3
100
AcDbLine
 10
351.9608225541924
 20
519.5571946003647
 30
0.0000000000000000
 11
352.9608225542062
 21
517.8251437927778
 31
0.0000000000000000
  0
LINE
  5
26C
100
AcDbEntity
  8
MAIN0
  6
CONTINUOUS
 62
3
100
AcDbLine
 10
342.9608225541808
 20
517.8251437927780
 30
0.0000000000000000
 11
343.9608225541924
 21
519.5571946003647
 31
0.0000000000000000
  0
LINE
  5
26D
100
AcDbEntity
  8
MAIN0
  6
CONTINUOUS
 62
3
100
AcDbLine
 10
343.9608225541924
 20
519.5571946003647
 30
0.0000000000000000
 11
344.9608225542062
 21
517.8251437927779
 31
0.0000000000000000
  0
LINE
  5
26E
100
AcDbEntity
  8
MAIN0
  6
CONTINUOUS
 62
3
100
AcDbLine
 10
334.9608225541808
 20
517.8251437927780
 30
0.0000000000000000
 11
335.9608225541923
 21
519.5571946003647
 31
0.0000000000000000
  0
LINE
  5
26F
100
AcDbEntity
  8
MAIN0
  6
CONTINUOUS
 62
3
100
AcDbLine
 10
335.9608225541924
 20
519.5571946003648
 30
0.0000000000000000
 11
336.9608225542061
 21
517.8251437927779
 31
0.0000000000000000
  0
LINE
  5
270
100
AcDbEntity
  8
MAIN0
  6
CONTINUOUS
 62
3
100
AcDbLine
 10
326.9608225541809
 20
517.8251437927780
 30
0.0000000000000000
 11
327.9608225541924
 21
519.5571946003647
 31
0.0000000000000000
  0
LINE
  5
271
100
AcDbEntity
  8
MAIN0
  6
CONTINUOUS
 62
3
100
AcDbLine
 10
327.9608225541925
 20
519.5571946003647
 30
0.0000000000000000
 11
328.9608225542062
 21
517.8251437927779
 31
0.0000000000000000
  0
LINE
  5
272
100
AcDbEntity
  8
MAIN0
  6
CONTINUOUS
 62
3
100
AcDbLine
 10
318.9608225541808
 20
517.8251437927780
 30
0.0000000000000000
 11
319.9608225541924
 21
519.5571946003647
 31
0.0000000000000000
  0
LINE
  5
273
100
AcDbEntity
  8
MAIN0
  6
CONTINUOUS
 62
3
100
AcDbLine
 10
319.9608225541925
 20
519.5571946003648
 30
0.0000000000000000
 11
320.9608225542062
 21
517.8251437927779
 31
0.0000000000000000
  0
LINE
  5
274
100
AcDbEntity
  8
MAIN0
  6
CONTINUOUS
 62
3
100
AcDbLine
 10
376.9608225542062
 20
517.8251437927778
 30
0.0000000000000000
 11
383.9608225522847
 21
517.8251437927778
 31
0.0000000000000000
  0
LINE
  5
275
100
AcDbEntity
  8
MAIN0
  6
CONTINUOUS
 62
3
100
AcDbLine
 10
368.9608225542062
 20
517.8251437927778
 30
0.0000000000000000
 11
374.9608225541808
 21
517.8251437927778
 31
0.0000000000000000
  0
LINE
  5
276
100
AcDbEntity
  8
MAIN0
  6
CONTINUOUS
 62
3
100
AcDbLine
 10
360.9608225542062
 20
517.8251437927778
 30
0.0000000000000000
 11
366.9608225541806
 21
517.8251437927778
 31
0.0000000000000000
  0
LINE
  5
277
100
AcDbEntity
  8
MAIN0
  6
CONTINUOUS
 62
3
100
AcDbLine
 10
352.9608225542062
 20
517.8251437927778
 30
0.0000000000000000
 11
358.9608225541808
 21
517.8251437927778
 31
0.0000000000000000
  0
LINE
  5
278
100
AcDbEntity
  8
MAIN0
  6
CONTINUOUS
 62
3
100
AcDbLine
 10
344.9608225542062
 20
517.8251437927778
 30
0.0000000000000000
 11
350.9608225541807
 21
517.8251437927778
 31
0.0000000000000000
  0
LINE
  5
279
100
AcDbEntity
  8
MAIN0
  6
CONTINUOUS
 62
3
100
AcDbLine
 10
336.9608225542061
 20
517.8251437927778
 30
0.0000000000000000
 11
342.9608225541808
 21
517.8251437927778
 31
0.0000000000000000
  0
LINE
  5
27A
100
AcDbEntity
  8
MAIN0
  6
CONTINUOUS
 62
3
100
AcDbLine
 10
328.9608225542062
 20
517.8251437927778
 30
0.0000000000000000
 11
334.9608225541805
 21
517.8251437927778
 31
0.0000000000000000
  0
LINE
  5
27B
100
AcDbEntity
  8
MAIN0
  6
CONTINUOUS
 62
3
100
AcDbLine
 10
320.9608225542062
 20
517.8251437927778
 30
0.0000000000000000
 11
326.9608225541809
 21
517.8251437927778
 31
0.0000000000000000
  0
LINE
  5
27C
100
AcDbEntity
  8
MAIN0
  6
CENTER
 62
3
100
AcDbLine
 10
375.9608225522847
 20
558.1696699420869
 30
0.0000000000000000
 11
375.9608225522847
 21
564.9362710100696
 31
0.0000000000000000
  0
LINE
  5
27D
100
AcDbEntity
  8
MAIN0
  6
CENTER
 62
3
100
AcDbLine
 10
367.9608225522847
 20
558.1696699420869
 30
0.0000000000000000
 11
367.9608225522847
 21
564.9362710100696
 31
0.0000000000000000
  0
LINE
  5
27E
100
AcDbEntity
  8
MAIN0
  6
CONTINUOUS
 62
3
100
AcDbLine
 10
374.9608225541261
 20
562.4918104594444
 30
0.0000000000000000
 11
375.9608225522847
 21
560.7597596550711
 31
0.0000000000000000
  0
LINE
  5
27F
100
AcDbEntity
  8
MAIN0
  6
CONTINUOUS
 62
3
100
AcDbLine
 10
375.9608225522847
 20
560.7597596512189
 30
0.0000000000000000
 11
376.9608225522846
 21
562.4918104587816
 31
0.0000000000000000
  0
LINE
  5
280
100
AcDbEntity
  8
MAIN0
  6
CONTINUOUS
 62
3
100
AcDbLine
 10
367.9608225522847
 20
560.7597596512189
 30
0.0000000000000000
 11
368.9608225522846
 21
562.4918104587816
 31
0.0000000000000000
  0
LINE
  5
281
100
AcDbEntity
  8
MAIN0
  6
CONTINUOUS
 62
3
100
AcDbLine
 10
366.9608225541261
 20
562.4918104594445
 30
0.0000000000000000
 11
367.9608225522847
 21
560.7597596550711
 31
0.0000000000000000
  0
LINE
  5
282
100
AcDbEntity
  8
MAIN0
  6
CONTINUOUS
 62
3
100
AcDbLine
 10
376.9608225526674
 20
562.4918104594445
 30
0.0000000000000000
 11
383.9608225522847
 21
562.4918104594445
 31
0.0000000000000000
  0
LINE
  5
283
100
AcDbEntity
  8
MAIN0
  6
CONTINUOUS
 62
3
100
AcDbLine
 10
362.6274892189514
 20
562.4918104594445
 30
0.0000000000000000
 11
366.9608225541261
 21
562.4918104594445
 31
0.0000000000000000
  0
LINE
  5
284
100
AcDbEntity
  8
MAIN0
  6
CONTINUOUS
 62
3
100
AcDbLine
 10
368.9608225526674
 20
562.4918104594445
 30
0.0000000000000000
 11
374.9608225541262
 21
562.4918104594445
 31
0.0000000000000000
  0
LINE
  5
285
100
AcDbEntity
  8
MAIN0
  6
CONTINUOUS
 62
3
100
AcDbLine
 10
383.9608225522848
 20
562.4918104594444
 30
0.0000000000000000
 11
385.2941558856181
 21
561.1584771261112
 31
0.0000000000000000
  0
LINE
  5
286
100
AcDbEntity
  8
MAIN0
  6
CONTINUOUS
 62
3
100
AcDbLine
 10
385.2941558856181
 20
519.1584771261112
 30
0.0000000000000000
 11
383.9608225522848
 21
517.8251437927778
 31
0.0000000000000000
  0
LINE
  5
287
100
AcDbEntity
  8
MAIN0
  6
CONTINUOUS
 62
3
100
AcDbLine
 10
335.9608225522848
 20
615.8251437927778
 30
0.0000000000000000
 11
333.3995130496566
 21
614.4918104594444
 31
0.0000000000000000
  0
LINE
  5
288
100
AcDbEntity
  8
MAIN0
  6
CONTINUOUS
 62
3
100
AcDbLine
 10
333.3995130496564
 20
614.4918104594444
 30
0.0000000000000000
 11
331.9608225522848
 21
614.4918104594444
 31
0.0000000000000000
  0
LINE
  5
289
100
AcDbEntity
  8
MAIN0
  6
CONTINUOUS
 62
3
100
AcDbLine
 10
330.6274892189514
 20
615.8251437927778
 30
0.0000000000000000
 11
330.6274892189514
 21
617.2638342901496
 31
0.0000000000000000
  0
LINE
  5
28A
100
AcDbEntity
  8
MAIN0
  6
CONTINUOUS
 62
3
100
AcDbLine
 10
330.6274892189514
 20
617.2638342901496
 30
0.0000000000000000
 11
331.9608225522848
 21
619.8251437927778
 31
0.0000000000000000
  0
ARC
  5
28B
100
AcDbEntity
  8
MAIN0
  6
CONTINUOUS
 62
3
100
AcDbCircle
 10
331.9608225522848
 20
615.8251437927778
 30
0.0000000000000000
 40
1.333333333333333
100
AcDbArc
 50
180.0000000000000
 51
270.0000000000000
  0
LINE
  5
28C
100
AcDbEntity
  8
MAIN0
  6
CONTINUOUS
 62
3
100
AcDbLine
 10
357.9608225522847
 20
599.8251437927778
 30
0.0000000000000000
 11
358.6274892189514
 21
599.8251437927778
 31
0.0000000000000000
  0
LINE
  5
28D
100
AcDbEntity
  8
MAIN0
  6
CONTINUOUS
 62
3
100
AcDbLine
 10
357.9608225522847
 20
599.8251437927778
 30
0.0000000000000000
 11
357.9608225522847
 21
614.4918104594444
 31
0.0000000000000000
  0
LINE
  5
28E
100
AcDbEntity
  8
MAIN0
  6
CONTINUOUS
 62
3
100
AcDbLine
 10
356.6274892189514
 20
615.8251437927778
 30
0.0000000000000000
 11
357.9608225522848
 21
614.4918104594444
 31
0.0000000000000000
  0
LINE
  5
28F
100
AcDbEntity
  8
MAIN0
  6
CENTER
 62
3
100
AcDbLine
 10
349.9608225522847
 20
612.0857556332376
 30
0.0000000000000000
 11
349.9608225522847
 21
618.0391229267158
 31
0.0000000000000000
  0
LINE
  5
290
100
AcDbEntity
  8
MAIN0
  6
CENTER
 62
3
100
AcDbLine
 10
341.9608225522847
 20
612.0857556332376
 30
0.0000000000000000
 11
341.9608225522847
 21
618.0391229267158
 31
0.0000000000000000
  0
LINE
  5
291
100
AcDbEntity
  8
MAIN0
  6
CONTINUOUS
 62
3
100
AcDbLine
 10
349.9608225522848
 20
614.0930929867211
 30
0.0000000000000000
 11
350.9608225514106
 21
615.8251437927779
 31
0.0000000000000000
  0
LINE
  5
292
100
AcDbEntity
  8
MAIN0
  6
CONTINUOUS
 62
3
100
AcDbLine
 10
348.9608225507961
 20
615.8251437927779
 30
0.0000000000000000
 11
349.9608225522844
 21
614.0930929826156
 31
0.0000000000000000
  0
LINE
  5
293
100
AcDbEntity
  8
MAIN0
  6
CONTINUOUS
 62
3
100
AcDbLine
 10
341.9608225522848
 20
614.0930929867211
 30
0.0000000000000000
 11
342.9608225514106
 21
615.8251437927779
 31
0.0000000000000000
  0
LINE
  5
294
100
AcDbEntity
  8
MAIN0
  6
CONTINUOUS
 62
3
100
AcDbLine
 10
340.9608225507960
 20
615.8251437927779
 30
0.0000000000000000
 11
341.9608225522844
 21
614.0930929826156
 31
0.0000000000000000
  0
LINE
  5
295
100
AcDbEntity
  8
MAIN0
  6
CONTINUOUS
 62
3
100
AcDbLine
 10
350.9608225514106
 20
615.8251437927778
 30
0.0000000000000000
 11
356.6274892189514
 21
615.8251437927778
 31
0.0000000000000000
  0
LINE
  5
296
100
AcDbEntity
  8
MAIN0
  6
CONTINUOUS
 62
3
100
AcDbLine
 10
335.9608225522849
 20
615.8251437927778
 30
0.0000000000000000
 11
340.9608225507961
 21
615.8251437927778
 31
0.0000000000000000
  0
LINE
  5
297
100
AcDbEntity
  8
MAIN0
  6
CONTINUOUS
 62
3
100
AcDbLine
 10
342.9608225514106
 20
615.8251437927778
 30
0.0000000000000000
 11
348.9608225507961
 21
615.8251437927778
 31
0.0000000000000000
  0
LINE
  5
298
100
AcDbEntity
  8
MAIN0
  6
CONTINUOUS
 62
3
100
AcDbLine
 10
331.2941558856180
 20
651.1584771261112
 30
0.0000000000000000
 11
331.9608225522847
 21
651.1584771261112
 31
0.0000000000000000
  0
LINE
  5
299
100
AcDbEntity
  8
MAIN0
  6
CONTINUOUS
 62
3
100
AcDbLine
 10
331.2941558856180
 20
651.1584771261112
 30
0.0000000000000000
 11
331.2941558856180
 21
676.4918104594444
 31
0.0000000000000000
  0
LINE
  5
29A
100
AcDbEntity
  8
MAIN0
  6
CONTINUOUS
 62
3
100
AcDbLine
 10
329.9608225522848
 20
677.8251437927777
 30
0.0000000000000000
 11
331.2941558856181
 21
676.4918104594444
 31
0.0000000000000000
  0
LINE
  5
29B
100
AcDbEntity
  8
MAIN0
  6
CENTER
 62
3
100
AcDbLine
 10
323.2941558856180
 20
675.0565178335864
 30
0.0000000000000000
 11
323.2941558856180
 21
680.9591861424455
 31
0.0000000000000000
  0
LINE
  5
29C
100
AcDbEntity
  8
MAIN0
  6
CENTER
 62
3
100
AcDbLine
 10
315.2941558856180
 20
675.0565178335864
 30
0.0000000000000000
 11
315.2941558856180
 21
680.9591861424455
 31
0.0000000000000000
  0
LINE
  5
29D
100
AcDbEntity
  8
MAIN0
  6
CENTER
 62
3
100
AcDbLine
 10
307.2941558856180
 20
675.0565178335864
 30
0.0000000000000000
 11
307.2941558856180
 21
680.9591861424455
 31
0.0000000000000000
  0
LINE
  5
29E
100
AcDbEntity
  8
MAIN0
  6
CENTER
 62
3
100
AcDbLine
 10
299.2941558856180
 20
675.0565178335864
 30
0.0000000000000000
 11
299.2941558856180
 21
680.9591861424455
 31
0.0000000000000000
  0
LINE
  5
29F
100
AcDbEntity
  8
MAIN0
  6
CONTINUOUS
 62
3
100
AcDbLine
 10
322.2941558877183
 20
677.8251437927780
 30
0.0000000000000000
 11
323.2941558856178
 21
676.0930929888461
 31
0.0000000000000000
  0
LINE
  5
2A0
100
AcDbEntity
  8
MAIN0
  6
CONTINUOUS
 62
3
100
AcDbLine
 10
323.2941558864259
 20
676.0930929883790
 30
0.0000000000000000
 11
324.2941558846025
 21
677.8251437927775
 31
0.0000000000000000
  0
LINE
  5
2A1
100
AcDbEntity
  8
MAIN0
  6
CONTINUOUS
 62
3
100
AcDbLine
 10
314.2941558877183
 20
677.8251437927780
 30
0.0000000000000000
 11
315.2941558856178
 21
676.0930929888461
 31
0.0000000000000000
  0
LINE
  5
2A2
100
AcDbEntity
  8
MAIN0
  6
CONTINUOUS
 62
3
100
AcDbLine
 10
315.2941558864259
 20
676.0930929883790
 30
0.0000000000000000
 11
316.2941558846025
 21
677.8251437927773
 31
0.0000000000000000
  0
LINE
  5
2A3
100
AcDbEntity
  8
MAIN0
  6
CONTINUOUS
 62
3
100
AcDbLine
 10
306.2941558877183
 20
677.8251437927780
 30
0.0000000000000000
 11
307.2941558856178
 21
676.0930929888461
 31
0.0000000000000000
  0
LINE
  5
2A4
100
AcDbEntity
  8
MAIN0
  6
CONTINUOUS
 62
3
100
AcDbLine
 10
307.2941558864259
 20
676.0930929883790
 30
0.0000000000000000
 11
308.2941558846025
 21
677.8251437927773
 31
0.0000000000000000
  0
LINE
  5
2A5
100
AcDbEntity
  8
MAIN0
  6
CONTINUOUS
 62
3
100
AcDbLine
 10
298.2941558877183
 20
677.8251437927780
 30
0.0000000000000000
 11
299.2941558856178
 21
676.0930929888461
 31
0.0000000000000000
  0
LINE
  5
2A6
100
AcDbEntity
  8
MAIN0
  6
CONTINUOUS
 62
3
100
AcDbLine
 10
299.2941558864259
 20
676.0930929883790
 30
0.0000000000000000
 11
300.2941558846025
 21
677.8251437927773
 31
0.0000000000000000
  0
LINE
  5
2A7
100
AcDbEntity
  8
MAIN0
  6
CONTINUOUS
 62
3
100
AcDbLine
 10
324.2941558846025
 20
677.8251437927778
 30
0.0000000000000000
 11
329.9608225522847
 21
677.8251437927778
 31
0.0000000000000000
  0
LINE
  5
2A8
100
AcDbEntity
  8
MAIN0
  6
CONTINUOUS
 62
3
100
AcDbLine
 10
316.2941558846025
 20
677.8251437927778
 30
0.0000000000000000
 11
322.2941558877183
 21
677.8251437927778
 31
0.0000000000000000
  0
LINE
  5
2A9
100
AcDbEntity
  8
MAIN0
  6
CONTINUOUS
 62
3
100
AcDbLine
 10
308.2941558846025
 20
677.8251437927778
 30
0.0000000000000000
 11
314.2941558877183
 21
677.8251437927778
 31
0.0000000000000000
  0
LINE
  5
2AA
100
AcDbEntity
  8
MAIN0
  6
CONTINUOUS
 62
3
100
AcDbLine
 10
285.9608225522848
 20
677.8251437927778
 30
0.0000000000000000
 11
298.2941558877184
 21
677.8251437927778
 31
0.0000000000000000
  0
LINE
  5
2AB
100
AcDbEntity
  8
MAIN0
  6
CONTINUOUS
 62
3
100
AcDbLine
 10
300.2941558846025
 20
677.8251437927778
 30
0.0000000000000000
 11
306.2941558877183
 21
677.8251437927778
 31
0.0000000000000000
  0
POINT
  5
2AC
100
AcDbEntity
  8
MAIN0
  6
CONTINUOUS
 62
3
100
AcDbPoint
 10
752.7886088899895
 20
816.4918104594444
 30
0.0000000000000000
  0
ARC
  5
2AD
100
AcDbEntity
  8
MAIN0
  6
CONTINUOUS
 62
3
100
AcDbCircle
 10
752.7886088899895
 20
816.4918104594444
 30
0.0000000000000000
 40
165.3333333333333
100
AcDbArc
 50
260.7182009133225
 51
270.0000000000000
  0
ARC
  5
2AE
100
AcDbEntity
  8
MAIN0
  6
CONTINUOUS
 62
3
100
AcDbCircle
 10
752.7886088899895
 20
816.4918104594444
 30
0.0000000000000000
 40
200.6666666666667
100
AcDbArc
 50
262.3633524154271
 51
270.0000000000000
  0
ARC
  5
2AF
100
AcDbEntity
  8
MAIN0
  6
CONTINUOUS
 62
3
100
AcDbCircle
 10
752.7886088899895
 20
816.4918104594444
 30
0.0000000000000000
 40
216.6666666666667
100
AcDbArc
 50
262.9302859576966
 51
270.0000000000000
  0
ARC
  5
2B0
100
AcDbEntity
  8
MAIN0
  6
CONTINUOUS
 62
3
100
AcDbCircle
 10
752.7886088899895
 20
816.4918104594444
 30
0.0000000000000000
 40
254.0000000000000
100
AcDbArc
 50
263.9735895319715
 51
270.0000000000000
  0
CIRCLE
  5
2B1
100
AcDbEntity
  8
MAIN0
  6
CONTINUOUS
 62
3
100
AcDbCircle
 10
752.7886088899898
 20
465.1584771261112
 30
0.0000000000000000
 40
50.00000000000000
  0
LINE
  5
2B2
100
AcDbEntity
  8
MAIN0
  6
CONTINUOUS
 62
3
100
AcDbLine
 10
318.6274892189514
 20
491.8251437927779
 30
0.0000000000000000
 11
383.9608225522848
 21
491.8251437927779
 31
0.0000000000000000
  0
LINE
  5
2B3
100
AcDbEntity
  8
MAIN0
  6
CONTINUOUS
 62
3
100
AcDbLine
 10
318.6274892189514
 20
438.4918104594445
 30
0.0000000000000000
 11
383.9608225522848
 21
438.4918104594445
 31
0.0000000000000000
  0
LINE
  5
2B4
100
AcDbEntity
  8
MAIN0
  6
CONTINUOUS
 62
3
100
AcDbLine
 10
385.2941558856181
 20
490.4918104594445
 30
0.0000000000000000
 11
385.2941558856181
 21
439.8251437927779
 31
0.0000000000000000
  0
LINE
  5
2B5
100
AcDbEntity
  8
MAIN0
  6
CONTINUOUS
 62
3
100
AcDbLine
 10
383.9608225522849
 20
491.8251437927779
 30
0.0000000000000000
 11
385.2941558856182
 21
490.4918104594445
 31
0.0000000000000000
  0
LINE
  5
2B6
100
AcDbEntity
  8
MAIN0
  6
CONTINUOUS
 62
3
100
AcDbLine
 10
385.2941558856182
 20
439.8251437927779
 30
0.0000000000000000
 11
383.9608225522849
 21
438.4918104594445
 31
0.0000000000000000
  0
LINE
  5
2B7
100
AcDbEntity
  8
MAIN0
  6
CONTINUOUS
 62
3
100
AcDbLine
 10
318.6274892189514
 20
267.1584771261112
 30
0.0000000000000000
 11
318.6274892189514
 21
438.4918104594445
 31
0.0000000000000000
  0
LINE
  5
2B8
100
AcDbEntity
  8
MAIN0
  6
CONTINUOUS
 62
3
100
AcDbLine
 10
318.6274892189514
 20
438.4918104594445
 30
0.0000000000000000
 11
318.6274892189514
 21
517.8251437927778
 31
0.0000000000000000
  0
LINE
  5
2B9
100
AcDbEntity
  8
MAIN0
  6
CONTINUOUS
 62
3
100
AcDbLine
 10
318.6274892189513
 20
475.1584771261112
 30
0.0000000000000000
 11
385.2941558856181
 21
475.1584771261112
 31
0.0000000000000000
  0
LINE
  5
2BA
100
AcDbEntity
  8
MAIN0
  6
CONTINUOUS
 62
3
100
AcDbLine
 10
318.6274892189514
 20
455.1584771261112
 30
0.0000000000000000
 11
385.2941558856181
 21
455.1584771261112
 31
0.0000000000000000
  0
LINE
  5
2BB
100
AcDbEntity
  8
MAIN0
  6
CENTER
 62
3
100
AcDbLine
 10
375.9608225522847
 20
450.1041481781447
 30
0.0000000000000000
 11
375.9608225522847
 21
477.1917297365214
 31
0.0000000000000000
  0
LINE
  5
2BC
100
AcDbEntity
  8
MAIN0
  6
CENTER
 62
3
100
AcDbLine
 10
375.9608225522847
 20
513.9354011349252
 30
0.0000000000000000
 11
375.9608225522847
 21
522.0435586924834
 31
0.0000000000000000
  0
LINE
  5
2BD
100
AcDbEntity
  8
MAIN0
  6
CENTER
 62
3
100
AcDbLine
 10
367.9608225522847
 20
450.1041481781447
 30
0.0000000000000000
 11
367.9608225522847
 21
477.1917297365214
 31
0.0000000000000000
  0
LINE
  5
2BE
100
AcDbEntity
  8
MAIN0
  6
CENTER
 62
3
100
AcDbLine
 10
367.9608225522847
 20
513.9354011349252
 30
0.0000000000000000
 11
367.9608225522847
 21
522.0435586924834
 31
0.0000000000000000
  0
LINE
  5
2BF
100
AcDbEntity
  8
MAIN0
  6
CENTER
 62
3
100
AcDbLine
 10
359.9608225522847
 20
450.1041481781447
 30
0.0000000000000000
 11
359.9608225522847
 21
477.1917297365214
 31
0.0000000000000000
  0
LINE
  5
2C0
100
AcDbEntity
  8
MAIN0
  6
CENTER
 62
3
100
AcDbLine
 10
359.9608225522847
 20
513.9354011349252
 30
0.0000000000000000
 11
359.9608225522847
 21
522.0435586924834
 31
0.0000000000000000
  0
LINE
  5
2C1
100
AcDbEntity
  8
MAIN0
  6
CENTER
 62
3
100
AcDbLine
 10
351.9608225522847
 20
450.1041481781447
 30
0.0000000000000000
 11
351.9608225522847
 21
477.1917297365214
 31
0.0000000000000000
  0
LINE
  5
2C2
100
AcDbEntity
  8
MAIN0
  6
CENTER
 62
3
100
AcDbLine
 10
351.9608225522847
 20
513.9354011349252
 30
0.0000000000000000
 11
351.9608225522847
 21
522.0435586924834
 31
0.0000000000000000
  0
LINE
  5
2C3
100
AcDbEntity
  8
MAIN0
  6
CENTER
 62
3
100
AcDbLine
 10
343.9608225522847
 20
450.1041481781447
 30
0.0000000000000000
 11
343.9608225522847
 21
477.1917297365214
 31
0.0000000000000000
  0
LINE
  5
2C4
100
AcDbEntity
  8
MAIN0
  6
CENTER
 62
3
100
AcDbLine
 10
343.9608225522847
 20
513.9354011349252
 30
0.0000000000000000
 11
343.9608225522847
 21
522.0435586924834
 31
0.0000000000000000
  0
LINE
  5
2C5
100
AcDbEntity
  8
MAIN0
  6
CENTER
 62
3
100
AcDbLine
 10
335.9608225522847
 20
450.1041481781447
 30
0.0000000000000000
 11
335.9608225522847
 21
477.1917297365214
 31
0.0000000000000000
  0
LINE
  5
2C6
100
AcDbEntity
  8
MAIN0
  6
CENTER
 62
3
100
AcDbLine
 10
335.9608225522847
 20
513.9354011349252
 30
0.0000000000000000
 11
335.9608225522847
 21
522.0435586924834
 31
0.0000000000000000
  0
LINE
  5
2C7
100
AcDbEntity
  8
MAIN0
  6
CENTER
 62
3
100
AcDbLine
 10
327.9608225522847
 20
450.1041481781447
 30
0.0000000000000000
 11
327.9608225522847
 21
477.1917297365214
 31
0.0000000000000000
  0
LINE
  5
2C8
100
AcDbEntity
  8
MAIN0
  6
CENTER
 62
3
100
AcDbLine
 10
327.9608225522847
 20
513.9354011349252
 30
0.0000000000000000
 11
327.9608225522847
 21
522.0435586924834
 31
0.0000000000000000
  0
LINE
  5
2C9
100
AcDbEntity
  8
MAIN0
  6
CENTER
 62
3
100
AcDbLine
 10
319.9608225522847
 20
450.1041481781447
 30
0.0000000000000000
 11
319.9608225522847
 21
477.1917297365214
 31
0.0000000000000000
  0
LINE
  5
2CA
100
AcDbEntity
  8
MAIN0
  6
CENTER
 62
3
100
AcDbLine
 10
319.9608225522847
 20
513.9354011349252
 30
0.0000000000000000
 11
319.9608225522847
 21
522.0435586924834
 31
0.0000000000000000
  0
LINE
  5
2CB
100
AcDbEntity
  8
MAIN0
  6
CONTINUOUS
 62
3
100
AcDbLine
 10
539.7608952713686
 20
455.1584771261113
 30
0.0000000000000000
 11
556.4275619380525
 21
438.4918104594445
 31
0.0000000000000000
  0
ARC
  5
2CC
100
AcDbEntity
  8
MAIN0
  6
CONTINUOUS
 62
3
100
AcDbCircle
 10
401.4552755566562
 20
465.1584771261112
 30
0.0000000000000000
 40
138.6666666666667
100
AcDbArc
 50
355.8645029968301
 51
364.1354970031698
  0
LINE
  5
2CD
100
AcDbEntity
  8
MAIN0
  6
CONTINUOUS
 62
3
100
AcDbLine
 10
556.4275619369108
 20
491.8251437927779
 30
0.0000000000000000
 11
539.7608952701978
 21
475.1584771261112
 31
0.0000000000000000
  0
LINE
  5
2CE
100
AcDbEntity
  8
MAIN0
  6
CONTINUOUS
 62
3
100
AcDbLine
 10
683.8163225089503
 20
491.8251437927778
 30
0.0000000000000000
 11
556.4275619369108
 21
491.8251437927778
 31
0.0000000000000000
  0
LINE
  5
2CF
100
AcDbEntity
  8
MAIN0
  6
CONTINUOUS
 62
3
100
AcDbLine
 10
683.8163225089502
 20
491.8251437927779
 30
0.0000000000000000
 11
700.4829891760616
 21
475.1584771256491
 31
0.0000000000000000
  0
ARC
  5
2D0
100
AcDbEntity
  8
MAIN0
  6
CONTINUOUS
 62
3
100
AcDbCircle
 10
401.4552755566562
 20
465.1584771261112
 30
0.0000000000000000
 40
254.0000000000000
100
AcDbArc
 50
353.9735895319715
 51
366.0264104680285
  0
ARC
  5
2D1
100
AcDbEntity
  8
MAIN0
  6
CONTINUOUS
 62
3
100
AcDbCircle
 10
401.4552755566562
 20
465.1584771261112
 30
0.0000000000000000
 40
200.6666666666667
100
AcDbArc
 50
352.3633524154271
 51
367.6366475845729
  0
ARC
  5
2D2
100
AcDbEntity
  8
MAIN0
  6
CONTINUOUS
 62
3
100
AcDbCircle
 10
401.4552755566562
 20
465.1584771261112
 30
0.0000000000000000
 40
216.6666666666667
100
AcDbArc
 50
352.9302859576966
 51
367.0697140423034
  0
ARC
  5
2D3
100
AcDbEntity
  8
MAIN0
  6
CONTINUOUS
 62
3
100
AcDbCircle
 10
401.4552755566562
 20
465.1584771261112
 30
0.0000000000000000
 40
165.3333333333333
100
AcDbArc
 50
350.7182009133225
 51
369.2817990866774
  0
LINE
  5
2D4
100
AcDbEntity
  8
MAIN0
  6
CONTINUOUS
 62
3
100
AcDbLine
 10
700.4829891760486
 20
455.1584771267513
 30
0.0000000000000000
 11
683.8163225087287
 21
438.4918104594445
 31
0.0000000000000000
  0
ARC
  5
2D5
100
AcDbEntity
  8
MAIN0
  6
CONTINUOUS
 62
3
100
AcDbCircle
 10
838.7886088899895
 20
465.1584771261111
 30
0.0000000000000000
 40
138.6666666666667
100
AcDbArc
 50
175.8645029970216
 51
184.1354970029046
  0
LINE
  5
2D6
100
AcDbEntity
  8
MAIN0
  6
CONTINUOUS
 62
3
100
AcDbLine
 10
742.7886088899898
 20
252.1307635074902
 30
0.0000000000000000
 11
726.1219422233229
 21
268.7974301741741
 31
0.0000000000000000
  0
ARC
  5
2D7
100
AcDbEntity
  8
MAIN0
  6
CONTINUOUS
 62
3
100
AcDbCircle
 10
752.7886088899895
 20
113.8251437927779
 30
0.0000000000000000
 40
138.6666666666667
100
AcDbArc
 50
85.86450299683021
 51
94.13549700316979
  0
LINE
  5
2D8
100
AcDbEntity
  8
MAIN0
  6
CONTINUOUS
 62
3
100
AcDbLine
 10
777.3274133032926
 20
266.6695679196629
 30
0.0000000000000000
 11
762.7886088899895
 21
252.1307635063195
 31
0.0000000000000000
  0
ARC
  5
2D9
100
AcDbEntity
  8
MAIN0
  6
CONTINUOUS
 62
3
100
AcDbCircle
 10
752.7886088899895
 20
113.8251437927779
 30
0.0000000000000000
 40
254.0000000000000
100
AcDbArc
 50
90.00000000000000
 51
96.02641046802853
  0
ARC
  5
2DA
100
AcDbEntity
  8
MAIN0
  6
CONTINUOUS
 62
3
100
AcDbCircle
 10
752.7886088899895
 20
113.8251437927779
 30
0.0000000000000000
 40
200.6666666666667
100
AcDbArc
 50
90.00000000000000
 51
97.63664758457296
  0
ARC
  5
2DB
100
AcDbEntity
  8
MAIN0
  6
CONTINUOUS
 62
3
100
AcDbCircle
 10
752.7886088899895
 20
113.8251437927779
 30
0.0000000000000000
 40
216.6666666666667
100
AcDbArc
 50
90.00000000000000
 51
97.06971404230336
  0
ARC
  5
2DC
100
AcDbEntity
  8
MAIN0
  6
CONTINUOUS
 62
3
100
AcDbCircle
 10
752.7886088899895
 20
113.8251437927779
 30
0.0000000000000000
 40
165.3333333333333
100
AcDbArc
 50
90.00000000000000
 51
99.28179908667755
  0
LINE
  5
2DD
100
AcDbEntity
  8
MAIN0
  6
CONTINUOUS
 62
3
100
AcDbLine
 10
742.7886088906297
 20
412.8528574121703
 30
0.0000000000000000
 11
726.1219422233229
 21
396.1861907448504
 31
0.0000000000000000
  0
ARC
  5
2DE
100
AcDbEntity
  8
MAIN0
  6
CONTINUOUS
 62
3
100
AcDbCircle
 10
752.7886088899895
 20
551.1584771261112
 30
0.0000000000000000
 40
138.6666666666667
100
AcDbArc
 50
265.8645029970954
 51
270.0000000000000
  0
ARC
  5
2DF
100
AcDbEntity
  8
MAIN0
  6
CONTINUOUS
 62
3
100
AcDbCircle
 10
752.7886088899895
 20
465.1584771261112
 30
0.0000000000000000
 40
200.0000000000000
100
AcDbArc
 50
270.0000000000000
 51
450.0000000000000
  0
ARC
  5
2E0
100
AcDbEntity
  8
MAIN0
  6
CONTINUOUS
 62
3
100
AcDbCircle
 10
752.7886088899895
 20
465.1584771261112
 30
0.0000000000000000
 40
200.0000000000000
100
AcDbArc
 50
97.04760788459880
 51
172.9523921154012
  0
ARC
  5
2E1
100
AcDbEntity
  8
MAIN0
  6
CONTINUOUS
 62
3
100
AcDbCircle
 10
752.7886088899895
 20
465.1584771261112
 30
0.0000000000000000
 40
200.0000000000000
100
AcDbArc
 50
187.0476078842216
 51
262.9523921157784
  0
LINE
  5
2E2
100
AcDbEntity
  8
MAIN0
  6
CONTINUOUS
 62
3
100
AcDbLine
 10
736.1219422233229
 20
512.2989292052141
 30
0.0000000000000000
 11
736.1219422233229
 21
524.1307635071610
 31
0.0000000000000000
  0
LINE
  5
2E3
100
AcDbEntity
  8
MAIN0
  6
CONTINUOUS
 62
3
100
AcDbLine
 10
736.1219422233229
 20
418.0180250470082
 30
0.0000000000000000
 11
736.1219422233229
 21
406.1861907450614
 31
0.0000000000000000
  0
LINE
  5
2E4
100
AcDbEntity
  8
MAIN0
  6
CONTINUOUS
 62
3
100
AcDbLine
 10
273.2941558856180
 20
661.8251437927779
 30
0.0000000000000000
 11
273.2941558856180
 21
669.8251437927779
 31
0.0000000000000000
  0
POINT
  5
2E5
100
AcDbEntity
  8
MAIN0
  6
CONTINUOUS
 62
3
100
AcDbPoint
 10
282.5649274151021
 20
522.4918104594445
 30
0.0000000000000000
  0
POINT
  5
2E6
100
AcDbEntity
  8
MAIN0
  6
CONTINUOUS
 62
3
100
AcDbPoint
 10
281.2941558856181
 20
523.4843211904270
 30
0.0000000000000000
  0
ARC
  5
2E7
100
AcDbEntity
  8
MAIN0
  6
CONTINUOUS
 62
3
100
AcDbCircle
 10
316.6274892189513
 20
663.1584771261112
 30
0.0000000000000000
 40
2.000000000000000
100
AcDbArc
 50
0.0000000000000000
 51
90.00000000000000
  0
ARC
  5
2E8
100
AcDbEntity
  8
MAIN0
  6
CONTINUOUS
 62
3
100
AcDbCircle
 10
187.2941558856181
 20
663.1584771261112
 30
0.0000000000000000
 40
2.000000000000000
100
AcDbArc
 50
90.00000000000000
 51
180.0000000000000
  0
ARC
  5
2E9
100
AcDbEntity
  8
MAIN0
  6
CONTINUOUS
 62
3
100
AcDbCircle
 10
316.6274892189514
 20
267.1584771261112
 30
0.0000000000000000
 40
2.000000000000000
100
AcDbArc
 50
270.0000000000000
 51
360.0000000000000
  0
ARC
  5
2EA
100
AcDbEntity
  8
MAIN0
  6
CONTINUOUS
 62
3
100
AcDbCircle
 10
187.2941558856182
 20
267.1584771261112
 30
0.0000000000000000
 40
2.000000000000000
100
AcDbArc
 50
180.0000000000000
 51
270.0000000000000
  0
ARC
  5
2EB
100
AcDbEntity
  8
MAIN0
  6
CONTINUOUS
 62
3
100
AcDbCircle
 10
752.7886088899895
 20
816.4918104594444
 30
0.0000000000000000
 40
196.6666666666667
100
AcDbArc
 50
262.2070756645776
 51
270.0000000000000
  0
ARC
  5
2EC
100
AcDbEntity
  8
MAIN0
  6
CONTINUOUS
 62
3
100
AcDbCircle
 10
752.7886088899895
 20
816.4918104594444
 30
0.0000000000000000
 40
250.0000000000000
100
AcDbArc
 50
263.8768011337306
 51
270.0000000000000
  0
ARC
  5
2ED
100
AcDbEntity
  8
MAIN0
  6
CONTINUOUS
 62
3
100
AcDbCircle
 10
401.4552755566562
 20
465.1584771261111
 30
0.0000000000000000
 40
196.6666666666667
100
AcDbArc
 50
352.2070756645776
 51
367.7929243354224
  0
ARC
  5
2EE
100
AcDbEntity
  8
MAIN0
  6
CONTINUOUS
 62
3
100
AcDbCircle
 10
401.4552755566562
 20
465.1584771261111
 30
0.0000000000000000
 40
250.0000000000000
100
AcDbArc
 50
353.8768011337306
 51
366.1231988662694
  0
ARC
  5
2EF
100
AcDbEntity
  8
MAIN0
  6
CONTINUOUS
 62
3
100
AcDbCircle
 10
752.7886088899895
 20
113.8251437927778
 30
0.0000000000000000
 40
196.6666666666667
100
AcDbArc
 50
90.00000000000000
 51
97.79292433542234
  0
ARC
  5
2F0
100
AcDbEntity
  8
MAIN0
  6
CONTINUOUS
 62
3
100
AcDbCircle
 10
752.7886088899895
 20
113.8251437927778
 30
0.0000000000000000
 40
250.0000000000000
100
AcDbArc
 50
90.00000000000000
 51
96.12319886626941
  0
POINT
  5
2F1
100
AcDbEntity
  8
MAIN0
  6
CONTINUOUS
 62
3
100
AcDbPoint
 10
273.2941558856180
 20
619.8251437927778
 30
0.0000000000000000
  0
POINT
  5
2F2
100
AcDbEntity
  8
MAIN0
  6
CONTINUOUS
 62
3
100
AcDbPoint
 10
273.2941558856180
 20
617.1584771261112
 30
0.0000000000000000
  0
POINT
  5
2F3
100
AcDbEntity
  8
MAIN0
  6
CONTINUOUS
 62
3
100
AcDbPoint
 10
273.2941558856180
 20
593.1584771261112
 30
0.0000000000000000
  0
POINT
  5
2F4
100
AcDbEntity
  8
MAIN0
  6
CONTINUOUS
 62
3
100
AcDbPoint
 10
273.2941558856180
 20
590.4918104594445
 30
0.0000000000000000
  0
POINT
  5
2F5
100
AcDbEntity
  8
MAIN0
  6
CONTINUOUS
 62
3
100
AcDbPoint
 10
281.2941558856181
 20
536.4251437927778
 30
0.0000000000000000
  0
ARC
  5
2F6
100
AcDbEntity
  8
MAIN0
  6
CONTINUOUS
 62
3
100
AcDbCircle
 10
1128.644972485073
 20
670.3068331244687
 30
0.0000000000000000
 40
10.66666666665000
100
AcDbArc
 50
270.0000000000000
 51
450.0000000000000
  0
ARC
  5
2F7
100
AcDbEntity
  8
MAIN0
  6
CONTINUOUS
 62
3
100
AcDbCircle
 10
949.9783058184064
 20
670.3068331241551
 30
0.0000000000000000
 40
10.66666666664995
100
AcDbArc
 50
90.00000000000000
 51
270.0000000000000
  0
POINT
  5
2F8
100
AcDbEntity
  8
MAIN0
  6
CONTINUOUS
 62
3
100
AcDbPoint
 10
1139.311639151723
 20
670.3068331244687
 30
0.0000000000000000
  0
POINT
  5
2F9
100
AcDbEntity
  8
MAIN0
  6
CONTINUOUS
 62
3
100
AcDbPoint
 10
939.3116391517565
 20
670.3068331241551
 30
0.0000000000000000
  0
LINE
  5
2FA
100
AcDbEntity
  8
MAIN0
  6
CENTER
 62
3
100
AcDbLine
 10
176.9552213583402
 20
465.1584771261112
 30
0.0000000000000000
 11
391.1683680582200
 21
465.1584771261112
 31
0.0000000000000000
  0
LINE
  5
2FB
100
AcDbEntity
  8
MAIN0
  6
CENTER
 62
3
100
AcDbLine
 10
263.2941558856181
 20
606.3779634929281
 30
0.0000000000000000
 11
263.2941558856181
 21
669.5829328693653
 31
0.0000000000000000
  0
LINE
  5
2FC
100
AcDbEntity
  8
MAIN0
  6
CENTER
 62
3
100
AcDbLine
 10
525.2371886950053
 20
465.1584771261112
 30
0.0000000000000000
 11
971.4261970691014
 21
465.1584771261112
 31
0.0000000000000000
  0
INSERT
  5
311
100
AcDbEntity
  8
MAIN0
  6
CONTINUOUS
 62
3
100
AcDbBlockReference
  2
M3
 10
0.0000000000000000
 20
0.0000000000000000
 30
0.0000000000000000
 50
0.0000000000000000
  0
MTEXT
  5
312
100
AcDbEntity
  8
MAIN0
  6
CONTINUOUS
 62
3
100
AcDbMText
 10
597.7882255160420
 20
137.8808733290177
 30
0.0000000000000000
 40
6.199999809265137
 41
0.0000000000000000
 71
     1
 72
     1
  1
{\H0.94x;{チャック取付ボルトは、ミリネジを付属していますので}}
 11
1.000000000000000
 21
0.0000000000000000
 31
0.0000000000000000
  7
KNJYOKO
  0
MTEXT
  5
313
100
AcDbEntity
  8
MAIN0
  6
CONTINUOUS
 62
3
100
AcDbMText
 10
597.7882255160420
 20
127.8808733290179
 30
0.0000000000000000
 40
6.199999809265137
 41
0.0000000000000000
 71
     1
 72
     1
  1
{\H0.94x;{旋盤に合わせて使用して下さい。}}
 11
1.000000000000000
 21
0.0000000000000000
 31
0.0000000000000000
  7
KNJYOKO
  0
INSERT
  5
327
100
AcDbEntity
  8
MAIN0
  6
CONTINUOUS
 62
3
100
AcDbBlockReference
  2
M4
 10
0.0000000000000000
 20
0.0000000000000000
 30
0.0000000000000000
 50
0.0000000000000000
  0
LINE
  5
328
100
AcDbEntity
  8
MAIN0
  6
CONTINUOUS
 62
3
100
AcDbLine
 10
628.4548921825897
 20
94.40033178446470
 30
0.0000000000000000
 11
628.4548921825897
 21
76.40033178446470
 31
0.0000000000000000
  0
MTEXT
  5
329
100
AcDbEntity
  8
MAIN0
  6
CONTINUOUS
 62
3
100
AcDbMText
 10
775.5614246220628
 20
233.5486916881219
 30
0.0000000000000000
 40
10.00000000000000
 41
0.0000000000000000
 71
     1
 72
     1
  1
{\H0.93x;{VIEW OF A}}
 11
1.000000000000000
 21
0.0000000000000000
 31
0.0000000000000000
  7
STANDARD
  0
MTEXT
  5
32A
100
AcDbEntity
  8
MAIN0
  6
CONTINUOUS
 62
3
100
AcDbMText
 10
659.1088583531982
 20
233.5486916881829
 30
0.0000000000000000
 40
10.00000000000000
 41
0.0000000000000000
 71
     1
 72
     1
  1
{\H0.93x;{VIEW OF B}}
 11
1.000000000000000
 21
0.0000000000000000
 31
0.0000000000000000
  7
STANDARD
  0
LINE
  5
32B
100
AcDbEntity
  8
MAIN0
  6
CONTINUOUS
 62
3
100
AcDbLine
 10
656.4501146063334
 20
235.5486916881842
 30
0.0000000000000000
 11
741.2637468810010
 21
235.5486916881399
 31
0.0000000000000000
  0
LINE
  5
32C
100
AcDbEntity
  8
MAIN0
  6
CONTINUOUS
 62
3
100
AcDbLine
 10
772.6368211378160
 20
235.5486916881234
 30
0.0000000000000000
 11
856.6528186794757
 21
235.5486916880795
 31
0.0000000000000000
  0
MTEXT
  5
32D
100
AcDbEntity
  8
MAIN0
  6
CONTINUOUS
 62
3
100
AcDbMText
 10
306.2250036786936
 20
71.98434139868596
 30
0.0000000000000000
 40
6.199999809265137
 41
0.0000000000000000
 71
     1
 72
     1
  1
{\H0.91x;{ABOVE SPECS: AT MAX. HANDLE TORQUE． }}
 11
1.000000000000000
 21
0.0000000000000000
 31
0.0000000000000000
  7
KNJYOKO
  0
MTEXT
  5
32E
100
AcDbEntity
  8
MAIN0
  6
CONTINUOUS
 62
3
100
AcDbMText
 10
597.7882255161904
 20
60.40033178446413
 30
0.0000000000000000
 40
6.000000000000000
 41
0.0000000000000000
 71
     1
 72
     1
  1
{\H0.63x;{SINCE THE CHUCK MOUNTING BOLTS ATTACHED ARE METRIC SCREWS}}
 11
1.000000000000000
 21
0.0000000000000000
 31
0.0000000000000000
  7
STANDARD
  0
MTEXT
  5
32F
100
AcDbEntity
  8
MAIN0
  6
CONTINUOUS
 62
3
100
AcDbMText
 10
597.7882255161904
 20
50.40033178446424
 30
0.0000000000000000
 40
6.000000000000000
 41
0.0000000000000000
 71
     1
 72
     1
  1
{\H0.62x;{THEY SHOULD BE USED ACCORDING TO LATHE.}}
 11
1.000000000000000
 21
0.0000000000000000
 31
0.0000000000000000
  7
STANDARD
  0
INSERT
  5
334
100
AcDbEntity
  8
MAIN0
  6
CONTINUOUS
 62
4
100
AcDbBlockReference
  2
M5
 10
0.0000000000000000
 20
0.0000000000000000
 30
0.0000000000000000
 50
0.0000000000000000
  0
LINE
  5
335
100
AcDbEntity
  8
MAIN0
  6
CONTINUOUS
 62
3
100
AcDbLine
 10
330.7608225642056
 20
677.8251437927778
 30
0.0000000000000000
 11
449.3701097466957
 21
677.8251437927778
 31
0.0000000000000000
  0
LINE
  5
336
100
AcDbEntity
  8
MAIN0
  6
CONTINUOUS
 62
3
100
AcDbLine
 10
447.3701097466957
 20
677.8251437927778
 30
0.0000000000000000
 11
447.3701097466957
 21
517.8251437927778
 31
0.0000000000000000
  0
LINE
  5
337
100
AcDbEntity
  8
MAIN0
  6
CONTINUOUS
 62
3
100
AcDbLine
 10
448.5701097943795
 20
673.8251437927778
 30
0.0000000000000000
 11
447.3701097466957
 21
677.8251437927778
 31
0.0000000000000000
  0
LINE
  5
338
100
AcDbEntity
  8
MAIN0
  6
CONTINUOUS
 62
3
100
AcDbLine
 10
447.3701097466957
 20
677.8251437927778
 30
0.0000000000000000
 11
446.1701096990120
 21
673.8251437927778
 31
0.0000000000000000
  0
LINE
  5
339
100
AcDbEntity
  8
MAIN0
  6
CONTINUOUS
 62
3
100
AcDbLine
 10
448.5701097943795
 20
521.8251437927778
 30
0.0000000000000000
 11
447.3701097466957
 21
517.8251437927778
 31
0.0000000000000000
  0
LINE
  5
33A
100
AcDbEntity
  8
MAIN0
  6
CONTINUOUS
 62
3
100
AcDbLine
 10
447.3701097466957
 20
517.8251437927778
 30
0.0000000000000000
 11
446.1701096990120
 21
521.8251437927778
 31
0.0000000000000000
  0
MTEXT
  5
33B
100
AcDbEntity
  8
MAIN0
  6
CONTINUOUS
 62
3
100
AcDbMText
 10
446.3701097466957
 20
597.8251437927778
 30
0.0000000000000000
 40
6.199999809265137
 41
0.0000000000000000
 71
     8
 72
     1
  1
{\H0.70x;{120}}
 11
6.123233995736766e-017
 21
1.000000000000000
 31
0.0000000000000000
  7
STANDARD
  0
LINE
  5
33C
100
AcDbEntity
  8
MAIN0
  6
CONTINUOUS
 62
3
100
AcDbLine
 10
384.7608225642056
 20
517.8251437927778
 30
0.0000000000000000
 11
449.3701097466957
 21
517.8251437927778
 31
0.0000000000000000
  0
LINE
  5
33D
100
AcDbEntity
  8
MAIN0
  6
CONTINUOUS
 62
3
100
AcDbLine
 10
330.7608225642056
 20
677.8251437927778
 30
0.0000000000000000
 11
422.7034430800291
 21
677.8251437927778
 31
0.0000000000000000
  0
LINE
  5
33E
100
AcDbEntity
  8
MAIN0
  6
CONTINUOUS
 62
3
100
AcDbLine
 10
420.7034430800291
 20
677.8251437927778
 30
0.0000000000000000
 11
420.7034430800291
 21
615.8251437927778
 31
0.0000000000000000
  0
LINE
  5
33F
100
AcDbEntity
  8
MAIN0
  6
CONTINUOUS
 62
3
100
AcDbLine
 10
421.9034431277128
 20
673.8251437927778
 30
0.0000000000000000
 11
420.7034430800291
 21
677.8251437927778
 31
0.0000000000000000
  0
LINE
  5
340
100
AcDbEntity
  8
MAIN0
  6
CONTINUOUS
 62
3
100
AcDbLine
 10
420.7034430800291
 20
677.8251437927778
 30
0.0000000000000000
 11
419.5034430323453
 21
673.8251437927778
 31
0.0000000000000000
  0
LINE
  5
341
100
AcDbEntity
  8
MAIN0
  6
CONTINUOUS
 62
3
100
AcDbLine
 10
421.9034431277128
 20
619.8251437927778
 30
0.0000000000000000
 11
420.7034430800291
 21
615.8251437927778
 31
0.0000000000000000
  0
LINE
  5
342
100
AcDbEntity
  8
MAIN0
  6
CONTINUOUS
 62
3
100
AcDbLine
 10
420.7034430800291
 20
615.8251437927778
 30
0.0000000000000000
 11
419.5034430323453
 21
619.8251437927778
 31
0.0000000000000000
  0
MTEXT
  5
343
100
AcDbEntity
  8
MAIN0
  6
CONTINUOUS
 62
3
100
AcDbMText
 10
419.7034430800291
 20
646.8251437927778
 30
0.0000000000000000
 40
6.199999809265137
 41
0.0000000000000000
 71
     8
 72
     1
  1
{\H0.62x;{46.5}}
 11
6.123233995736766e-017
 21
1.000000000000000
 31
0.0000000000000000
  7
STANDARD
  0
LINE
  5
344
100
AcDbEntity
  8
MAIN0
  6
CONTINUOUS
 62
3
100
AcDbLine
 10
357.4274892308723
 20
615.8251437927778
 30
0.0000000000000000
 11
422.7034430800291
 21
615.8251437927778
 31
0.0000000000000000
  0
LINE
  5
345
100
AcDbEntity
  8
MAIN0
  6
CONTINUOUS
 62
3
100
AcDbLine
 10
420.7034430800291
 20
615.8251437927778
 30
0.0000000000000000
 11
420.7034430800291
 21
562.4918104594445
 31
0.0000000000000000
  0
LINE
  5
346
100
AcDbEntity
  8
MAIN0
  6
CONTINUOUS
 62
3
100
AcDbLine
 10
421.9034431277128
 20
611.8251437927778
 30
0.0000000000000000
 11
420.7034430800291
 21
615.8251437927778
 31
0.0000000000000000
  0
LINE
  5
347
100
AcDbEntity
  8
MAIN0
  6
CONTINUOUS
 62
3
100
AcDbLine
 10
420.7034430800291
 20
615.8251437927778
 30
0.0000000000000000
 11
419.5034430323453
 21
611.8251437927778
 31
0.0000000000000000
  0
LINE
  5
348
100
AcDbEntity
  8
MAIN0
  6
CONTINUOUS
 62
3
100
AcDbLine
 10
421.9034431277128
 20
566.4918104594445
 30
0.0000000000000000
 11
420.7034430800291
 21
562.4918104594445
 31
0.0000000000000000
  0
LINE
  5
349
100
AcDbEntity
  8
MAIN0
  6
CONTINUOUS
 62
3
100
AcDbLine
 10
420.7034430800291
 20
562.4918104594445
 30
0.0000000000000000
 11
419.5034430323453
 21
566.4918104594445
 31
0.0000000000000000
  0
MTEXT
  5
34A
100
AcDbEntity
  8
MAIN0
  6
CONTINUOUS
 62
3
100
AcDbMText
 10
419.7034430800291
 20
589.1584771261112
 30
0.0000000000000000
 40
6.199999809265137
 41
0.0000000000000000
 71
     8
 72
     1
  1
{\H0.69x;{40}}
 11
6.123233995736766e-017
 21
1.000000000000000
 31
0.0000000000000000
  7
STANDARD
  0
LINE
  5
34B
100
AcDbEntity
  8
MAIN0
  6
CONTINUOUS
 62
3
100
AcDbLine
 10
384.7608225642056
 20
562.4918104594445
 30
0.0000000000000000
 11
422.7034430800291
 21
562.4918104594445
 31
0.0000000000000000
  0
LINE
  5
34C
100
AcDbEntity
  8
MAIN0
  6
CONTINUOUS
 62
3
100
AcDbLine
 10
420.7034430800291
 20
562.4918104594445
 30
0.0000000000000000
 11
420.7034430800291
 21
517.8251437927778
 31
0.0000000000000000
  0
LINE
  5
34D
100
AcDbEntity
  8
MAIN0
  6
CONTINUOUS
 62
3
100
AcDbLine
 10
421.9034431277128
 20
558.4918104594445
 30
0.0000000000000000
 11
420.7034430800291
 21
562.4918104594445
 31
0.0000000000000000
  0
LINE
  5
34E
100
AcDbEntity
  8
MAIN0
  6
CONTINUOUS
 62
3
100
AcDbLine
 10
420.7034430800291
 20
562.4918104594445
 30
0.0000000000000000
 11
419.5034430323453
 21
558.4918104594445
 31
0.0000000000000000
  0
LINE
  5
34F
100
AcDbEntity
  8
MAIN0
  6
CONTINUOUS
 62
3
100
AcDbLine
 10
421.9034431277128
 20
521.8251437927778
 30
0.0000000000000000
 11
420.7034430800291
 21
517.8251437927778
 31
0.0000000000000000
  0
LINE
  5
350
100
AcDbEntity
  8
MAIN0
  6
CONTINUOUS
 62
3
100
AcDbLine
 10
420.7034430800291
 20
517.8251437927778
 30
0.0000000000000000
 11
419.5034430323453
 21
521.8251437927778
 31
0.0000000000000000
  0
MTEXT
  5
351
100
AcDbEntity
  8
MAIN0
  6
CONTINUOUS
 62
3
100
AcDbMText
 10
419.7034430800291
 20
540.1584771261112
 30
0.0000000000000000
 40
6.199999809265137
 41
0.0000000000000000
 71
     8
 72
     1
  1
{\H0.62x;{33.5}}
 11
6.123233995736766e-017
 21
1.000000000000000
 31
0.0000000000000000
  7
STANDARD
  0
LINE
  5
352
100
AcDbEntity
  8
MAIN0
  6
CONTINUOUS
 62
3
100
AcDbLine
 10
384.7608225642056
 20
517.8251437927778
 30
0.0000000000000000
 11
422.7034430800291
 21
517.8251437927778
 31
0.0000000000000000
  0
LINE
  5
353
100
AcDbEntity
  8
MAIN0
  6
CONTINUOUS
 62
3
100
AcDbLine
 10
358.6274892189514
 20
600.6251438046987
 30
0.0000000000000000
 11
358.6274892189514
 21
633.8251437927778
 31
0.0000000000000000
  0
LINE
  5
354
100
AcDbEntity
  8
MAIN0
  6
CONTINUOUS
 62
3
100
AcDbLine
 10
358.6274892189514
 20
631.8251437927778
 30
0.0000000000000000
 11
331.9608225522847
 21
631.8251437927778
 31
0.0000000000000000
  0
LINE
  5
355
100
AcDbEntity
  8
MAIN0
  6
CONTINUOUS
 62
3
100
AcDbLine
 10
354.6274892189514
 20
630.6251437450941
 30
0.0000000000000000
 11
358.6274892189514
 21
631.8251437927778
 31
0.0000000000000000
  0
LINE
  5
356
100
AcDbEntity
  8
MAIN0
  6
CONTINUOUS
 62
3
100
AcDbLine
 10
358.6274892189514
 20
631.8251437927778
 30
0.0000000000000000
 11
354.6274892189514
 21
633.0251438404615
 31
0.0000000000000000
  0
LINE
  5
357
100
AcDbEntity
  8
MAIN0
  6
CONTINUOUS
 62
3
100
AcDbLine
 10
335.9608225522847
 20
630.6251437450941
 30
0.0000000000000000
 11
331.9608225522847
 21
631.8251437927778
 31
0.0000000000000000
  0
LINE
  5
358
100
AcDbEntity
  8
MAIN0
  6
CONTINUOUS
 62
3
100
AcDbLine
 10
331.9608225522847
 20
631.8251437927778
 30
0.0000000000000000
 11
335.9608225522847
 21
633.0251438404615
 31
0.0000000000000000
  0
MTEXT
  5
359
100
AcDbEntity
  8
MAIN0
  6
CONTINUOUS
 62
3
100
AcDbMText
 10
345.2941558856180
 20
632.8251437927778
 30
0.0000000000000000
 40
6.199999809265137
 41
0.0000000000000000
 71
     8
 72
     1
  1
{\H0.69x;{20}}
 11
1.000000000000000
 21
0.0000000000000000
 31
0.0000000000000000
  7
STANDARD
  0
LINE
  5
35A
100
AcDbEntity
  8
MAIN0
  6
CONTINUOUS
 62
3
100
AcDbLine
 10
385.2941558856180
 20
561.9584771380321
 30
0.0000000000000000
 11
385.2941558856180
 21
580.4918104594445
 31
0.0000000000000000
  0
LINE
  5
35B
100
AcDbEntity
  8
MAIN0
  6
CONTINUOUS
 62
3
100
AcDbLine
 10
385.2941558856180
 20
578.4918104594445
 30
0.0000000000000000
 11
358.6274892189514
 21
578.4918104594445
 31
0.0000000000000000
  0
LINE
  5
35C
100
AcDbEntity
  8
MAIN0
  6
CONTINUOUS
 62
3
100
AcDbLine
 10
381.2941558856180
 20
577.2918104117608
 30
0.0000000000000000
 11
385.2941558856180
 21
578.4918104594445
 31
0.0000000000000000
  0
LINE
  5
35D
100
AcDbEntity
  8
MAIN0
  6
CONTINUOUS
 62
3
100
AcDbLine
 10
385.2941558856180
 20
578.4918104594445
 30
0.0000000000000000
 11
381.2941558856180
 21
579.6918105071283
 31
0.0000000000000000
  0
LINE
  5
35E
100
AcDbEntity
  8
MAIN0
  6
CONTINUOUS
 62
3
100
AcDbLine
 10
362.6274892189514
 20
577.2918104117608
 30
0.0000000000000000
 11
358.6274892189514
 21
578.4918104594445
 31
0.0000000000000000
  0
LINE
  5
35F
100
AcDbEntity
  8
MAIN0
  6
CONTINUOUS
 62
3
100
AcDbLine
 10
358.6274892189514
 20
578.4918104594445
 30
0.0000000000000000
 11
362.6274892189514
 21
579.6918105071283
 31
0.0000000000000000
  0
MTEXT
  5
360
100
AcDbEntity
  8
MAIN0
  6
CONTINUOUS
 62
3
100
AcDbMText
 10
371.9608225522847
 20
579.4918104594445
 30
0.0000000000000000
 40
6.199999809265137
 41
0.0000000000000000
 71
     8
 72
     1
  1
{\H0.69x;{20}}
 11
1.000000000000000
 21
0.0000000000000000
 31
0.0000000000000000
  7
STANDARD
  0
LINE
  5
361
100
AcDbEntity
  8
MAIN0
  6
CONTINUOUS
 62
3
100
AcDbLine
 10
318.6274892189514
 20
405.1584771261112
 30
0.0000000000000000
 11
385.2941558856181
 21
405.1584771261112
 31
0.0000000000000000
  0
LINE
  5
362
100
AcDbEntity
  8
MAIN0
  6
CONTINUOUS
 62
3
100
AcDbLine
 10
322.6274892189514
 20
406.3584771737949
 30
0.0000000000000000
 11
318.6274892189514
 21
405.1584771261112
 31
0.0000000000000000
  0
LINE
  5
363
100
AcDbEntity
  8
MAIN0
  6
CONTINUOUS
 62
3
100
AcDbLine
 10
318.6274892189514
 20
405.1584771261112
 30
0.0000000000000000
 11
322.6274892189514
 21
403.9584770784275
 31
0.0000000000000000
  0
LINE
  5
364
100
AcDbEntity
  8
MAIN0
  6
CONTINUOUS
 62
3
100
AcDbLine
 10
381.2941558856181
 20
406.3584771737949
 30
0.0000000000000000
 11
385.2941558856181
 21
405.1584771261112
 31
0.0000000000000000
  0
LINE
  5
365
100
AcDbEntity
  8
MAIN0
  6
CONTINUOUS
 62
3
100
AcDbLine
 10
385.2941558856181
 20
405.1584771261112
 30
0.0000000000000000
 11
381.2941558856181
 21
403.9584770784275
 31
0.0000000000000000
  0
MTEXT
  5
366
100
AcDbEntity
  8
MAIN0
  6
CONTINUOUS
 62
3
100
AcDbMText
 10
351.9608225522848
 20
406.1584771261112
 30
0.0000000000000000
 40
6.199999809265137
 41
0.0000000000000000
 71
     8
 72
     1
  1
{\H0.69x;{50}}
 11
1.000000000000000
 21
0.0000000000000000
 31
0.0000000000000000
  7
STANDARD
  0
LINE
  5
367
100
AcDbEntity
  8
MAIN0
  6
CONTINUOUS
 62
3
100
AcDbLine
 10
385.2941558856181
 20
439.0251437808569
 30
0.0000000000000000
 11
385.2941558856181
 21
403.1584771261112
 31
0.0000000000000000
  0
LINE
  5
368
100
AcDbEntity
  8
MAIN0
  6
CONTINUOUS
 62
3
100
AcDbLine
 10
384.7608225642057
 20
491.8251437927779
 30
0.0000000000000000
 11
422.7034430800291
 21
491.8251437927779
 31
0.0000000000000000
  0
LINE
  5
369
100
AcDbEntity
  8
MAIN0
  6
CONTINUOUS
 62
3
100
AcDbLine
 10
420.7034430800291
 20
491.8251437927779
 30
0.0000000000000000
 11
420.7034430800291
 21
438.4918104594445
 31
0.0000000000000000
  0
LINE
  5
36A
100
AcDbEntity
  8
MAIN0
  6
CONTINUOUS
 62
3
100
AcDbLine
 10
421.9034431277128
 20
487.8251437927779
 30
0.0000000000000000
 11
420.7034430800291
 21
491.8251437927779
 31
0.0000000000000000
  0
LINE
  5
36B
100
AcDbEntity
  8
MAIN0
  6
CONTINUOUS
 62
3
100
AcDbLine
 10
420.7034430800291
 20
491.8251437927779
 30
0.0000000000000000
 11
419.5034430323453
 21
487.8251437927779
 31
0.0000000000000000
  0
LINE
  5
36C
100
AcDbEntity
  8
MAIN0
  6
CONTINUOUS
 62
3
100
AcDbLine
 10
421.9034431277128
 20
442.4918104594445
 30
0.0000000000000000
 11
420.7034430800291
 21
438.4918104594445
 31
0.0000000000000000
  0
LINE
  5
36D
100
AcDbEntity
  8
MAIN0
  6
CONTINUOUS
 62
3
100
AcDbLine
 10
420.7034430800291
 20
438.4918104594445
 30
0.0000000000000000
 11
419.5034430323453
 21
442.4918104594445
 31
0.0000000000000000
  0
MTEXT
  5
36E
100
AcDbEntity
  8
MAIN0
  6
CONTINUOUS
 62
3
100
AcDbMText
 10
419.7034430800291
 20
465.1584771261112
 30
0.0000000000000000
 40
6.199999809265137
 41
0.0000000000000000
 71
     8
 72
     1
  1
{\H0.69x;{40}}
 11
6.123233995736766e-017
 21
1.000000000000000
 31
0.0000000000000000
  7
STANDARD
  0
LINE
  5
36F
100
AcDbEntity
  8
MAIN0
  6
CONTINUOUS
 62
3
100
AcDbLine
 10
384.7608225642057
 20
438.4918104594445
 30
0.0000000000000000
 11
422.7034430800291
 21
438.4918104594445
 31
0.0000000000000000
  0
LINE
  5
370
100
AcDbEntity
  8
MAIN0
  6
CONTINUOUS
 62
3
100
AcDbLine
 10
386.0941558975391
 20
475.1584771261112
 30
0.0000000000000000
 11
402.7034430800291
 21
475.1584771261112
 31
0.0000000000000000
  0
LINE
  5
371
100
AcDbEntity
  8
MAIN0
  6
CONTINUOUS
 62
3
100
AcDbLine
 10
400.7034430800291
 20
475.1584771261112
 30
0.0000000000000000
 11
400.7034430800291
 21
455.1584771261112
 31
0.0000000000000000
  0
LINE
  5
372
100
AcDbEntity
  8
MAIN0
  6
CONTINUOUS
 62
3
100
AcDbLine
 10
401.9034431277128
 20
471.1584771261112
 30
0.0000000000000000
 11
400.7034430800291
 21
475.1584771261112
 31
0.0000000000000000
  0
LINE
  5
373
100
AcDbEntity
  8
MAIN0
  6
CONTINUOUS
 62
3
100
AcDbLine
 10
400.7034430800291
 20
475.1584771261112
 30
0.0000000000000000
 11
399.5034430323453
 21
471.1584771261112
 31
0.0000000000000000
  0
LINE
  5
374
100
AcDbEntity
  8
MAIN0
  6
CONTINUOUS
 62
3
100
AcDbLine
 10
401.9034431277128
 20
459.1584771261112
 30
0.0000000000000000
 11
400.7034430800291
 21
455.1584771261112
 31
0.0000000000000000
  0
LINE
  5
375
100
AcDbEntity
  8
MAIN0
  6
CONTINUOUS
 62
3
100
AcDbLine
 10
400.7034430800291
 20
455.1584771261112
 30
0.0000000000000000
 11
399.5034430323453
 21
459.1584771261112
 31
0.0000000000000000
  0
MTEXT
  5
376
100
AcDbEntity
  8
MAIN0
  6
CONTINUOUS
 62
3
100
AcDbMText
 10
399.7034430800291
 20
465.1584771261112
 30
0.0000000000000000
 40
6.199999809265137
 41
0.0000000000000000
 71
     8
 72
     1
  1
{\H0.69x;{15}}
 11
6.123233995736766e-017
 21
1.000000000000000
 31
0.0000000000000000
  7
STANDARD
  0
LINE
  5
377
100
AcDbEntity
  8
MAIN0
  6
CONTINUOUS
 62
3
100
AcDbLine
 10
386.0941558975391
 20
455.1584771261112
 30
0.0000000000000000
 11
402.7034430800291
 21
455.1584771261112
 31
0.0000000000000000
  0
LEADER
  5
378
100
AcDbEntity
  8
MAIN0
  6
CONTINUOUS
 62
3
100
AcDbLeader
  3
MAIN001
 73
     0
 75
     1
 40
6.199999809265137
 41
27.13900082015992
 76
     3
 10
160.9095915916289
 20
337.8251437927779
 30
0.0000000000000000
 10
134.0367764133624
 20
298.4918104594445
 30
0.0000000000000000
 10
130.1837765249423
 20
298.4918104594445
 30
0.0000000000000000
340
379
213
0.0000000000000000
223
-1.000000000000000
233
0.0000000000000000
1001
ACAD
1000
DSTYLE
1002
{
1070
   147
1040
0.0
1070
    77
1070
     1
1070
   173
1070
     1
1070
     6
1000
_OPEN
1070
     7
1000
_OPEN
1002
}
  0
MTEXT
  5
379
102
{ACAD_REACTORS
330
378
102
}
100
AcDbEntity
  8
MAIN0
  6
CONTINUOUS
 62
3
100
AcDbMText
 10
103.0447757047824
 20
305.6918102687097
 30
0.0000000000000000
 40
6.199999809265137
 41
0.0000000000000000
 71
     1
 72
     1
  1
{\H0.92x;{4-M16}}
 11
1.000000000000000
 21
0.0000000000000000
 31
0.0000000000000000
  7
STANDARD
  0
POINT
  5
37A
100
AcDbEntity
  8
MAIN0
  6
CONTINUOUS
 62
3
100
AcDbPoint
 10
185.2941558856181
 20
359.1584771261112
 30
0.0000000000000000
  0
POINT
  5
37B
100
AcDbEntity
  8
MAIN0
  6
CONTINUOUS
 62
3
100
AcDbPoint
 10
185.2941558856181
 20
357.7151011261112
 30
0.0000000000000000
  0
POINT
  5
37C
100
AcDbEntity
  8
MAIN0
  6
CONTINUOUS
 62
3
100
AcDbPoint
 10
185.2941558856181
 20
339.2685197927779
 30
0.0000000000000000
  0
POINT
  5
37D
100
AcDbEntity
  8
MAIN0
  6
CONTINUOUS
 62
3
100
AcDbPoint
 10
185.2941558856181
 20
337.8251437927779
 30
0.0000000000000000
  0
POINT
  5
37E
100
AcDbEntity
  8
MAIN0
  6
CONTINUOUS
 62
3
100
AcDbPoint
 10
407.3355699211284
 20
92.91650135992154
 30
0.0000000000000000
  0
MTEXT
  5
37F
100
AcDbEntity
  8
MAIN0
  6
CONTINUOUS
 62
3
100
AcDbMText
 10
313.1781851495468
 20
101.9991196077457
 30
0.0000000000000000
 40
4.000000000000000
 41
0.0000000000000000
 71
     1
 72
     1
  1
{\H0.94x;{MOMENT OF INERTIA}}
 11
1.000000000000000
 21
0.0000000000000000
 31
0.0000000000000000
  7
STANDARD
  0
MTEXT
  5
380
100
AcDbEntity
  8
MAIN0
  6
CONTINUOUS
 62
3
100
AcDbMText
 10
407.3355699211284
 20
99.11650116918668
 30
0.0000000000000000
 40
6.199999809265137
 41
0.0000000000000000
 71
     1
 72
     1
  1
{\H0.84x;{0.400}}
 11
1.000000000000000
 21
0.0000000000000000
 31
0.0000000000000000
  7
STANDARD
  0
ARC
  5
381
100
AcDbEntity
  8
MAIN0
  6
CONTINUOUS
 62
3
100
AcDbCircle
 10
752.7886088899895
 20
325.1584771261112
 30
0.0000000000000000
 40
22.66666666666666
100
AcDbArc
 50
270.0000000000000
 51
450.0000000000000
  0
SPLINE
  5
382
100
AcDbEntity
  8
MAIN0
  6
CONTINUOUS
 62
3
100
AcDbSpline
210
0.0000000000000000
220
0.0000000000000000
230
1.000000000000000
 70
     8
 71
     3
 72
    13
 73
     9
 74
     0
 42
1.000000000000000e-007
 43
1.000000000000000e-007
 12
-0.001726297571490676
 22
-1.342973430160818
 32
0.0000000000000000
 13
-0.03172205317340016
 23
-1.333927026611956
 33
0.0000000000000000
 40
0.0000000000000000
 40
0.0000000000000000
 40
0.0000000000000000
 40
0.0000000000000000
 40
51.29677519955644
 40
86.10329133501907
 40
143.1580246172506
 40
218.9733009338187
 40
264.8191055894402
 40
301.7015292451388
 40
301.7015292451388
 40
301.7015292451388
 40
301.7015292451388
 10
201.3071385274309
 20
665.1584771261112
 30
0.0000000000000000
 10
201.2776206946135
 20
642.1950750774655
 30
0.0000000000000000
 10
201.2280740603704
 20
603.6502642400230
 30
0.0000000000000000
 10
220.0268225041685
 20
542.4135341670784
 30
0.0000000000000000
 10
224.9588973967400
 20
467.4301863571238
 30
0.0000000000000000
 10
217.9508796862845
 20
388.2454500963926
 30
0.0000000000000000
 10
208.5507064422136
 20
318.3424375692720
 30
0.0000000000000000
 10
207.6759366897364
 20
281.5579643665407
 30
0.0000000000000000
 10
207.2859412882798
 20
265.1584771261112
 30
0.0000000000000000
  0
LINE
  5
383
100
AcDbEntity
  8
MAIN0
  6
CONTINUOUS
 62
3
100
AcDbLine
 10
185.2941558856181
 20
327.8251437927779
 30
0.0000000000000000
 11
186.6274892189515
 21
327.8251437927779
 31
0.0000000000000000
  0
LINE
  5
384
100
AcDbEntity
  8
MAIN0
  6
CONTINUOUS
 62
3
100
AcDbLine
 10
185.2941558856185
 20
282.4918104594445
 30
0.0000000000000000
 11
207.7520215425788
 21
283.1156400610267
 31
0.0000000000000000
  0
POINT
  5
385
100
AcDbEntity
  8
MAIN0
  6
CONTINUOUS
 62
3
100
AcDbPoint
 10
176.9552213583402
 20
465.1584771261112
 30
0.0000000000000000
  0
LINE
  5
386
100
AcDbEntity
  8
MAIN0
  6
CONTINUOUS
 62
3
100
AcDbLine
 10
657.5648956902616
 20
354.8498192609512
 30
0.0000000000000000
 11
644.3655691081127
 21
341.6504926788024
 31
0.0000000000000000
  0
MTEXT
  5
387
100
AcDbEntity
  8
MAIN0
  6
CONTINUOUS
 62
3
100
AcDbMText
 10
597.7882255160420
 20
147.8808733290177
 30
0.0000000000000000
 40
6.199999809265137
 41
0.0000000000000000
 71
     1
 72
     1
  1
{\H0.94x;{バランスは本体外周にて５ｇ以内を目標とする}}
 11
1.000000000000000
 21
0.0000000000000000
 31
0.0000000000000000
  7
KNJYOKO
  0
MTEXT
  5
388
100
AcDbEntity
  8
MAIN0
  6
CONTINUOUS
 62
3
100
AcDbMText
 10
597.7882255161904
 20
70.40033178446413
 30
0.0000000000000000
 40
6.000000000000000
 41
0.0000000000000000
 71
     1
 72
     1
  1
{\H0.62x;{BALANCE SHOULD BE WITHIN 5g AT THE PERIPHERY OF THE BODY.}}
 11
1.000000000000000
 21
0.0000000000000000
 31
0.0000000000000000
  7
STANDARD
  0
LINE
  5
389
100
AcDbEntity
  8
MAIN0
  6
CONTINUOUS
 62
3
100
AcDbLine
 10
826.6364275201004
 20
593.0666510215950
 30
0.0000000000000000
 11
864.2575000128279
 21
658.2282600142312
 31
0.0000000000000000
  0
ARC
  5
38A
100
AcDbEntity
  8
MAIN0
  6
CONTINUOUS
 62
3
100
AcDbCircle
 10
752.7886088899896
 20
465.1584771261114
 30
0.0000000000000000
 40
220.9377822456769
100
AcDbArc
 50
60.00000000000006
 51
89.99999999999999
  0
LINE
  5
38B
100
AcDbEntity
  8
MAIN0
  6
CONTINUOUS
 62
3
100
AcDbLine
 10
859.1933983738483
 20
657.4569786808256
 30
0.0000000000000000
 11
863.2575000128279
 21
656.4962092066622
 31
0.0000000000000000
  0
LINE
  5
38C
100
AcDbEntity
  8
MAIN0
  6
CONTINUOUS
 62
3
100
AcDbLine
 10
863.2575000128279
 20
656.4962092066622
 30
0.0000000000000000
 11
860.3933984215320
 21
659.5354397324988
 31
0.0000000000000000
  0
LINE
  5
38D
100
AcDbEntity
  8
MAIN0
  6
CONTINUOUS
 62
3
100
AcDbLine
 10
756.7886088899898
 20
684.8962593241047
 30
0.0000000000000000
 11
752.7886088899898
 21
686.0962593717884
 31
0.0000000000000000
  0
LINE
  5
38E
100
AcDbEntity
  8
MAIN0
  6
CONTINUOUS
 62
3
100
AcDbLine
 10
752.7886088899898
 20
686.0962593717884
 30
0.0000000000000000
 11
756.7886088899898
 21
687.2962594194721
 31
0.0000000000000000
  0
MTEXT
  5
38F
100
AcDbEntity
  8
MAIN0
  6
CONTINUOUS
 62
3
100
AcDbMText
 10
810.2303337629868
 20
679.5339128265302
 30
0.0000000000000000
 40
6.199999809265137
 41
0.0000000000000000
 71
     8
 72
     1
  1
{\H0.57x;{30\U+00B0}}
 11
0.9659258262890683
 21
-0.2588190451025207
 31
0.0000000000000000
  7
STANDARD
  0
LINE
  5
390
100
AcDbEntity
  8
MAIN0
  6
CONTINUOUS
 62
3
100
AcDbLine
 10
882.7441517361503
 20
540.1883447710261
 30
0.0000000000000000
 11
963.6987062163711
 21
586.9274785923076
 31
0.0000000000000000
  0
ARC
  5
391
100
AcDbEntity
  8
MAIN0
  6
CONTINUOUS
 62
3
100
AcDbCircle
 10
752.7886088899895
 20
465.1584771261112
 30
0.0000000000000000
 40
241.5380029323931
100
AcDbArc
 50
29.99999999999999
 51
90.00000000000000
  0
LINE
  5
392
100
AcDbEntity
  8
MAIN0
  6
CONTINUOUS
 62
3
100
AcDbLine
 10
958.9274248829655
 20
588.7915801836036
 30
0.0000000000000000
 11
961.9666554088021
 21
585.9274785923077
 31
0.0000000000000000
  0
LINE
  5
393
100
AcDbEntity
  8
MAIN0
  6
CONTINUOUS
 62
3
100
AcDbLine
 10
961.9666554088021
 20
585.9274785923077
 30
0.0000000000000000
 11
961.0058859346387
 21
589.9915802312873
 31
0.0000000000000000
  0
LINE
  5
394
100
AcDbEntity
  8
MAIN0
  6
CONTINUOUS
 62
3
100
AcDbLine
 10
756.7886088899895
 20
705.4964800108205
 30
0.0000000000000000
 11
752.7886088899895
 21
706.6964800585042
 31
0.0000000000000000
  0
LINE
  5
395
100
AcDbEntity
  8
MAIN0
  6
CONTINUOUS
 62
3
100
AcDbLine
 10
752.7886088899895
 20
706.6964800585042
 30
0.0000000000000000
 11
756.7886088899895
 21
707.8964801061879
 31
0.0000000000000000
  0
MTEXT
  5
396
100
AcDbEntity
  8
MAIN0
  6
CONTINUOUS
 62
3
100
AcDbMText
 10
874.0576103561861
 20
675.2025490487082
 30
0.0000000000000000
 40
6.199999809265137
 41
0.0000000000000000
 71
     8
 72
     1
  1
{\H0.57x;{60\U+00B0}}
 11
0.8660254037844384
 21
-0.5000000000000004
 31
0.0000000000000000
  7
STANDARD
  0
LINE
  5
397
100
AcDbEntity
  8
MAIN0
  6
CONTINUOUS
 62
3
100
AcDbLine
 10
752.7886088899895
 20
687.7138425752821
 30
0.0000000000000000
 11
752.7886088899895
 21
708.6964800585042
 31
0.0000000000000000
  0
POINT
  5
398
100
AcDbEntity
  8
MAIN0
  6
CONTINUOUS
 62
3
100
AcDbPoint
 10
752.7886088899895
 20
465.1584771261111
 30
0.0000000000000000
  0
LINE
  5
399
100
AcDbEntity
  8
MAIN0
  6
DASHED
 62
3
100
AcDbLine
 10
221.1290284117747
 20
515.1584771261112
 30
0.0000000000000000
 11
318.6274892189513
 21
515.1584771261112
 31
0.0000000000000000
  0
LINE
  5
39A
100
AcDbEntity
  8
MAIN0
  6
DASHED
 62
3
100
AcDbLine
 10
219.9354642296075
 20
415.1584771261112
 30
0.0000000000000000
 11
318.6274892189514
 21
415.1584771261112
 31
0.0000000000000000
  0
POINT
  5
39B
100
AcDbEntity
  8
MAIN0
  6
CONTINUOUS
 62
3
100
AcDbPoint
 10
318.6274892189514
 20
348.4918104594445
 30
0.0000000000000000
  0
POINT
  5
39C
100
AcDbEntity
  8
MAIN0
  6
CONTINUOUS
 62
3
100
AcDbPoint
 10
293.2941558856181
 20
348.4918104594445
 30
0.0000000000000000
  0
LINE
  5
39D
100
AcDbEntity
  8
MAIN0
  6
PHANTOM
 62
3
100
AcDbLine
 10
318.6274892189516
 20
330.4918104594445
 30
0.0000000000000000
 11
317.2941558856182
 21
331.8251437927779
 31
0.0000000000000000
  0
LINE
  5
39E
100
AcDbEntity
  8
MAIN0
  6
PHANTOM
 62
3
100
AcDbLine
 10
317.2941558856181
 20
331.8251437927779
 30
0.0000000000000000
 11
293.2941558856181
 21
331.8251437927779
 31
0.0000000000000000
  0
LINE
  5
39F
100
AcDbEntity
  8
MAIN0
  6
PHANTOM
 62
3
100
AcDbLine
 10
293.2941558856181
 20
331.8251437927779
 30
0.0000000000000000
 11
293.2941558856181
 21
365.1584771261112
 31
0.0000000000000000
  0
LINE
  5
3A0
100
AcDbEntity
  8
MAIN0
  6
PHANTOM
 62
3
100
AcDbLine
 10
293.2941558856181
 20
365.1584771261112
 30
0.0000000000000000
 11
317.2941558856181
 21
365.1584771261112
 31
0.0000000000000000
  0
LINE
  5
3A1
100
AcDbEntity
  8
MAIN0
  6
PHANTOM
 62
3
100
AcDbLine
 10
317.2941558856182
 20
365.1584771261112
 30
0.0000000000000000
 11
318.6274892189515
 21
366.4918104594445
 31
0.0000000000000000
  0
LINE
  5
3A2
100
AcDbEntity
  8
MAIN0
  6
PHANTOM
 62
3
100
AcDbLine
 10
293.2941558856181
 20
337.1584771261112
 30
0.0000000000000000
 11
186.0941558856182
 21
337.1584771261112
 31
0.0000000000000000
  0
LINE
  5
3A3
100
AcDbEntity
  8
MAIN0
  6
PHANTOM
 62
3
100
AcDbLine
 10
186.0941558856180
 20
337.1584771261112
 30
0.0000000000000000
 11
185.2941558856180
 21
336.3584771261112
 31
0.0000000000000000
  0
LINE
  5
3A4
100
AcDbEntity
  8
MAIN0
  6
PHANTOM
 62
3
100
AcDbLine
 10
293.2941558856181
 20
359.8251437927779
 30
0.0000000000000000
 11
186.0941558856182
 21
359.8251437927779
 31
0.0000000000000000
  0
LINE
  5
3A5
100
AcDbEntity
  8
MAIN0
  6
HIDDEN
 62
3
100
AcDbLine
 10
186.0941558856180
 20
359.8251437927778
 30
0.0000000000000000
 11
185.2941558856180
 21
360.6251437927778
 31
0.0000000000000000
  0
POINT
  5
3A6
100
AcDbEntity
  8
MAIN0
  6
CONTINUOUS
 62
3
100
AcDbPoint
 10
695.6552755566563
 20
564.1163132652131
 30
0.0000000000000000
  0
CIRCLE
  5
3A7
100
AcDbEntity
  8
MAIN0
  6
CONTINUOUS
 62
3
100
AcDbCircle
 10
695.6552755566563
 20
564.1163132652131
 30
0.0000000000000000
 40
16.66666666666666
  0
CIRCLE
  5
3A8
100
AcDbEntity
  8
MAIN0
  6
CONTINUOUS
 62
3
100
AcDbCircle
 10
695.6552755566563
 20
564.1163132652131
 30
0.0000000000000000
 40
11.33333333333333
  0
POINT
  5
3A9
100
AcDbEntity
  8
MAIN0
  6
CONTINUOUS
 62
3
100
AcDbPoint
 10
653.8307727508876
 20
408.0251437927779
 30
0.0000000000000000
  0
CIRCLE
  5
3AA
100
AcDbEntity
  8
MAIN0
  6
CONTINUOUS
 62
3
100
AcDbCircle
 10
653.8307727508876
 20
408.0251437927779
 30
0.0000000000000000
 40
16.66666666666666
  0
CIRCLE
  5
3AB
100
AcDbEntity
  8
MAIN0
  6
CONTINUOUS
 62
3
100
AcDbCircle
 10
653.8307727508876
 20
408.0251437927779
 30
0.0000000000000000
 40
11.33333333333333
  0
CIRCLE
  5
3AC
100
AcDbEntity
  8
MAIN0
  6
CONTINUOUS
 62
3
100
AcDbCircle
 10
851.7464450290918
 20
522.2918104594447
 30
0.0000000000000000
 40
9.666666666666661
  0
CIRCLE
  5
3AD
100
AcDbEntity
  8
MAIN0
  6
CONTINUOUS
 62
3
100
AcDbCircle
 10
851.7464450290918
 20
522.2918104594447
 30
0.0000000000000000
 40
16.14000000000000
  0
POINT
  5
3AE
100
AcDbEntity
  8
MAIN0
  6
CONTINUOUS
 62
3
100
AcDbPoint
 10
782.4552755566565
 20
746.7395271261109
 30
0.0000000000000000
  0
POINT
  5
3AF
100
AcDbEntity
  8
MAIN0
  6
CONTINUOUS
 62
3
100
AcDbPoint
 10
763.1219422233231
 20
746.7395271261109
 30
0.0000000000000000
  0
LINE
  5
3B0
100
AcDbEntity
  8
MAIN0
  6
CONTINUOUS
 62
3
100
AcDbLine
 10
740.5086088899900
 20
757.4061937927776
 30
0.0000000000000000
 11
805.0686088899895
 21
757.4061937927776
 31
0.0000000000000000
  0
LINE
  5
3B1
100
AcDbEntity
  8
MAIN0
  6
CENTER
 62
12
100
AcDbLine
 10
772.7886088899896
 20
734.4918104594444
 30
0.0000000000000000
 11
772.7886088899896
 21
764.0728604594442
 31
0.0000000000000000
  0
LINE
  5
3B2
100
AcDbEntity
  8
MAIN0
  6
CONTINUOUS
 62
3
100
AcDbLine
 10
788.9286088899897
 20
756.8728604594442
 30
0.0000000000000000
 11
788.9286088899897
 21
746.7395271261109
 31
0.0000000000000000
  0
LINE
  5
3B3
100
AcDbEntity
  8
MAIN0
  6
CONTINUOUS
 62
3
100
AcDbLine
 10
788.9286088899897
 20
746.7395271261109
 30
0.0000000000000000
 11
756.6486088899898
 21
746.7395271261109
 31
0.0000000000000000
  0
LINE
  5
3B4
100
AcDbEntity
  8
MAIN0
  6
CONTINUOUS
 62
3
100
AcDbLine
 10
756.6486088899898
 20
746.7395271261109
 30
0.0000000000000000
 11
756.6486088899898
 21
756.8728604594442
 31
0.0000000000000000
  0
LINE
  5
3B5
100
AcDbEntity
  8
MAIN0
  6
CONTINUOUS
 62
3
100
AcDbLine
 10
782.4552755566564
 20
746.7395271261109
 30
0.0000000000000000
 11
772.7886088899896
 21
741.1584771261109
 31
0.0000000000000000
  0
LINE
  5
3B6
100
AcDbEntity
  8
MAIN0
  6
CONTINUOUS
 62
3
100
AcDbLine
 10
772.7886088899898
 20
741.1584771261109
 30
0.0000000000000000
 11
763.1219422233232
 21
746.7395271261109
 31
0.0000000000000000
  0
LINE
  5
3B7
100
AcDbEntity
  8
MAIN0
  6
CONTINUOUS
 62
3
100
AcDbLine
 10
789.4619422233230
 20
757.4061937927775
 30
0.0000000000000000
 11
788.9286088899897
 21
756.8728604594442
 31
0.0000000000000000
  0
LINE
  5
3B8
100
AcDbEntity
  8
MAIN0
  6
CONTINUOUS
 62
3
100
AcDbLine
 10
756.1152755566565
 20
757.4061937927775
 30
0.0000000000000000
 11
756.6486088899898
 21
756.8728604594442
 31
0.0000000000000000
  0
LINE
  5
3B9
100
AcDbEntity
  8
MAIN0
  6
PHANTOM
 62
3
100
AcDbLine
 10
293.2941558856181
 20
332.4918104594445
 30
0.0000000000000000
 11
312.4941558856181
 21
332.4918104594445
 31
0.0000000000000000
  0
LINE
  5
3BA
100
AcDbEntity
  8
MAIN0
  6
PHANTOM
 62
3
100
AcDbLine
 10
312.4941558856181
 20
332.4918104594445
 30
0.0000000000000000
 11
314.6274892189514
 21
336.1868521822580
 31
0.0000000000000000
  0
LINE
  5
3BB
100
AcDbEntity
  8
MAIN0
  6
PHANTOM
 62
3
100
AcDbLine
 10
314.6274892189514
 20
336.1868521822581
 30
0.0000000000000000
 11
314.6274892189514
 21
360.7967687366309
 31
0.0000000000000000
  0
LINE
  5
3BC
100
AcDbEntity
  8
MAIN0
  6
PHANTOM
 62
3
100
AcDbLine
 10
314.6274892189513
 20
360.7967687366309
 30
0.0000000000000000
 11
312.4941558856180
 21
364.4918104594445
 31
0.0000000000000000
  0
LINE
  5
3BD
100
AcDbEntity
  8
MAIN0
  6
PHANTOM
 62
3
100
AcDbLine
 10
312.4941558856181
 20
364.4918104594445
 30
0.0000000000000000
 11
293.2941558856181
 21
364.4918104594445
 31
0.0000000000000000
  0
LINE
  5
3BE
100
AcDbEntity
  8
MAIN0
  6
PHANTOM
 62
3
100
AcDbLine
 10
312.4941558856181
 20
332.4918104594445
 30
0.0000000000000000
 11
312.4941558856181
 21
364.4918104594445
 31
0.0000000000000000
  0
LINE
  5
3BF
100
AcDbEntity
  8
MAIN0
  6
PHANTOM
 62
3
100
AcDbLine
 10
153.2941558856181
 20
337.8251437927779
 30
0.0000000000000000
 11
153.2941558856181
 21
359.1584771261112
 31
0.0000000000000000
  0
LINE
  5
3C0
100
AcDbEntity
  8
MAIN0
  6
PHANTOM
 62
3
100
AcDbLine
 10
211.9608225522848
 20
337.8251437927779
 30
0.0000000000000000
 11
211.9608225522848
 21
359.1584771261112
 31
0.0000000000000000
  0
LINE
  5
3C1
100
AcDbEntity
  8
MAIN0
  6
PHANTOM
 62
3
100
AcDbLine
 10
153.2941558856181
 20
359.1584771261112
 30
0.0000000000000000
 11
185.2941558856181
 21
359.1584771261112
 31
0.0000000000000000
  0
LINE
  5
3C2
100
AcDbEntity
  8
MAIN0
  6
PHANTOM
 62
3
100
AcDbLine
 10
185.2941558856181
 20
359.1584771261112
 30
0.0000000000000000
 11
293.2941558856181
 21
359.1584771261112
 31
0.0000000000000000
  0
LINE
  5
3C3
100
AcDbEntity
  8
MAIN0
  6
PHANTOM
 62
3
100
AcDbLine
 10
153.2941558856181
 20
357.7151011261112
 30
0.0000000000000000
 11
185.2941558856181
 21
357.7151011261112
 31
0.0000000000000000
  0
LINE
  5
3C4
100
AcDbEntity
  8
MAIN0
  6
PHANTOM
 62
3
100
AcDbLine
 10
185.2941558856181
 20
357.7151011261112
 30
0.0000000000000000
 11
211.9608225522848
 21
357.7151011261112
 31
0.0000000000000000
  0
LINE
  5
3C5
100
AcDbEntity
  8
MAIN0
  6
PHANTOM
 62
3
100
AcDbLine
 10
153.2941558856181
 20
339.2685197927779
 30
0.0000000000000000
 11
185.2941558856181
 21
339.2685197927779
 31
0.0000000000000000
  0
LINE
  5
3C6
100
AcDbEntity
  8
MAIN0
  6
PHANTOM
 62
3
100
AcDbLine
 10
185.2941558856181
 20
339.2685197927779
 30
0.0000000000000000
 11
211.9608225522848
 21
339.2685197927779
 31
0.0000000000000000
  0
LINE
  5
3C7
100
AcDbEntity
  8
MAIN0
  6
PHANTOM
 62
3
100
AcDbLine
 10
153.2941558856181
 20
337.8251437927779
 30
0.0000000000000000
 11
185.2941558856181
 21
337.8251437927779
 31
0.0000000000000000
  0
LINE
  5
3C8
100
AcDbEntity
  8
MAIN0
  6
PHANTOM
 62
3
100
AcDbLine
 10
185.2941558856181
 20
337.8251437927779
 30
0.0000000000000000
 11
293.2941558856181
 21
337.8251437927779
 31
0.0000000000000000
  0
MTEXT
  5
3C9
100
AcDbEntity
  8
MAIN0
  6
CONTINUOUS
 62
3
100
AcDbMText
 10
433.3355699211284
 20
134.1831665007094
 30
0.0000000000000000
 40
5.599998474121094
 41
0.0000000000000000
 71
     1
 72
     1
  1
{\H0.57x;{　ｍｉｎ}}
 11
1.000000000000000
 21
0.0000000000000000
 31
0.0000000000000000
  7
KNJYOKO
  0
MTEXT
  5
3CA
100
AcDbEntity
  8
MAIN0
  6
CONTINUOUS
 62
3
100
AcDbMText
 10
453.6449064177682
 20
135.5222556064989
 30
0.0000000000000000
 40
4.000000000000000
 41
0.0000000000000000
 71
     1
 72
     1
  1
{\H0.88x;{-1}}
 11
1.000000000000000
 21
0.0000000000000000
 31
0.0000000000000000
  7
STANDARD
  0
POINT
  5
3CB
100
AcDbEntity
  8
MAIN0
  6
CONTINUOUS
 62
3
100
AcDbPoint
 10
310.2663343468580
 20
75.91650135991563
 30
0.0000000000000000
  0
MTEXT
  5
3CC
100
AcDbEntity
  8
MAIN0
  6
CONTINUOUS
 62
3
100
AcDbMText
 10
310.2663343468580
 20
82.11650212285508
 30
0.0000000000000000
 40
6.200000762939453
 41
0.0000000000000000
 71
     1
 72
     1
  1
{\H0.95x;{○上記仕様は許容最大ハンドルトルク時の場合}}
 11
1.000000000000000
 21
0.0000000000000000
 31
0.0000000000000000
  7
KNJYOKO
  0
LINE
  5
3CD
100
AcDbEntity
  8
MAIN0
  6
CONTINUOUS
 62
3
100
AcDbLine
 10
362.6274892189515
 20
562.4918104594445
 30
0.0000000000000000
 11
360.0661797163232
 21
561.1584771261112
 31
0.0000000000000000
  0
LINE
  5
3CE
100
AcDbEntity
  8
MAIN0
  6
CONTINUOUS
 62
3
100
AcDbLine
 10
360.0661797163231
 20
561.1584771261112
 30
0.0000000000000000
 11
358.6274892189514
 21
561.1584771261112
 31
0.0000000000000000
  0
LINE
  5
3CF
100
AcDbEntity
  8
MAIN0
  6
CONTINUOUS
 62
3
100
AcDbLine
 10
357.2941558856180
 20
562.4918104594445
 30
0.0000000000000000
 11
357.2941558856180
 21
563.9305009568163
 31
0.0000000000000000
  0
LINE
  5
3D0
100
AcDbEntity
  8
MAIN0
  6
CONTINUOUS
 62
3
100
AcDbLine
 10
357.2941558856180
 20
563.9305009568162
 30
0.0000000000000000
 11
358.6274892189514
 21
566.4918104594445
 31
0.0000000000000000
  0
ARC
  5
3D1
100
AcDbEntity
  8
MAIN0
  6
CONTINUOUS
 62
3
100
AcDbCircle
 10
358.6274892189514
 20
562.4918104594445
 30
0.0000000000000000
 40
1.333333333333333
100
AcDbArc
 50
180.0000000000000
 51
270.0000000000000
  0
LINE
  5
3D2
100
AcDbEntity
  8
MAIN0
  6
CONTINUOUS
 62
3
100
AcDbLine
 10
309.3355699211283
 20
187.2498346933211
 30
0.0000000000000000
 11
463.3355699211284
 21
187.2498346933668
 31
0.0000000000000000
  0
LINE
  5
3D3
100
AcDbEntity
  8
MAIN0
  6
CONTINUOUS
 62
3
100
AcDbLine
 10
309.3355699211286
 20
167.2498346933080
 30
0.0000000000000000
 11
463.3355699211285
 21
167.2498346933443
 31
0.0000000000000000
  0
LINE
  5
3D4
100
AcDbEntity
  8
MAIN0
  6
CONTINUOUS
 62
3
100
AcDbLine
 10
309.3355699211282
 20
140.5831680266355
 30
0.0000000000000000
 11
463.3355699211282
 21
140.5831680266679
 31
0.0000000000000000
  0
LINE
  5
3D5
100
AcDbEntity
  8
MAIN0
  6
CONTINUOUS
 62
3
100
AcDbLine
 10
309.3355699211284
 20
119.9165013599649
 30
0.0000000000000000
 11
463.3355699211285
 21
119.9165013599944
 31
0.0000000000000000
  0
LINE
  5
3D6
100
AcDbEntity
  8
MAIN0
  6
CONTINUOUS
 62
3
100
AcDbLine
 10
309.3355699211284
 20
105.9165013599610
 30
0.0000000000000000
 11
463.3355699211285
 21
105.9165013599878
 31
0.0000000000000000
  0
LINE
  5
3D7
100
AcDbEntity
  8
MAIN0
  6
CONTINUOUS
 62
3
100
AcDbLine
 10
309.3355699211285
 20
85.91650135991506
 30
0.0000000000000000
 11
463.3355699211285
 21
85.91650135991512
 31
0.0000000000000000
  0
LINE
  5
3D8
100
AcDbEntity
  8
MAIN0
  6
CONTINUOUS
 62
3
100
AcDbLine
 10
309.3355699211284
 20
85.91650135991506
 30
0.0000000000000000
 11
309.3355699211284
 21
207.9165013599919
 31
0.0000000000000000
  0
LINE
  5
3D9
100
AcDbEntity
  8
MAIN0
  6
CONTINUOUS
 62
3
100
AcDbLine
 10
403.3355699211284
 20
85.91650135991506
 30
0.0000000000000000
 11
403.3355699211284
 21
187.2498346933494
 31
0.0000000000000000
  0
LINE
  5
3DA
100
AcDbEntity
  8
MAIN0
  6
CONTINUOUS
 62
3
100
AcDbLine
 10
463.3355699211284
 20
85.91650135991517
 30
0.0000000000000000
 11
463.3355699211284
 21
207.9165013600403
 31
0.0000000000000000
  0
POINT
  5
3DB
100
AcDbEntity
  8
MAIN0
  6
CONTINUOUS
 62
3
100
AcDbPoint
 10
413.3355699211284
 20
169.2498346932553
 30
0.0000000000000000
  0
POINT
  5
3DC
100
AcDbEntity
  8
MAIN0
  6
CONTINUOUS
 62
3
100
AcDbPoint
 10
413.3355699211284
 20
145.9165013599216
 30
0.0000000000000000
  0
POINT
  5
3DD
100
AcDbEntity
  8
MAIN0
  6
CONTINUOUS
 62
3
100
AcDbPoint
 10
407.3355699211284
 20
178.2498346932553
 30
0.0000000000000000
  0
POINT
  5
3DE
100
AcDbEntity
  8
MAIN0
  6
CONTINUOUS
 62
3
100
AcDbPoint
 10
407.3355699211284
 20
154.9165013599216
 30
0.0000000000000000
  0
POINT
  5
3DF
100
AcDbEntity
  8
MAIN0
  6
CONTINUOUS
 62
3
100
AcDbPoint
 10
407.3355699211284
 20
130.5831680265883
 30
0.0000000000000000
  0
POINT
  5
3E0
100
AcDbEntity
  8
MAIN0
  6
CONTINUOUS
 62
3
100
AcDbPoint
 10
407.3355699211284
 20
109.9165013599215
 30
0.0000000000000000
  0
POINT
  5
3E1
100
AcDbEntity
  8
MAIN0
  6
CONTINUOUS
 62
3
100
AcDbPoint
 10
407.3355699211284
 20
96.91650135992154
 30
0.0000000000000000
  0
POINT
  5
3E2
100
AcDbEntity
  8
MAIN0
  6
CONTINUOUS
 62
3
100
AcDbPoint
 10
413.3355699211284
 20
87.91650135992154
 30
0.0000000000000000
  0
MTEXT
  5
3E3
100
AcDbEntity
  8
MAIN0
  6
CONTINUOUS
 62
3
100
AcDbMText
 10
313.3355699211284
 20
175.4498354562484
 30
0.0000000000000000
 40
6.200000762939453
 41
0.0000000000000000
 71
     1
 72
     1
  1
{\H0.94x;{許容最大ハンドルトルク}}
 11
1.000000000000000
 21
0.0000000000000000
 31
0.0000000000000000
  7
KNJYOKO
  0
MTEXT
  5
3E4
100
AcDbEntity
  8
MAIN0
  6
CONTINUOUS
 62
3
100
AcDbMText
 10
313.3355699211284
 20
155.4498354562425
 30
0.0000000000000000
 40
6.200000762939453
 41
0.0000000000000000
 71
     1
 72
     1
  1
{\H0.94x;{最大静的把握力\P(ジョー1ヶの締付力)}}
 11
1.000000000000000
 21
0.0000000000000000
 31
0.0000000000000000
  7
KNJYOKO
  0
MTEXT
  5
3E5
100
AcDbEntity
  8
MAIN0
  6
CONTINUOUS
 62
3
100
AcDbMText
 10
313.3355699211284
 20
113.5165021229011
 30
0.0000000000000000
 40
6.200000762939453
 41
0.0000000000000000
 71
     1
 72
     1
  1
{\H0.90x;{質量}}
 11
1.000000000000000
 21
0.0000000000000000
 31
0.0000000000000000
  7
KNJYOKO
  0
MTEXT
  5
3E6
100
AcDbEntity
  8
MAIN0
  6
CONTINUOUS
 62
3
100
AcDbMText
 10
312.9093560890065
 20
95.26546456663073
 30
0.0000000000000000
 40
5.599999904632568
 41
0.0000000000000000
 71
     1
 72
     1
  1
{\H0.93x;{慣性モーメント}}
 11
1.000000000000000
 21
0.0000000000000000
 31
0.0000000000000000
  7
KNJYOKO
  0
POINT
  5
3E7
100
AcDbEntity
  8
MAIN0
  6
CONTINUOUS
 62
3
100
AcDbPoint
 10
358.2123245151569
 20
189.3510713360536
 30
0.0000000000000000
  0
MTEXT
  5
3E8
100
AcDbEntity
  8
MAIN0
  6
CONTINUOUS
 62
3
100
AcDbMText
 10
358.2123245151569
 20
199.9510717175234
 30
0.0000000000000000
 40
10.60000038146973
 41
0.0000000000000000
 71
     1
 72
     1
  1
{\H0.93x;{仕　　　様}}
 11
1.000000000000000
 21
0.0000000000000000
 31
0.0000000000000000
  7
KNJYOKO
  0
MTEXT
  5
3E9
100
AcDbEntity
  8
MAIN0
  6
CONTINUOUS
 62
3
100
AcDbMText
 10
433.3355699211284
 20
181.8498331673764
 30
0.0000000000000000
 40
5.599998474121094
 41
0.0000000000000000
 71
     1
 72
     1
  1
{\H0.58x;{　　　Ｎ・ｍ}}
 11
1.000000000000000
 21
0.0000000000000000
 31
0.0000000000000000
  7
KNJYOKO
  0
MTEXT
  5
3EA
100
AcDbEntity
  8
MAIN0
  6
CONTINUOUS
 62
3
100
AcDbMText
 10
407.3355699211284
 20
173.8498331673764
 30
0.0000000000000000
 40
5.599998474121094
 41
0.0000000000000000
 71
     1
 72
     1
  1
{\H0.48x;{（}}
 11
1.000000000000000
 21
0.0000000000000000
 31
0.0000000000000000
  7
KNJYOKO
  0
MTEXT
  5
3EB
100
AcDbEntity
  8
MAIN0
  6
CONTINUOUS
 62
3
100
AcDbMText
 10
431.3355699211284
 20
173.8498331673764
 30
0.0000000000000000
 40
5.599998474121094
 41
0.0000000000000000
 71
     1
 72
     1
  1
{\H0.58x;{　ｋｇｆ・ｍ）}}
 11
1.000000000000000
 21
0.0000000000000000
 31
0.0000000000000000
  7
KNJYOKO
  0
MTEXT
  5
3EC
100
AcDbEntity
  8
MAIN0
  6
CONTINUOUS
 62
3
100
AcDbMText
 10
433.3355699211284
 20
113.5164998340426
 30
0.0000000000000000
 40
5.599998474121094
 41
0.0000000000000000
 71
     1
 72
     1
  1
{\H0.58x;{　　　　ｋｇ}}
 11
1.000000000000000
 21
0.0000000000000000
 31
0.0000000000000000
  7
KNJYOKO
  0
MTEXT
  5
3ED
100
AcDbEntity
  8
MAIN0
  6
CONTINUOUS
 62
3
100
AcDbMText
 10
435.6677155031260
 20
93.05852438250508
 30
0.0000000000000000
 40
5.599998474121094
 41
0.0000000000000000
 71
     7
 72
     1
  1
{　kg・m}
 11
1.000000000000000
 21
0.0000000000000000
 31
0.0000000000000000
  7
KNJYOKO
  0
MTEXT
  5
3EE
100
AcDbEntity
  8
MAIN0
  6
CONTINUOUS
 62
3
100
AcDbMText
 10
455.2677149309214
 20
95.85852361956563
 30
0.0000000000000000
 40
2.799999237060547
 41
0.0000000000000000
 71
     7
 72
     1
  1
{2}
 11
1.000000000000000
 21
0.0000000000000000
 31
0.0000000000000000
  7
STANDARD
  0
MTEXT
  5
3EF
100
AcDbEntity
  8
MAIN0
  6
CONTINUOUS
 62
3
100
AcDbMText
 10
433.3355699211284
 20
158.5164998340427
 30
0.0000000000000000
 40
5.599998474121094
 41
0.0000000000000000
 71
     1
 72
     1
  1
{\H0.58x;{　　　　ｋＮ}}
 11
1.000000000000000
 21
0.0000000000000000
 31
0.0000000000000000
  7
KNJYOKO
  0
MTEXT
  5
3F0
100
AcDbEntity
  8
MAIN0
  6
CONTINUOUS
 62
3
100
AcDbMText
 10
407.3355699211284
 20
150.5164998340427
 30
0.0000000000000000
 40
5.599998474121094
 41
0.0000000000000000
 71
     1
 72
     1
  1
{\H0.48x;{（}}
 11
1.000000000000000
 21
0.0000000000000000
 31
0.0000000000000000
  7
KNJYOKO
  0
MTEXT
  5
3F1
100
AcDbEntity
  8
MAIN0
  6
CONTINUOUS
 62
3
100
AcDbMText
 10
431.3355699211284
 20
150.5164998340427
 30
0.0000000000000000
 40
5.599998474121094
 41
0.0000000000000000
 71
     1
 72
     1
  1
{\H0.58x;{　　　ｋｇｆ）}}
 11
1.000000000000000
 21
0.0000000000000000
 31
0.0000000000000000
  7
KNJYOKO
  0
MTEXT
  5
3F2
100
AcDbEntity
  8
MAIN0
  6
CONTINUOUS
 62
3
100
AcDbMText
 10
407.3355699211284
 20
136.7831678358534
 30
0.0000000000000000
 40
6.199999809265137
 41
0.0000000000000000
 71
     1
 72
     1
  1
{\H0.91x;{2000}}
 11
1.000000000000000
 21
0.0000000000000000
 31
0.0000000000000000
  7
STANDARD
  0
MTEXT
  5
3F3
100
AcDbEntity
  8
MAIN0
  6
CONTINUOUS
 62
3
100
AcDbMText
 10
407.3355699211284
 20
116.1165011691867
 30
0.0000000000000000
 40
6.199999809265137
 41
0.0000000000000000
 71
     1
 72
     1
  1
{\H0.91x;{39.1}}
 11
1.000000000000000
 21
0.0000000000000000
 31
0.0000000000000000
  7
STANDARD
  0
MTEXT
  5
3F4
100
AcDbEntity
  8
MAIN0
  6
CONTINUOUS
 62
3
100
AcDbMText
 10
407.3355699211284
 20
184.4498345025204
 30
0.0000000000000000
 40
6.199999809265137
 41
0.0000000000000000
 71
     1
 72
     1
  1
{\H0.90x;{147}}
 11
1.000000000000000
 21
0.0000000000000000
 31
0.0000000000000000
  7
STANDARD
  0
MTEXT
  5
3F5
100
AcDbEntity
  8
MAIN0
  6
CONTINUOUS
 62
3
100
AcDbMText
 10
413.3355699211284
 20
175.4498345025204
 30
0.0000000000000000
 40
6.199999809265137
 41
0.0000000000000000
 71
     1
 72
     1
  1
{\H0.88x;{15}}
 11
1.000000000000000
 21
0.0000000000000000
 31
0.0000000000000000
  7
STANDARD
  0
MTEXT
  5
3F6
100
AcDbEntity
  8
MAIN0
  6
CONTINUOUS
 62
3
100
AcDbMText
 10
407.3355699211284
 20
161.1165011691867
 30
0.0000000000000000
 40
6.199999809265137
 41
0.0000000000000000
 71
     1
 72
     1
  1
{\H0.88x;{16}}
 11
1.000000000000000
 21
0.0000000000000000
 31
0.0000000000000000
  7
STANDARD
  0
MTEXT
  5
3F7
100
AcDbEntity
  8
MAIN0
  6
CONTINUOUS
 62
3
100
AcDbMText
 10
413.3355699211284
 20
152.1165011691867
 30
0.0000000000000000
 40
6.199999809265137
 41
0.0000000000000000
 71
     1
 72
     1
  1
{\H0.91x;{1632}}
 11
1.000000000000000
 21
0.0000000000000000
 31
0.0000000000000000
  7
STANDARD
  0
LINE
  5
3F8
100
AcDbEntity
  8
MAIN0
  6
CONTINUOUS
 62
3
100
AcDbLine
 10
309.3355699211263
 20
207.9165013599919
 30
0.0000000000000000
 11
463.3355699211263
 21
207.9165013600403
 31
0.0000000000000000
  0
MTEXT
  5
3F9
100
AcDbEntity
  8
MAIN0
  6
CONTINUOUS
 62
3
100
AcDbMText
 10
350.0895575553386
 20
206.1322642009957
 30
0.0000000000000000
 40
6.199999809265137
 41
0.0000000000000000
 71
     1
 72
     1
  1
{\H0.93x;{SPECIFICATIONS}}
 11
1.000000000000000
 21
0.0000000000000000
 31
0.0000000000000000
  7
STANDARD
  0
MTEXT
  5
3FA
100
AcDbEntity
  8
MAIN0
  6
CONTINUOUS
 62
3
100
AcDbMText
 10
313.3355699211284
 20
185.2498346933089
 30
0.0000000000000000
 40
4.000000000000000
 41
0.0000000000000000
 71
     1
 72
     1
  1
{\H0.94x;{MAX.PERMISSIBLE\P      HANDLE TORQUE}}
 11
1.000000000000000
 21
0.0000000000000000
 31
0.0000000000000000
  7
STANDARD
  0
MTEXT
  5
3FB
100
AcDbEntity
  8
MAIN0
  6
CONTINUOUS
 62
3
100
AcDbMText
 10
313.3355699211284
 20
165.2498346933030
 30
0.0000000000000000
 40
4.000000000000000
 41
0.0000000000000000
 71
     1
 72
     1
  1
{\H0.94x;{MAX STATIC GRIPPING FORCE\P(GRIPPING FORCE PER JAW)}}
 11
1.000000000000000
 21
0.0000000000000000
 31
0.0000000000000000
  7
STANDARD
  0
MTEXT
  5
3FC
100
AcDbEntity
  8
MAIN0
  6
CONTINUOUS
 62
3
100
AcDbMText
 10
313.3355699211284
 20
133.2498346932990
 30
0.0000000000000000
 40
4.000000000000000
 41
0.0000000000000000
 71
     1
 72
     1
  1
{\H0.94x;{MAX PERMISSIBLE SPEED}}
 11
1.000000000000000
 21
0.0000000000000000
 31
0.0000000000000000
  7
STANDARD
  0
MTEXT
  5
3FD
100
AcDbEntity
  8
MAIN0
  6
CONTINUOUS
 62
3
100
AcDbMText
 10
313.3355699211283
 20
118.6498346932950
 30
0.0000000000000000
 40
4.000000000000000
 41
0.0000000000000000
 71
     1
 72
     1
  1
{\H0.91x;{MASS}}
 11
1.000000000000000
 21
0.0000000000000000
 31
0.0000000000000000
  7
STANDARD
  0
POINT
  5
3FE
100
AcDbEntity
  8
MAIN0
  6
CONTINUOUS
 62
3
100
AcDbPoint
 10
309.3355699211284
 20
201.2498346933251
 30
0.0000000000000000
  0
MTEXT
  5
3FF
100
AcDbEntity
  8
MAIN0
  6
CONTINUOUS
 62
3
100
AcDbMText
 10
313.3355699211284
 20
128.1165011692307
 30
0.0000000000000000
 40
6.199999809265137
 41
0.0000000000000000
 71
     1
 72
     1
  1
{\H0.94x;{許容最高回転速度　}}
 11
1.000000000000000
 21
0.0000000000000000
 31
0.0000000000000000
  7
KNJYOKO
  0
LINE
  5
400
100
AcDbEntity
  8
WAKU0
  6
CONTINUOUS
 62
3
100
AcDbLine
 10
824.0000000000000
 20
102.0000000000000
 30
0.0000000000000000
 11
1164.000000000000
 21
102.0000000000000
 31
0.0000000000000000
  0
LINE
  5
401
100
AcDbEntity
  8
WAKU0
  6
CONTINUOUS
 62
3
100
AcDbLine
 10
824.0000000000000
 20
102.0000000000000
 30
0.0000000000000000
 11
824.0000000000000
 21
24.00000000000000
 31
0.0000000000000000
  0
LINE
  5
402
100
AcDbEntity
  8
WAKU0
  6
CONTINUOUS
 62
3
100
AcDbLine
 10
968.0000000000000
 20
102.0000000000000
 30
0.0000000000000000
 11
968.0000000000000
 21
24.00000000000000
 31
0.0000000000000000
  0
LINE
  5
403
100
AcDbEntity
  8
WAKU0
  6
CONTINUOUS
 62
3
100
AcDbLine
 10
1008.000000000000
 20
102.0000000000000
 30
0.0000000000000000
 11
1008.000000000000
 21
24.00000000000000
 31
0.0000000000000000
  0
LINE
  5
404
100
AcDbEntity
  8
WAKU0
  6
CONTINUOUS
 62
3
100
AcDbLine
 10
1032.000000000000
 20
102.0000000000000
 30
0.0000000000000000
 11
1032.000000000000
 21
24.00000000000000
 31
0.0000000000000000
  0
LINE
  5
405
100
AcDbEntity
  8
WAKU0
  6
CONTINUOUS
 62
3
100
AcDbLine
 10
1032.000000000000
 20
74.00000000000000
 30
0.0000000000000000
 11
1164.000000000000
 21
74.00000000000000
 31
0.0000000000000000
  0
LINE
  5
406
100
AcDbEntity
  8
WAKU0
  6
CONTINUOUS
 62
3
100
AcDbLine
 10
1008.000000000000
 20
46.00000000000000
 30
0.0000000000000000
 11
1164.000000000000
 21
46.00000000000000
 31
0.0000000000000000
  0
LINE
  5
407
100
AcDbEntity
  8
WAKU0
  6
CONTINUOUS
 62
3
100
AcDbLine
 10
1094.000000000000
 20
102.0000000000000
 30
0.0000000000000000
 11
1094.000000000000
 21
88.00000000000000
 31
0.0000000000000000
  0
LINE
  5
408
100
AcDbEntity
  8
WAKU0
  6
CONTINUOUS
 62
3
100
AcDbLine
 10
1118.000000000000
 20
102.0000000000000
 30
0.0000000000000000
 11
1118.000000000000
 21
88.00000000000000
 31
0.0000000000000000
  0
LINE
  5
409
100
AcDbEntity
  8
WAKU0
  6
CONTINUOUS
 62
3
100
AcDbLine
 10
968.0000000000000
 20
63.00000000000000
 30
0.0000000000000000
 11
1008.000000000000
 21
63.00000000000000
 31
0.0000000000000000
  0
LINE
  5
40A
100
AcDbEntity
  8
WAKU0
  6
CONTINUOUS
 62
3
100
AcDbLine
 10
1008.000000000000
 20
88.00000000000000
 30
0.0000000000000000
 11
1164.000000000000
 21
88.00000000000000
 31
0.0000000000000000
  0
LINE
  5
40B
100
AcDbEntity
  8
WAKU0
  6
CONTINUOUS
 62
3
100
AcDbLine
 10
824.0000000000000
 20
74.00000000000000
 30
0.0000000000000000
 11
968.0000000000000
 21
74.00000000000000
 31
0.0000000000000000
  0
LINE
  5
40C
100
AcDbEntity
  8
WAKU0
  6
CONTINUOUS
 62
3
100
AcDbLine
 10
824.0000000000000
 20
46.00000000000000
 30
0.0000000000000000
 11
968.0000000000000
 21
46.00000000000000
 31
0.0000000000000000
  0
LINE
  5
40D
100
AcDbEntity
  8
WAKU0
  6
CONTINUOUS
 62
3
100
AcDbLine
 10
920.0000000000000
 20
74.00000000000000
 30
0.0000000000000000
 11
920.0000000000000
 21
24.00000000000000
 31
0.0000000000000000
  0
LINE
  5
40E
100
AcDbEntity
  8
WAKU0
  6
CONTINUOUS
 62
3
100
AcDbLine
 10
872.0000000000000
 20
74.00000000000000
 30
0.0000000000000000
 11
872.0000000000000
 21
46.00000000000000
 31
0.0000000000000000
  0
LINE
  5
40F
100
AcDbEntity
  8
WAKU0
  6
CONTINUOUS
 62
3
100
AcDbLine
 10
944.0000000000000
 20
52.00000000000000
 30
0.0000000000000000
 11
944.0000000000000
 21
46.00000000000000
 31
0.0000000000000000
  0
LINE
  5
410
100
AcDbEntity
  8
WAKU0
  6
CONTINUOUS
 62
3
100
AcDbLine
 10
896.0000000000000
 20
52.00000000000000
 30
0.0000000000000000
 11
896.0000000000000
 21
46.00000000000000
 31
0.0000000000000000
  0
LINE
  5
411
100
AcDbEntity
  8
WAKU0
  6
CONTINUOUS
 62
3
100
AcDbLine
 10
848.0000000000000
 20
52.00000000000000
 30
0.0000000000000000
 11
848.0000000000000
 21
46.00000000000000
 31
0.0000000000000000
  0
LINE
  5
412
100
AcDbEntity
  8
WAKU0
  6
CONTINUOUS
 62
3
100
AcDbLine
 10
860.0000000000000
 20
102.0000000000000
 30
0.0000000000000000
 11
860.0000000000000
 21
74.00000000000000
 31
0.0000000000000000
  0
LINE
  5
413
100
AcDbEntity
  8
WAKU0
  6
CONTINUOUS
 62
3
100
AcDbLine
 10
824.0000000000000
 20
90.00000000000000
 30
0.0000000000000000
 11
968.0000000000000
 21
90.00000000000000
 31
0.0000000000000000
  0
LINE
  5
414
100
AcDbEntity
  8
WAKU0
  6
HIDDEN
 62
3
100
AcDbLine
 10
1065.000000000000
 20
46.00000000000000
 30
0.0000000000000000
 11
1065.000000000000
 21
24.00000000000000
 31
0.0000000000000000
  0
LINE
  5
415
100
AcDbEntity
  8
WAKU0
  6
HIDDEN
 62
3
100
AcDbLine
 10
1089.800000000000
 20
46.00000000000000
 30
0.0000000000000000
 11
1089.800000000000
 21
24.00000000000000
 31
0.0000000000000000
  0
MTEXT
  5
416
100
AcDbEntity
  8
WAKU0
  6
CONTINUOUS
 62
3
100
AcDbMText
 10
1032.964000046253
 20
98.09999990463257
 30
0.0000000000000000
 40
6.199999809265137
 41
0.0000000000000000
 71
     1
 72
     1
  1
{\H0.93x;{IA8-300-0}}
 11
1.000000000000000
 21
0.0000000000000000
 31
0.0000000000000000
  7
STANDARD
  0
MTEXT
  5
417
100
AcDbEntity
  8
WAKU0
  6
CONTINUOUS
 62
3
100
AcDbMText
 10
1032.719999969006
 20
87.00000000000000
 30
0.0000000000000000
 40
6.000000000000000
 41
0.0000000000000000
 71
     1
 72
     1
  1
{\H0.59x;{四爪単動チャック　３００\P４－ＪＡＷ　ＩＮＤＥＰＥＮＤＥＮＴ　ＣＨＵＣＫ　３００}}
 11
1.000000000000000
 21
0.0000000000000000
 31
0.0000000000000000
  7
KNJYOKO
  0
MTEXT
  5
418
100
AcDbEntity
  8
WAKU0
  6
CONTINUOUS
 62
3
100
AcDbMText
 10
1032.800000011921
 20
68.46666653951009
 30
0.0000000000000000
 40
6.199999809265137
 41
0.0000000000000000
 71
     1
 72
     1
  1
{\H0.71x;{ＩＡ８－３００－０　ガイケイ\PＩＡ８－３００－０　ＯＵＴＳＩＤＥ　ＶＩＥＷ}}
 11
1.000000000000000
 21
0.0000000000000000
 31
0.0000000000000000
  7
KNJYOKO
  0
MTEXT
  5
419
100
AcDbEntity
  8
WAKU0
  6
CONTINUOUS
 62
3
100
AcDbMText
 10
980.0099997520447
 20
78.59999990463257
 30
0.0000000000000000
 40
6.199999809265137
 41
0.0000000000000000
 71
     1
 72
     1
  1
{\H0.90x;{2:3}}
 11
1.000000000000000
 21
0.0000000000000000
 31
0.0000000000000000
  7
STANDARD
  0
MTEXT
  5
41A
100
AcDbEntity
  8
WAKU0
  6
CONTINUOUS
 62
3
100
AcDbMText
 10
1092.800000309944
 20
40.30000019073486
 30
0.0000000000000000
 40
10.60000038146973
 41
0.0000000000000000
 71
     1
 72
     1
  1
{\H0.90x;{4363}}
 11
1.000000000000000
 21
0.0000000000000000
 31
0.0000000000000000
  7
STANDARD
  0
MTEXT
  5
41B
100
AcDbEntity
  8
WAKU0
  6
CONTINUOUS
 62
3
100
AcDbMText
 10
1068.600000166893
 20
40.30000019073486
 30
0.0000000000000000
 40
10.60000038146973
 41
0.0000000000000000
 71
     1
 72
     1
  1
{\H0.87x;{29}}
 11
1.000000000000000
 21
0.0000000000000000
 31
0.0000000000000000
  7
STANDARD
  0
MTEXT
  5
41C
100
AcDbEntity
  8
WAKU0
  6
CONTINUOUS
 62
3
100
AcDbMText
 10
1035.000000238419
 20
40.30000019073486
 30
0.0000000000000000
 40
10.60000038146973
 41
0.0000000000000000
 71
     1
 72
     1
  1
{\H0.89x;{61T}}
 11
1.000000000000000
 21
0.0000000000000000
 31
0.0000000000000000
  7
STANDARD
  0
MTEXT
  5
41D
100
AcDbEntity
  8
WAKU0
  6
CONTINUOUS
 62
3
100
AcDbMText
 10
1144.000000095367
 20
40.30000019073486
 30
0.0000000000000000
 40
10.60000038146973
 41
0.0000000000000000
 71
     1
 72
     1
  1
{\H0.81x;{1}}
 11
1.000000000000000
 21
0.0000000000000000
 31
0.0000000000000000
  7
STANDARD
  0
MTEXT
  5
41E
100
AcDbEntity
  8
WAKU0
  6
CONTINUOUS
 62
3
100
AcDbMText
 10
1144.000000163913
 20
89.69999980926514
 30
0.0000000000000000
 40
10.60000038146973
 41
0.0000000000000000
 71
     7
 72
     1
  1
{\H0.81x;{ }}
 11
1.000000000000000
 21
0.0000000000000000
 31
0.0000000000000000
  7
STANDARD
  0
MTEXT
  5
41F
100
AcDbEntity
  8
WAKU0
  6
CONTINUOUS
 62
3
100
AcDbMText
 10
922.7700005769730
 20
66.00000000000000
 30
0.0000000000000000
 40
6.000000000000000
 41
0.0000000000000000
 71
     7
 72
     1
  1
{\H0.93x;{DRAWN BY}}
 11
1.000000000000000
 21
0.0000000000000000
 31
0.0000000000000000
  7
STANDARD
  0
MTEXT
  5
420
100
AcDbEntity
  8
WAKU0
  6
CONTINUOUS
 62
3
100
AcDbMText
 10
882.4299995899200
 20
65.90000009536743
 30
0.0000000000000000
 40
6.199999809265137
 41
0.0000000000000000
 71
     7
 72
     1
  1
{\H0.92x;{CHIEF}}
 11
1.000000000000000
 21
0.0000000000000000
 31
0.0000000000000000
  7
STANDARD
  0
MTEXT
  5
421
100
AcDbEntity
  8
WAKU0
  6
CONTINUOUS
 62
3
100
AcDbMText
 10
828.8499994277954
 20
65.90000009536743
 30
0.0000000000000000
 40
6.199999809265137
 41
0.0000000000000000
 71
     7
 72
     1
  1
{\H0.92x;{MANAGER}}
 11
1.000000000000000
 21
0.0000000000000000
 31
0.0000000000000000
  7
STANDARD
  0
MTEXT
  5
422
100
AcDbEntity
  8
WAKU0
  6
CONTINUOUS
 62
3
100
AcDbMText
 10
826.1700004339218
 20
93.00000000000000
 30
0.0000000000000000
 40
6.000000000000000
 41
0.0000000000000000
 71
     7
 72
     1
  1
{\H0.92x;{CAREER}}
 11
1.000000000000000
 21
0.0000000000000000
 31
0.0000000000000000
  7
STANDARD
  0
MTEXT
  5
423
100
AcDbEntity
  8
WAKU0
  6
CONTINUOUS
 62
3
100
AcDbMText
 10
933.2199996709824
 20
37.90000009536743
 30
0.0000000000000000
 40
6.199999809265137
 41
0.0000000000000000
 71
     7
 72
     1
  1
{\H0.91x;{DATE}}
 11
1.000000000000000
 21
0.0000000000000000
 31
0.0000000000000000
  7
STANDARD
  0
MTEXT
  5
424
100
AcDbEntity
  8
WAKU0
  6
CONTINUOUS
 62
3
100
AcDbMText
 10
971.8000004291534
 20
53.00000000000000
 30
0.0000000000000000
 40
6.000000000000000
 41
0.0000000000000000
 71
     7
 72
     1
  1
{\H0.63x;{3RD ANGLE}}
 11
1.000000000000000
 21
0.0000000000000000
 31
0.0000000000000000
  7
STANDARD
  0
MTEXT
  5
425
100
AcDbEntity
  8
WAKU0
  6
CONTINUOUS
 62
3
100
AcDbMText
 10
974.4299995899200
 20
91.90000009536743
 30
0.0000000000000000
 40
6.199999809265137
 41
0.0000000000000000
 71
     7
 72
     1
  1
{\H0.92x;{SCALE}}
 11
1.000000000000000
 21
0.0000000000000000
 31
0.0000000000000000
  7
STANDARD
  0
MTEXT
  5
426
100
AcDbEntity
  8
WAKU0
  6
CONTINUOUS
 62
3
100
AcDbMText
 10
1155.400000095367
 20
92.00000000000000
 30
0.0000000000000000
 40
6.000000000000000
 41
0.0000000000000000
 71
     7
 72
     1
  1
{\H0.63x;{kg}}
 11
1.000000000000000
 21
0.0000000000000000
 31
0.0000000000000000
  7
STANDARD
  0
MTEXT
  5
427
100
AcDbEntity
  8
WAKU0
  6
CONTINUOUS
 62
3
100
AcDbMText
 10
1095.200000286102
 20
92.00000000000000
 30
0.0000000000000000
 40
6.000000000000000
 41
0.0000000000000000
 71
     7
 72
     1
  1
{\H0.63x;{WEIGHT}}
 11
1.000000000000000
 21
0.0000000000000000
 31
0.0000000000000000
  7
STANDARD
  0
MTEXT
  5
428
100
AcDbEntity
  8
WAKU0
  6
CONTINUOUS
 62
3
100
AcDbMText
 10
1012.009999752045
 20
36.26666673024496
 30
0.0000000000000000
 40
6.199999809265137
 41
0.0000000000000000
 71
     7
 72
     1
  1
{\H0.90x;{DRW\PNO.}}
 11
1.000000000000000
 21
0.0000000000000000
 31
0.0000000000000000
  7
STANDARD
  0
MTEXT
  5
429
100
AcDbEntity
  8
WAKU0
  6
CONTINUOUS
 62
3
100
AcDbMText
 10
1009.219999670982
 20
63.90000009536743
 30
0.0000000000000000
 40
6.199999809265137
 41
0.0000000000000000
 71
     7
 72
     1
  1
{\H0.91x;{NAME}}
 11
1.000000000000000
 21
0.0000000000000000
 31
0.0000000000000000
  7
STANDARD
  0
MTEXT
  5
42A
100
AcDbEntity
  8
WAKU0
  6
CONTINUOUS
 62
3
100
AcDbMText
 10
1009.219999670982
 20
91.90000009536743
 30
0.0000000000000000
 40
6.199999809265137
 41
0.0000000000000000
 71
     7
 72
     1
  1
{\H0.91x;{TYPE}}
 11
1.000000000000000
 21
0.0000000000000000
 31
0.0000000000000000
  7
STANDARD
  0
LINE
  5
42B
100
AcDbEntity
  8
WAKU0
  6
HIDDEN
 62
3
100
AcDbLine
 10
1158.319912948777
 20
27.69999980926514
 30
0.0000000000000000
 11
1137.880087241958
 21
27.69999980926514
 31
0.0000000000000000
  0
LINE
  5
42C
100
AcDbEntity
  8
WAKU0
  6
HIDDEN
 62
3
100
AcDbLine
 10
1158.319912948777
 20
27.69999980926500
 30
0.0000000000000000
 11
1148.100000095370
 21
45.40140812029802
 31
0.0000000000000000
  0
LINE
  5
42D
100
AcDbEntity
  8
WAKU0
  6
HIDDEN
 62
3
100
AcDbLine
 10
1148.100000095370
 20
45.40140812029803
 30
0.0000000000000000
 11
1137.880087241958
 21
27.69999980926497
 31
0.0000000000000000
  0
POINT
  5
42E
100
AcDbEntity
  8
WAKU0
  6
CONTINUOUS
 62
3
100
AcDbPoint
 10
884.0000000000000
 20
102.0000000000000
 30
0.0000000000000000
  0
MTEXT
  5
42F
100
AcDbEntity
  8
WAKU0
  6
CONTINUOUS
 62
3
100
AcDbMText
 10
838.0000019229746
 20
41.26943043396429
 30
0.0000000000000000
 40
6.280188083648682
 41
0.0000000000000000
 71
     1
 72
     1
  1
{\H0.83x;{Ｋｉｔａｇａｗａ\PＣｏｒｐｏｒａｔｉｏｎ}}
 11
1.000000000000000
 21
0.0000000000000000
 31
0.0000000000000000
  7
KNJYOKO
  0
INSERT
  5
47F
100
AcDbEntity
  8
WAKU0
  6
CONTINUOUS
 62
3
100
AcDbBlockReference
  2
M6
 10
0.0000000000000000
 20
0.0000000000000000
 30
0.0000000000000000
 50
0.0000000000000000
  0
LINE
  5
480
100
AcDbEntity
  8
WAKU0
  6
CONTINUOUS
 62
3
100
AcDbLine
 10
1004.942775550760
 20
31.56082842525625
 30
0.0000000000000000
 11
1004.942775550760
 21
43.56082842525629
 31
0.0000000000000000
  0
LINE
  5
481
100
AcDbEntity
  8
WAKU0
  6
CONTINUOUS
 62
3
100
AcDbLine
 10
991.8673882456450
 20
34.56082842525622
 30
0.0000000000000000
 11
991.8673882456450
 21
40.56082842525649
 31
0.0000000000000000
  0
LINE
  5
482
100
AcDbEntity
  8
WAKU0
  6
CENTER
 62
12
100
AcDbLine
 10
970.8643611029991
 20
37.56082842525626
 30
0.0000000000000000
 11
1006.553157792939
 21
37.56082842525626
 31
0.0000000000000000
  0
LINE
  5
483
100
AcDbEntity
  8
WAKU0
  6
CENTER
 62
12
100
AcDbLine
 10
978.8949131715972
 20
29.11843325836897
 30
0.0000000000000000
 11
978.8949131715972
 21
45.79730204299887
 31
0.0000000000000000
  0
LINE
  5
484
100
AcDbEntity
  8
WAKU0
  6
CONTINUOUS
 62
3
100
AcDbLine
 10
991.8673882456451
 20
40.56082842525595
 30
0.0000000000000000
 11
1004.942775550760
 21
43.56082842525589
 31
0.0000000000000000
  0
LINE
  5
485
100
AcDbEntity
  8
WAKU0
  6
CONTINUOUS
 62
3
100
AcDbLine
 10
991.8673882456451
 20
34.56082842525623
 30
0.0000000000000000
 11
1004.942775550760
 21
31.56082842525624
 31
0.0000000000000000
  0
CIRCLE
  5
486
100
AcDbEntity
  8
WAKU0
  6
CONTINUOUS
 62
3
100
AcDbCircle
 10
978.8949131715972
 20
37.56082842525627
 30
0.0000000000000000
 40
2.999999999999943
  0
CIRCLE
  5
487
100
AcDbEntity
  8
WAKU0
  6
CONTINUOUS
 62
3
100
AcDbCircle
 10
978.8949131715972
 20
37.56082842525627
 30
0.0000000000000000
 40
5.999999999999957
  0
ENDSEC
  0
SECTION
  2
OBJECTS
  0
DICTIONARY
  5
4B9
100
AcDbDictionary
  3
ACAD_GROUP
350
4BA
  3
ACAD_MLINESTYLE
350
4BB
  3
DWGPROPS
350
4BC
  0
DICTIONARY
  5
4BA
102
{ACAD_REACTORS
330
4B9
102
}
100
AcDbDictionary
  0
DICTIONARY
  5
4BB
102
{ACAD_REACTORS
330
4B9
102
}
100
AcDbDictionary
  3
STANDARD
350
4BD
  0
MLINESTYLE
  5
4BD
102
{ACAD_REACTORS
330
4BB
102
}
100
AcDbMlineStyle
  2
STANDARD
 70
     0
  3

 62
   256
 51
90.00
 52
90.00
 71
     2
 49
0.50
 62
   256
  6
BYLAYER
 49
-0.50
 62
   256
  6
BYLAYER
  0
XRECORD
  5
4BC
102
{ACAD_REACTORS
330
4B9
102
}
100
AcDbXrecord
280
     1
  1
DWGPROPS COOKIE
  2
ＩＡ８－３００－０　クミタテ
  3

  4

  6
四爪単動チャック　３００
  7

  8

  9

300
=
301
=
302
=
303
=
304
=
305
=
306
=
307
=
308
=
309
=
 40
0.000000
 41
0.000000
 42
0.000000
  1

 90
        0
  0
ENDSEC
  0
EOF
