  0
SECTION
  2
HEADER
  9
$ACADVER
  1
AC1014
  9
$DWGCODEPAGE
  3
ANSI_932
  9
$LTSCALE
 40
20.0
  9
$FILLMODE
 70
     1
  9
$CLAYER
  8
0
  9
$PDMODE
 70
     0
  9
$SPLFRAME
 70
     0
  9
$SPLINETYPE
 70
     6
  9
$SPLINESEGS
 70
     8
  9
$DIMASZ
 40
2.000000
  9
$DIMEXE
 40
2.000000
  9
$DIMEXO
 40
0.800000
  9
$DIMTAD
 70
     1
  9
$DIMTIH
 70
     0
  9
$DIMTOH
 70
     0
  9
$DIMTVP
 40
0.500000
  9
$DIMTXT
 40
3.100000
  9
$EXTMIN
 10
0.000000
 20
0.000000
 30
0.000000
  9
$EXTMAX
 10
420.000000
 20
594.000000
 30
0.000000
  9
$MEASUREMENT
 70
  1
  9
$LIMMIN
 10
0.000000
 20
0.000000
  9
$LIMMAX
 10
420.000000
 20
594.000000
  9
$HANDLING
 70
     1
  9
$HANDSEED
  5
49A
  9
$DIMBLK
  1
_OPEN
  9
$DIMDEC
 70
     3
  9
$DIMAUNIT
 70
     1
  9
$DIMZIN
 70
     8
  9
$DIMTOFL
 70
     1
  0
ENDSEC
  0
SECTION
  2
CLASSES
  0
ENDSEC
  0
SECTION
  2
TABLES
  0
TABLE
  2
VPORT
  5
469
100
AcDbSymbolTable
 70
     1
  0
VPORT
  5
46A
100
AcDbSymbolTableRecord
100
AcDbViewportTableRecord
  2
*ACTIVE
 70
     0
 12
594.000000
 22
420.000000
 40
840.000000
 41
1.414286
  0
ENDTAB
  0
TABLE
  2
LTYPE
  5
46B
100
AcDbSymbolTable
 70
     3
  0
LTYPE
  5
46C
100
AcDbSymbolTableRecord
100
AcDbLinetypeTableRecord
  2
BYBLOCK
 70
     0
  3

 72
    65
 73
     0
 40
0.0
  0
LTYPE
  5
46D
100
AcDbSymbolTableRecord
100
AcDbLinetypeTableRecord
  2
BYLAYER
 70
     0
  3

 72
    65
 73
     0
 40
0.0
  0
LTYPE
  5
46E
100
AcDbSymbolTableRecord
100
AcDbLinetypeTableRecord
  2
CONTINUOUS
 70
     0
  3
Solid line (NEC CAE2D for Win R14.2 : 2025.07.08)
 72
    65
 73
     0
 40
0.0
  0
LTYPE
  5
46F
100
AcDbSymbolTableRecord
100
AcDbLinetypeTableRecord
  2
HIDDEN
 70
     0
  3
__ __ __ __ __ __ __ __ __ __ __ __ __ __
 72
    65
 73
     2
 40
0.375
 49
0.25
 74
     0
 49
-0.125
 74
     0
  0
LTYPE
  5
470
100
AcDbSymbolTableRecord
100
AcDbLinetypeTableRecord
  2
CENTER
 70
     0
  3
____ _ ____ _ ____ _ ____ _ ____ _ ____
 72
    65
 73
     4
 40
2.0
 49
1.25
 74
     0
 49
-0.25
 74
     0
 49
0.25
 74
     0
 49
-0.25
 74
     0
  0
ENDTAB
  0
TABLE
  2
LAYER
  5
471
100
AcDbSymbolTable
 70
    11
  0
LAYER
  5
472
100
AcDbSymbolTableRecord
100
AcDbLayerTableRecord
  2
0
 70
     0
 62
     7
  6
CONTINUOUS
  0
LAYER
  5
473
100
AcDbSymbolTableRecord
100
AcDbLayerTableRecord
  2
MAIN0
 70
     0
 62
     7
  6
CONTINUOUS
  0
LAYER
  5
474
100
AcDbSymbolTableRecord
100
AcDbLayerTableRecord
  2
MAIN1
 70
     0
 62
     7
  6
CONTINUOUS
  0
LAYER
  5
475
100
AcDbSymbolTableRecord
100
AcDbLayerTableRecord
  2
MAIN2
 70
     0
 62
     7
  6
CONTINUOUS
  0
LAYER
  5
476
100
AcDbSymbolTableRecord
100
AcDbLayerTableRecord
  2
MAIN3
 70
     0
 62
     7
  6
CONTINUOUS
  0
LAYER
  5
477
100
AcDbSymbolTableRecord
100
AcDbLayerTableRecord
  2
MAIN4
 70
     0
 62
     7
  6
CONTINUOUS
  0
LAYER
  5
478
100
AcDbSymbolTableRecord
100
AcDbLayerTableRecord
  2
MAIN5
 70
     0
 62
     7
  6
CONTINUOUS
  0
LAYER
  5
479
100
AcDbSymbolTableRecord
100
AcDbLayerTableRecord
  2
MAIN6
 70
     0
 62
     7
  6
CONTINUOUS
  0
LAYER
  5
47A
100
AcDbSymbolTableRecord
100
AcDbLayerTableRecord
  2
MAIN1023
 70
     0
 62
    16
  6
CONTINUOUS
  0
LAYER
  5
47B
100
AcDbSymbolTableRecord
100
AcDbLayerTableRecord
  2
WAKU0
 70
     0
 62
     7
  6
CONTINUOUS
  0
LAYER
  5
47C
100
AcDbSymbolTableRecord
100
AcDbLayerTableRecord
  2
WAKU1023
 70
     0
 62
    16
  6
CONTINUOUS
  0
ENDTAB
  0
TABLE
  2
STYLE
  5
47D
100
AcDbSymbolTable
 70
     4
  0
STYLE
  5
47E
100
AcDbSymbolTableRecord
100
AcDbTextStyleTableRecord
  2
STANDARD
 70
    64
 40
0.0
 41
1.0
 50
0.0
 71
     0
 42
6.200000762939453
  3
TXT
  4

  0
STYLE
  5
47F
100
AcDbSymbolTableRecord
100
AcDbTextStyleTableRecord
  2
ANKTATE
 70
    68
 40
0.0
 41
1.0
 50
0.0
 71
     0
 42
6.200000762939453
  3
TXT
  4

  0
STYLE
  5
480
100
AcDbSymbolTableRecord
100
AcDbTextStyleTableRecord
  2
KNJYOKO
 70
    64
 40
0.0
 41
1.0
 50
0.0
 71
     0
 42
6.200000762939453
  3
TXT
  4
BIGFONT
  0
STYLE
  5
481
100
AcDbSymbolTableRecord
100
AcDbTextStyleTableRecord
  2
KNJTATE
 70
    68
 40
0.0
 41
1.0
 50
0.0
 71
     0
 42
6.200000762939453
  3
TXT
  4
BIGFONT
  0
ENDTAB
  0
TABLE
  2
VIEW
  5
482
100
AcDbSymbolTable
 70
     0
  0
ENDTAB
  0
TABLE
  2
UCS
  5
483
100
AcDbSymbolTable
 70
     0
  0
ENDTAB
  0
TABLE
  2
APPID
  5
484
100
AcDbSymbolTable
 70
     1
  0
APPID
  5
485
100
AcDbSymbolTableRecord
100
AcDbRegAppTableRecord
  2
ACAD
 70
     0
  0
ENDTAB
  0
TABLE
  2
DIMSTYLE
  5
486
100
AcDbSymbolTable
 70
     1
  0
DIMSTYLE
105
487
100
AcDbSymbolTableRecord
100
AcDbDimStyleTableRecord
  2
STANDARD
 70
     0
 41
2.000000
 44
2.000000
 42
0.800000
145
0.661290
140
3.100000
144
1.000000
146
0.903226
340
47E
  0
DIMSTYLE
105
488
100
AcDbSymbolTableRecord
100
AcDbDimStyleTableRecord
  2
MAIN001
 70
     0
 41
4.000000
 44
4.000000
 42
1.600000
145
0.580645
140
6.200000
144
0.750000
146
0.903226
 77
     1
 73
     0
 74
     0
271
     3
275
     1
 78
     8
172
     1
340
47E
  0
DIMSTYLE
105
489
100
AcDbSymbolTableRecord
100
AcDbDimStyleTableRecord
  2
WAKU002
 70
     0
 41
4.000000
 44
4.000000
 42
1.600000
145
0.580645
140
6.200000
144
0.500000
146
0.903226
 77
     1
 73
     0
 74
     0
271
     3
275
     1
 78
     8
172
     1
340
47E
  0
ENDTAB
  0
TABLE
  2
BLOCK_RECORD
  5
48A
100
AcDbSymbolTable
 70
    17
  0
BLOCK_RECORD
  5
48B
100
AcDbSymbolTableRecord
100
AcDbBlockTableRecord
  2
*MODEL_SPACE
  0
BLOCK_RECORD
  5
48C
100
AcDbSymbolTableRecord
100
AcDbBlockTableRecord
  2
*PAPER_SPACE
  0
BLOCK_RECORD
  5
1
100
AcDbSymbolTableRecord
100
AcDbBlockTableRecord
  2
_NONE
  0
BLOCK_RECORD
  5
4
100
AcDbSymbolTableRecord
100
AcDbBlockTableRecord
  2
_CLOSED
  0
BLOCK_RECORD
  5
B
100
AcDbSymbolTableRecord
100
AcDbBlockTableRecord
  2
_DOT
  0
BLOCK_RECORD
  5
13
100
AcDbSymbolTableRecord
100
AcDbBlockTableRecord
  2
_OPEN
  0
BLOCK_RECORD
  5
19
100
AcDbSymbolTableRecord
100
AcDbBlockTableRecord
  2
_ORIGIN
  0
BLOCK_RECORD
  5
1E
100
AcDbSymbolTableRecord
100
AcDbBlockTableRecord
  2
_OPEN30
  0
BLOCK_RECORD
  5
24
100
AcDbSymbolTableRecord
100
AcDbBlockTableRecord
  2
_BOXFILLED
  0
BLOCK_RECORD
  5
29
100
AcDbSymbolTableRecord
100
AcDbBlockTableRecord
  2
_BOXBLANK
  0
BLOCK_RECORD
  5
31
100
AcDbSymbolTableRecord
100
AcDbBlockTableRecord
  2
_OBLIQUE
  0
BLOCK_RECORD
  5
35
100
AcDbSymbolTableRecord
100
AcDbBlockTableRecord
  2
_OPEN90
  0
BLOCK_RECORD
  5
3B
100
AcDbSymbolTableRecord
100
AcDbBlockTableRecord
  2
_CLOSEDBLANK
  0
BLOCK_RECORD
  5
41
100
AcDbSymbolTableRecord
100
AcDbBlockTableRecord
  2
_DOTBLANK
  0
BLOCK_RECORD
  5
48D
100
AcDbSymbolTableRecord
100
AcDbBlockTableRecord
  2
M0
  0
BLOCK_RECORD
  5
48E
100
AcDbSymbolTableRecord
100
AcDbBlockTableRecord
  2
M1
  0
BLOCK_RECORD
  5
48F
100
AcDbSymbolTableRecord
100
AcDbBlockTableRecord
  2
M2
  0
BLOCK_RECORD
  5
490
100
AcDbSymbolTableRecord
100
AcDbBlockTableRecord
  2
M3
  0
BLOCK_RECORD
  5
491
100
AcDbSymbolTableRecord
100
AcDbBlockTableRecord
  2
M4
  0
ENDTAB
  0
ENDSEC
  0
SECTION
  2
BLOCKS
  0
BLOCK
  5
492
100
AcDbEntity
  8
0
100
AcDbBlockBegin
  2
*MODEL_SPACE
 70
     0
 10
0.0
 20
0.0
 30
0.0
  3
*MODEL_SPACE
  1

  0
ENDBLK
  5
493
100
AcDbEntity
  8
0
100
AcDbBlockEnd
  0
BLOCK
  5
494
100
AcDbEntity
  8
0
100
AcDbBlockBegin
  2
*PAPER_SPACE
 70
     0
 10
0.0
 20
0.0
 30
0.0
  3
*PAPER_SPACE
  1

  0
ENDBLK
  5
495
100
AcDbEntity
  8
0
100
AcDbBlockEnd
  0
BLOCK
  5
2
100
AcDbEntity
  8
0
100
AcDbBlockBegin
  2
_NONE
 70
     0
 10
0.0
 20
0.0
 30
0.0
  3
_NONE
  1

  0
ENDBLK
  5
3
100
AcDbEntity
  8
0
100
AcDbBlockEnd
  0
BLOCK
  5
5
100
AcDbEntity
  8
0
100
AcDbBlockBegin
  2
_CLOSED
 70
     0
 10
0.0
 20
0.0
 30
0.0
  3
_CLOSED
  1

  0
LINE
  5
6
100
AcDbEntity
  8
0
  6
BYBLOCK
 62
     0
100
AcDbLine
 10
-1.0
 20
0.166667
 30
0.0
 11
0.0
 21
0.0
 31
0.0
  0
LINE
  5
7
100
AcDbEntity
  8
0
  6
BYBLOCK
 62
     0
100
AcDbLine
 10
0.0
 20
0.0
 30
0.0
 11
-1.0
 21
-0.166667
 31
0.0
  0
LINE
  5
8
100
AcDbEntity
  8
0
  6
BYBLOCK
 62
     0
100
AcDbLine
 10
-1.0
 20
0.166667
 30
0.0
 11
-1.0
 21
-0.166667
 31
0.0
  0
LINE
  5
9
100
AcDbEntity
  8
0
  6
BYBLOCK
 62
     0
100
AcDbLine
 10
0.0
 20
0.0
 30
0.0
 11
-1.0
 21
0.0
 31
0.0
  0
ENDBLK
  5
A
100
AcDbEntity
  8
0
100
AcDbBlockEnd
  0
BLOCK
  5
C
100
AcDbEntity
  8
0
100
AcDbBlockBegin
  2
_DOT
 70
     0
 10
0.0
 20
0.0
 30
0.0
  3
_DOT
  1

  0
POLYLINE
  5
D
100
AcDbEntity
  8
0
  6
BYBLOCK
 62
     0
100
AcDb2dPolyline
 66
     1
 10
0.0
 20
0.0
 30
0.0
 70
     1
 40
0.5
 41
0.5
  0
VERTEX
  5
E
100
AcDbEntity
  8
0
  6
BYBLOCK
 62
     0
100
AcDbVertex
100
AcDb2dVertex
 10
-0.25
 20
0.0
 30
0.0
 42
1.0
  0
VERTEX
  5
F
100
AcDbEntity
  8
0
  6
BYBLOCK
 62
     0
100
AcDbVertex
100
AcDb2dVertex
 10
0.25
 20
0.0
 30
0.0
 42
1.0
  0
SEQEND
  5
10
100
AcDbEntity
  8
0
  6
BYBLOCK
 62
     0
  0
LINE
  5
11
100
AcDbEntity
  8
0
  6
BYBLOCK
 62
     0
100
AcDbLine
 10
-0.5
 20
0.0
 30
0.0
 11
-1.0
 21
0.0
 31
0.0
  0
ENDBLK
  5
12
100
AcDbEntity
  8
0
100
AcDbBlockEnd
  0
BLOCK
  5
14
100
AcDbEntity
  8
0
100
AcDbBlockBegin
  2
_OPEN
 70
     0
 10
0.0
 20
0.0
 30
0.0
  3
_OPEN
  1

  0
LINE
  5
15
100
AcDbEntity
  8
0
  6
BYBLOCK
 62
     0
100
AcDbLine
 10
-1.0
 20
0.166667
 30
0.0
 11
0.0
 21
0.0
 31
0.0
  0
LINE
  5
16
100
AcDbEntity
  8
0
  6
BYBLOCK
 62
     0
100
AcDbLine
 10
0.0
 20
0.0
 30
0.0
 11
-1.0
 21
-0.166667
 31
0.0
  0
LINE
  5
17
100
AcDbEntity
  8
0
  6
BYBLOCK
 62
     0
100
AcDbLine
 10
0.0
 20
0.0
 30
0.0
 11
-1.0
 21
0.0
 31
0.0
  0
ENDBLK
  5
18
100
AcDbEntity
  8
0
100
AcDbBlockEnd
  0
BLOCK
  5
1A
100
AcDbEntity
  8
0
100
AcDbBlockBegin
  2
_ORIGIN
 70
     0
 10
0.0
 20
0.0
 30
0.0
  3
_ORIGIN
  1

  0
CIRCLE
  5
1B
100
AcDbEntity
  8
0
  6
BYBLOCK
 62
     0
100
AcDbCircle
 10
0.0
 20
0.0
 30
0.0
 40
0.5
  0
LINE
  5
1C
100
AcDbEntity
  8
0
  6
BYBLOCK
 62
     0
100
AcDbLine
 10
0.0
 20
0.0
 30
0.0
 11
-1.0
 21
0.0
 31
0.0
  0
ENDBLK
  5
1D
100
AcDbEntity
  8
0
100
AcDbBlockEnd
  0
BLOCK
  5
1F
100
AcDbEntity
  8
0
100
AcDbBlockBegin
  2
_OPEN30
 70
     0
 10
0.0
 20
0.0
 30
0.0
  3
_OPEN30
  1

  0
LINE
  5
20
100
AcDbEntity
  8
0
  6
BYBLOCK
 62
     0
100
AcDbLine
 10
-1.0
 20
0.267949
 30
0.0
 11
0.0
 21
0.0
 31
0.0
  0
LINE
  5
21
100
AcDbEntity
  8
0
  6
BYBLOCK
 62
     0
100
AcDbLine
 10
0.0
 20
0.0
 30
0.0
 11
-1.0
 21
-0.267949
 31
0.0
  0
LINE
  5
22
100
AcDbEntity
  8
0
  6
BYBLOCK
 62
     0
100
AcDbLine
 10
0.0
 20
0.0
 30
0.0
 11
-1.0
 21
0.0
 31
0.0
  0
ENDBLK
  5
23
100
AcDbEntity
  8
0
100
AcDbBlockEnd
  0
BLOCK
  5
25
100
AcDbEntity
  8
0
100
AcDbBlockBegin
  2
_BOXFILLED
 70
     0
 10
0.0
 20
0.0
 30
0.0
  3
_BOXFILLED
  1

  0
SOLID
  5
26
100
AcDbEntity
  8
0
  6
BYBLOCK
 62
     0
100
AcDbTrace
 10
-0.5
 20
0.5
 30
0.0
 11
0.5
 21
0.5
 31
0.0
 12
-0.5
 22
-0.5
 32
0.0
 13
0.5
 23
-0.5
 33
0.0
  0
LINE
  5
27
100
AcDbEntity
  8
0
  6
BYBLOCK
 62
     0
100
AcDbLine
 10
-0.5
 20
0.0
 30
0.0
 11
-1.0
 21
0.0
 31
0.0
  0
ENDBLK
  5
28
100
AcDbEntity
  8
0
100
AcDbBlockEnd
  0
BLOCK
  5
2A
100
AcDbEntity
  8
0
100
AcDbBlockBegin
  2
_BOXBLANK
 70
     0
 10
0.0
 20
0.0
 30
0.0
  3
_BOXBLANK
  1

  0
LINE
  5
2B
100
AcDbEntity
  8
0
  6
BYBLOCK
 62
     0
100
AcDbLine
 10
-0.5
 20
-0.5
 30
0.0
 11
0.5
 21
-0.5
 31
0.0
  0
LINE
  5
2C
100
AcDbEntity
  8
0
  6
BYBLOCK
 62
     0
100
AcDbLine
 10
0.5
 20
-0.5
 30
0.0
 11
0.5
 21
0.5
 31
0.0
  0
LINE
  5
2D
100
AcDbEntity
  8
0
  6
BYBLOCK
 62
     0
100
AcDbLine
 10
0.5
 20
0.5
 30
0.0
 11
-0.5
 21
0.5
 31
0.0
  0
LINE
  5
2E
100
AcDbEntity
  8
0
  6
BYBLOCK
 62
     0
100
AcDbLine
 10
-0.5
 20
0.5
 30
0.0
 11
-0.5
 21
-0.5
 31
0.0
  0
LINE
  5
2F
100
AcDbEntity
  8
0
  6
BYBLOCK
 62
     0
100
AcDbLine
 10
-0.5
 20
0.0
 30
0.0
 11
-1.0
 21
0.0
 31
0.0
  0
ENDBLK
  5
30
100
AcDbEntity
  8
0
100
AcDbBlockEnd
  0
BLOCK
  5
32
100
AcDbEntity
  8
0
100
AcDbBlockBegin
  2
_OBLIQUE
 70
     0
 10
0.0
 20
0.0
 30
0.0
  3
_OBLIQUE
  1

  0
LINE
  5
33
100
AcDbEntity
  8
0
  6
BYBLOCK
 62
     0
100
AcDbLine
 10
-0.5
 20
-0.5
 30
0.0
 11
0.5
 21
0.5
 31
0.0
  0
ENDBLK
  5
34
100
AcDbEntity
  8
0
100
AcDbBlockEnd
  0
BLOCK
  5
36
100
AcDbEntity
  8
0
100
AcDbBlockBegin
  2
_OPEN90
 70
     0
 10
0.0
 20
0.0
 30
0.0
  3
_OPEN90
  1

  0
LINE
  5
37
100
AcDbEntity
  8
0
  6
BYBLOCK
 62
     0
100
AcDbLine
 10
-0.5
 20
0.5
 30
0.0
 11
0.0
 21
0.0
 31
0.0
  0
LINE
  5
38
100
AcDbEntity
  8
0
  6
BYBLOCK
 62
     0
100
AcDbLine
 10
0.0
 20
0.0
 30
0.0
 11
-0.5
 21
-0.5
 31
0.0
  0
LINE
  5
39
100
AcDbEntity
  8
0
  6
BYBLOCK
 62
     0
100
AcDbLine
 10
0.0
 20
0.0
 30
0.0
 11
-1.0
 21
0.0
 31
0.0
  0
ENDBLK
  5
3A
100
AcDbEntity
  8
0
100
AcDbBlockEnd
  0
BLOCK
  5
3C
100
AcDbEntity
  8
0
100
AcDbBlockBegin
  2
_CLOSEDBLANK
 70
     0
 10
0.0
 20
0.0
 30
0.0
  3
_CLOSEDBLANK
  1

  0
LINE
  5
3D
100
AcDbEntity
  8
0
  6
BYBLOCK
 62
     0
100
AcDbLine
 10
-1.0
 20
0.1666666666666666
 30
0.0
 11
0.0
 21
0.0
 31
0.0
  0
LINE
  5
3E
100
AcDbEntity
  8
0
  6
BYBLOCK
 62
     0
100
AcDbLine
 10
0.0
 20
0.0
 30
0.0
 11
-1.0
 21
-0.1666666666666666
 31
0.0
  0
LINE
  5
3F
100
AcDbEntity
  8
0
  6
BYBLOCK
 62
     0
100
AcDbLine
 10
-1.0
 20
0.1666666666666666
 30
0.0
 11
-1.0
 21
-0.1666666666666666
 31
0.0
  0
ENDBLK
  5
40
100
AcDbEntity
  8
0
100
AcDbBlockEnd
  0
BLOCK
  5
42
100
AcDbEntity
  8
0
100
AcDbBlockBegin
  2
_DOTBLANK
 70
     0
 10
0.0
 20
0.0
 30
0.0
  3
_DOTBLANK
  1

  0
CIRCLE
  5
43
100
AcDbEntity
  8
0
  6
BYBLOCK
 62
     0
100
AcDbCircle
 10
0.0
 20
0.0
 30
0.0
 40
0.5
  0
LINE
  5
44
100
AcDbEntity
  8
0
  6
BYBLOCK
 62
     0
100
AcDbLine
 10
-0.5
 20
0.0
 30
0.0
 11
-1.0
 21
0.0
 31
0.0
  0
ENDBLK
  5
45
100
AcDbEntity
  8
0
100
AcDbBlockEnd
  0
BLOCK
  5
185
100
AcDbEntity
  8
MAIN0
  6
BYBLOCK
 62
2
100
AcDbBlockBegin
  2
M0
 70
    64
 10
0.0
 20
0.0
 30
0.0
  0
LINE
  5
186
100
AcDbEntity
  8
MAIN0
  6
BYBLOCK
 62
0
100
AcDbLine
 10
700.0000000000000
 20
694.0000000000000
 30
0.0000000000000000
 11
700.0000000000001
 21
706.0000000000000
 31
0.0000000000000000
  0
LINE
  5
187
100
AcDbEntity
  8
MAIN0
  6
BYBLOCK
 62
0
100
AcDbLine
 10
700.0000000000000
 20
700.0000000000000
 30
0.0000000000000000
 11
676.0000000000001
 21
700.0000000000000
 31
0.0000000000000000
  0
LINE
  5
188
100
AcDbEntity
  8
MAIN0
  6
BYBLOCK
 62
0
100
AcDbLine
 10
700.0000000000000
 20
699.9999999999999
 30
0.0000000000000000
 11
690.3407417371093
 21
697.4118095489747
 31
0.0000000000000000
  0
LINE
  5
189
100
AcDbEntity
  8
MAIN0
  6
BYBLOCK
 62
0
100
AcDbLine
 10
700.0000000000000
 20
700.0000000000000
 30
0.0000000000000000
 11
690.3407417371094
 21
702.5881904510252
 31
0.0000000000000000
  0
ENDBLK
  5
18A
100
AcDbEntity
  8
MAIN0
  6
BYBLOCK
 62
2
100
AcDbBlockEnd
  0
BLOCK
  5
18C
100
AcDbEntity
  8
MAIN0
  6
BYBLOCK
 62
2
100
AcDbBlockBegin
  2
M1
 70
    64
 10
0.0
 20
0.0
 30
0.0
  0
LINE
  5
18D
100
AcDbEntity
  8
MAIN0
  6
BYBLOCK
 62
0
100
AcDbLine
 10
570.9093073537862
 20
370.9093073537860
 30
0.0000000000000000
 11
562.4240259795477
 21
362.4240259795474
 31
0.0000000000000000
  0
LINE
  5
18E
100
AcDbEntity
  8
MAIN0
  6
BYBLOCK
 62
0
100
AcDbLine
 10
566.6666666666667
 20
366.6666666666666
 30
0.0000000000000000
 11
549.6961039181896
 21
383.6372294151437
 31
0.0000000000000000
  0
LINE
  5
18F
100
AcDbEntity
  8
MAIN0
  6
BYBLOCK
 62
0
100
AcDbLine
 10
566.6666666666667
 20
366.6666666666667
 30
0.0000000000000000
 11
561.6666666666669
 21
375.3269207045111
 31
0.0000000000000000
  0
LINE
  5
190
100
AcDbEntity
  8
MAIN0
  6
BYBLOCK
 62
0
100
AcDbLine
 10
566.6666666666667
 20
366.6666666666666
 30
0.0000000000000000
 11
558.0064126288223
 21
371.6666666666666
 31
0.0000000000000000
  0
ENDBLK
  5
191
100
AcDbEntity
  8
MAIN0
  6
BYBLOCK
 62
2
100
AcDbBlockEnd
  0
BLOCK
  5
388
100
AcDbEntity
  8
MAIN0
  6
BYBLOCK
 62
3
100
AcDbBlockBegin
  2
M2
 70
    64
 10
0.0
 20
0.0
 30
0.0
  0
POINT
  5
389
100
AcDbEntity
  8
MAIN0
  6
BYBLOCK
 62
0
100
AcDbPoint
 10
586.6666666666667
 20
169.9999999999994
 30
0.0000000000000000
  0
POINT
  5
38A
100
AcDbEntity
  8
MAIN0
  6
BYBLOCK
 62
0
100
AcDbPoint
 10
586.6666666666667
 20
159.9999999999994
 30
0.0000000000000000
  0
POINT
  5
38B
100
AcDbEntity
  8
MAIN0
  6
BYBLOCK
 62
0
100
AcDbPoint
 10
586.6666666666667
 20
149.9999999999996
 30
0.0000000000000000
  0
LINE
  5
38C
100
AcDbEntity
  8
MAIN0
  6
BYBLOCK
 62
0
100
AcDbLine
 10
566.6666666666667
 20
168.9999999999994
 30
0.0000000000000000
 11
766.6666666666667
 21
168.9999999999994
 31
0.0000000000000000
  0
LINE
  5
38D
100
AcDbEntity
  8
MAIN0
  6
BYBLOCK
 62
0
100
AcDbLine
 10
566.6666666666667
 20
158.9999999999996
 30
0.0000000000000000
 11
766.6666666666667
 21
158.9999999999996
 31
0.0000000000000000
  0
LINE
  5
38E
100
AcDbEntity
  8
MAIN0
  6
BYBLOCK
 62
0
100
AcDbLine
 10
566.6666666666667
 20
148.9999999999996
 30
0.0000000000000000
 11
766.6666666666667
 21
148.9999999999996
 31
0.0000000000000000
  0
MTEXT
  5
38F
100
AcDbEntity
  8
MAIN0
  6
BYBLOCK
 62
0
100
AcDbMText
 10
568.6666666666667
 20
176.1999998092646
 30
0.0000000000000000
 40
6.199999809265137
 41
0.0000000000000000
 71
     1
 72
     1
  1
{\H0.88x;1.}
 11
1.000000000000000
 21
0.0000000000000000
 31
0.0000000000000000
  7
STANDARD
  0
MTEXT
  5
390
100
AcDbEntity
  8
MAIN0
  6
BYBLOCK
 62
0
100
AcDbMText
 10
568.6666666666667
 20
166.1999998092646
 30
0.0000000000000000
 40
6.199999809265137
 41
0.0000000000000000
 71
     1
 72
     1
  1
{\H0.88x;2.}
 11
1.000000000000000
 21
0.0000000000000000
 31
0.0000000000000000
  7
STANDARD
  0
POINT
  5
391
100
AcDbEntity
  8
MAIN0
  6
BYBLOCK
 62
0
100
AcDbPoint
 10
568.6666666666667
 20
169.9999999999994
 30
0.0000000000000000
  0
POINT
  5
392
100
AcDbEntity
  8
MAIN0
  6
BYBLOCK
 62
0
100
AcDbPoint
 10
568.6666666666667
 20
159.9999999999994
 30
0.0000000000000000
  0
POINT
  5
393
100
AcDbEntity
  8
MAIN0
  6
BYBLOCK
 62
0
100
AcDbPoint
 10
568.6666666666667
 20
149.9999999999996
 30
0.0000000000000000
  0
MTEXT
  5
394
100
AcDbEntity
  8
MAIN0
  6
BYBLOCK
 62
0
100
AcDbMText
 10
569.6666666666667
 20
197.0000000000000
 30
0.0000000000000000
 40
12.00000000000000
 41
0.0000000000000000
 71
     1
 72
     1
  1
{\H0.80x;注　記}
 11
1.000000000000000
 21
0.0000000000000000
 31
0.0000000000000000
  7
KNJYOKO
  0
LINE
  5
395
100
AcDbEntity
  8
MAIN0
  6
BYBLOCK
 62
0
100
AcDbLine
 10
606.6666666666667
 20
200.0000000000000
 30
0.0000000000000000
 11
606.6666666666667
 21
182.0000000000000
 31
0.0000000000000000
  0
LINE
  5
396
100
AcDbEntity
  8
MAIN0
  6
BYBLOCK
 62
0
100
AcDbLine
 10
566.6666666666667
 20
182.0000000000000
 30
0.0000000000000000
 11
606.6666666666667
 21
182.0000000000000
 31
0.0000000000000000
  0
LINE
  5
397
100
AcDbEntity
  8
MAIN0
  6
BYBLOCK
 62
0
100
AcDbLine
 10
566.6666666666667
 20
200.0000000000000
 30
0.0000000000000000
 11
566.6666666666667
 21
182.0000000000000
 31
0.0000000000000000
  0
LINE
  5
398
100
AcDbEntity
  8
MAIN0
  6
BYBLOCK
 62
0
100
AcDbLine
 10
566.6666666666667
 20
200.0000000000000
 30
0.0000000000000000
 11
606.6666666666667
 21
200.0000000000000
 31
0.0000000000000000
  0
ENDBLK
  5
399
100
AcDbEntity
  8
MAIN0
  6
BYBLOCK
 62
3
100
AcDbBlockEnd
  0
BLOCK
  5
39D
100
AcDbEntity
  8
MAIN0
  6
BYBLOCK
 62
3
100
AcDbBlockBegin
  2
M3
 70
    64
 10
0.0
 20
0.0
 30
0.0
  0
POINT
  5
39E
100
AcDbEntity
  8
MAIN0
  6
BYBLOCK
 62
0
100
AcDbPoint
 10
586.6666666666667
 20
103.3333333333328
 30
0.0000000000000000
  0
POINT
  5
39F
100
AcDbEntity
  8
MAIN0
  6
BYBLOCK
 62
0
100
AcDbPoint
 10
586.6666666666667
 20
93.33333333333277
 30
0.0000000000000000
  0
POINT
  5
3A0
100
AcDbEntity
  8
MAIN0
  6
BYBLOCK
 62
0
100
AcDbPoint
 10
586.6666666666667
 20
83.33333333333292
 30
0.0000000000000000
  0
LINE
  5
3A1
100
AcDbEntity
  8
MAIN0
  6
BYBLOCK
 62
0
100
AcDbLine
 10
566.6666666666667
 20
102.3333333333328
 30
0.0000000000000000
 11
800.0000000000000
 21
102.3333333333328
 31
0.0000000000000000
  0
LINE
  5
3A2
100
AcDbEntity
  8
MAIN0
  6
BYBLOCK
 62
0
100
AcDbLine
 10
566.6666666666667
 20
92.33333333333292
 30
0.0000000000000000
 11
800.0000000000000
 21
92.33333333333292
 31
0.0000000000000000
  0
LINE
  5
3A3
100
AcDbEntity
  8
MAIN0
  6
BYBLOCK
 62
0
100
AcDbLine
 10
566.6666666666667
 20
82.33333333333292
 30
0.0000000000000000
 11
800.0000000000000
 21
82.33333333333292
 31
0.0000000000000000
  0
MTEXT
  5
3A4
100
AcDbEntity
  8
MAIN0
  6
BYBLOCK
 62
0
100
AcDbMText
 10
568.6666666666667
 20
109.5333331425979
 30
0.0000000000000000
 40
6.199999809265137
 41
0.0000000000000000
 71
     1
 72
     1
  1
{\H0.88x;1.}
 11
1.000000000000000
 21
0.0000000000000000
 31
0.0000000000000000
  7
STANDARD
  0
MTEXT
  5
3A5
100
AcDbEntity
  8
MAIN0
  6
BYBLOCK
 62
0
100
AcDbMText
 10
568.6666666666667
 20
99.53333314259794
 30
0.0000000000000000
 40
6.199999809265137
 41
0.0000000000000000
 71
     1
 72
     1
  1
{\H0.88x;2.}
 11
1.000000000000000
 21
0.0000000000000000
 31
0.0000000000000000
  7
STANDARD
  0
POINT
  5
3A6
100
AcDbEntity
  8
MAIN0
  6
BYBLOCK
 62
0
100
AcDbPoint
 10
568.6666666666667
 20
103.3333333333328
 30
0.0000000000000000
  0
POINT
  5
3A7
100
AcDbEntity
  8
MAIN0
  6
BYBLOCK
 62
0
100
AcDbPoint
 10
568.6666666666667
 20
93.33333333333277
 30
0.0000000000000000
  0
POINT
  5
3A8
100
AcDbEntity
  8
MAIN0
  6
BYBLOCK
 62
0
100
AcDbPoint
 10
568.6666666666667
 20
83.33333333333292
 30
0.0000000000000000
  0
MTEXT
  5
3A9
100
AcDbEntity
  8
MAIN0
  6
BYBLOCK
 62
0
100
AcDbMText
 10
569.6666666666667
 20
130.3333333333334
 30
0.0000000000000000
 40
12.00000000000000
 41
0.0000000000000000
 71
     1
 72
     1
  1
NOTE
 11
1.000000000000000
 21
0.0000000000000000
 31
0.0000000000000000
  7
STANDARD
  0
LINE
  5
3AA
100
AcDbEntity
  8
MAIN0
  6
BYBLOCK
 62
0
100
AcDbLine
 10
566.6666666666667
 20
115.3333333333334
 30
0.0000000000000000
 11
617.3333333330660
 21
115.3333333333334
 31
0.0000000000000000
  0
LINE
  5
3AB
100
AcDbEntity
  8
MAIN0
  6
BYBLOCK
 62
0
100
AcDbLine
 10
566.6666666666667
 20
133.3333333333334
 30
0.0000000000000000
 11
566.6666666666667
 21
115.3333333333334
 31
0.0000000000000000
  0
LINE
  5
3AC
100
AcDbEntity
  8
MAIN0
  6
BYBLOCK
 62
0
100
AcDbLine
 10
566.6666666666667
 20
133.3333333333334
 30
0.0000000000000000
 11
617.3333333330660
 21
133.3333333333334
 31
0.0000000000000000
  0
ENDBLK
  5
3AD
100
AcDbEntity
  8
MAIN0
  6
BYBLOCK
 62
3
100
AcDbBlockEnd
  0
BLOCK
  5
411
100
AcDbEntity
  8
WAKU0
  6
BYBLOCK
 62
3
100
AcDbBlockBegin
  2
M4
 70
    64
 10
0.0
 20
0.0
 30
0.0
  0
POINT
  5
412
100
AcDbEntity
  8
WAKU0
  6
BYBLOCK
 62
0
100
AcDbPoint
 10
544.0000000000000
 20
24.00000000000000
 30
0.0000000000000000
  0
POINT
  5
413
100
AcDbEntity
  8
WAKU0
  6
BYBLOCK
 62
0
100
AcDbPoint
 10
262.0000000000073
 20
24.00000000000001
 30
0.0000000000000000
  0
LINE
  5
414
100
AcDbEntity
  8
WAKU0
  6
BYBLOCK
 62
0
100
AcDbLine
 10
50.00000000000364
 20
24.00000000000001
 30
0.0000000000000000
 11
1164.000000000000
 21
24.00000000000000
 31
0.0000000000000000
  0
LINE
  5
415
100
AcDbEntity
  8
WAKU0
  6
BYBLOCK
 62
0
100
AcDbLine
 10
50.00000000000387
 20
819.9999999999931
 30
0.0000000000000000
 11
1164.000000000000
 21
819.9999999999927
 31
0.0000000000000000
  0
LINE
  5
416
100
AcDbEntity
  8
WAKU0
  6
BYBLOCK
 62
0
100
AcDbLine
 10
50.00000000000364
 20
24.00000000000001
 30
0.0000000000000000
 11
50.00000000000387
 21
819.9999999999931
 31
0.0000000000000000
  0
LINE
  5
417
100
AcDbEntity
  8
WAKU0
  6
BYBLOCK
 62
0
100
AcDbLine
 10
1164.000000000000
 20
24.00000000000000
 30
0.0000000000000000
 11
1164.000000000000
 21
819.9999999999927
 31
0.0000000000000000
  0
LINE
  5
418
100
AcDbEntity
  8
WAKU0
  6
BYBLOCK
 62
0
100
AcDbLine
 10
4.000000000002046
 20
835.9999999999936
 30
0.0000000000000000
 11
20.00000000000205
 21
835.9999999999936
 31
0.0000000000000000
  0
LINE
  5
419
100
AcDbEntity
  8
WAKU0
  6
BYBLOCK
 62
0
100
AcDbLine
 10
1168.000000000000
 20
835.9999999999927
 30
0.0000000000000000
 11
1184.000000000000
 21
835.9999999999928
 31
0.0000000000000000
  0
LINE
  5
41A
100
AcDbEntity
  8
WAKU0
  6
BYBLOCK
 62
0
100
AcDbLine
 10
1184.000000000000
 20
819.9999999999926
 30
0.0000000000000000
 11
1184.000000000000
 21
835.9999999999926
 31
0.0000000000000000
  0
LINE
  5
41B
100
AcDbEntity
  8
WAKU0
  6
BYBLOCK
 62
0
100
AcDbLine
 10
4.000000000003638
 20
819.9999999999927
 30
0.0000000000000000
 11
4.000000000003638
 21
835.9999999999927
 31
0.0000000000000000
  0
LINE
  5
41C
100
AcDbEntity
  8
WAKU0
  6
BYBLOCK
 62
0
100
AcDbLine
 10
4.000000000003638
 20
4.000000000000085
 30
0.0000000000000000
 11
20.00000000000364
 21
4.000000000000085
 31
0.0000000000000000
  0
LINE
  5
41D
100
AcDbEntity
  8
WAKU0
  6
BYBLOCK
 62
0
100
AcDbLine
 10
1168.000000000000
 20
4.000000000000007
 30
0.0000000000000000
 11
1184.000000000000
 21
4.000000000000007
 31
0.0000000000000000
  0
LINE
  5
41E
100
AcDbEntity
  8
WAKU0
  6
BYBLOCK
 62
0
100
AcDbLine
 10
1184.000000000000
 20
20.00000000000014
 30
0.0000000000000000
 11
1184.000000000000
 21
4.000000000000156
 31
0.0000000000000000
  0
LINE
  5
41F
100
AcDbEntity
  8
WAKU0
  6
BYBLOCK
 62
0
100
AcDbLine
 10
4.000000000003638
 20
4.000000000000203
 30
0.0000000000000000
 11
4.000000000003638
 21
20.00000000000014
 31
0.0000000000000000
  0
LINE
  5
420
100
AcDbEntity
  8
WAKU0
  6
BYBLOCK
 62
0
100
AcDbLine
 10
594.0000000000001
 20
-3.552713678800501e-015
 30
0.0000000000000000
 11
594.0000000000000
 21
24.00000000000003
 31
0.0000000000000000
  0
LINE
  5
421
100
AcDbEntity
  8
WAKU0
  6
BYBLOCK
 62
0
100
AcDbLine
 10
594.0000000000046
 20
819.9999999999959
 30
0.0000000000000000
 11
594.0000000000047
 21
839.9999999999959
 31
0.0000000000000000
  0
LINE
  5
422
100
AcDbEntity
  8
WAKU0
  6
BYBLOCK
 62
0
100
AcDbLine
 10
3.637978807091713e-012
 20
419.9999999999999
 30
0.0000000000000000
 11
50.00000000000364
 21
419.9999999999999
 31
0.0000000000000000
  0
LINE
  5
423
100
AcDbEntity
  8
WAKU0
  6
BYBLOCK
 62
0
100
AcDbLine
 10
1164.000000000000
 20
419.9999999999999
 30
0.0000000000000000
 11
1188.000000000000
 21
419.9999999999999
 31
0.0000000000000000
  0
LINE
  5
424
100
AcDbEntity
  8
WAKU0
  6
BYBLOCK
 62
0
100
AcDbLine
 10
454.0000000000073
 20
14.00000000000002
 30
0.0000000000000000
 11
733.9999999999999
 21
14.00000000000009
 31
0.0000000000000000
  0
LINE
  5
425
100
AcDbEntity
  8
WAKU0
  6
BYBLOCK
 62
0
100
AcDbLine
 10
42.00000000000205
 20
679.9999999999941
 30
0.0000000000000000
 11
50.00000000000205
 21
679.9999999999940
 31
0.0000000000000000
  0
LINE
  5
426
100
AcDbEntity
  8
WAKU0
  6
BYBLOCK
 62
0
100
AcDbLine
 10
1164.000000000000
 20
679.9999999999927
 30
0.0000000000000000
 11
1172.000000000000
 21
679.9999999999928
 31
0.0000000000000000
  0
LINE
  5
427
100
AcDbEntity
  8
WAKU0
  6
BYBLOCK
 62
0
100
AcDbLine
 10
42.00000000000387
 20
549.9999999999941
 30
0.0000000000000000
 11
50.00000000000387
 21
549.9999999999940
 31
0.0000000000000000
  0
LINE
  5
428
100
AcDbEntity
  8
WAKU0
  6
BYBLOCK
 62
0
100
AcDbLine
 10
1164.000000000000
 20
549.9999999999927
 30
0.0000000000000000
 11
1172.000000000000
 21
549.9999999999928
 31
0.0000000000000000
  0
LINE
  5
429
100
AcDbEntity
  8
WAKU0
  6
BYBLOCK
 62
0
100
AcDbLine
 10
42.00000000000023
 20
289.9999999999999
 30
0.0000000000000000
 11
50.00000000000023
 21
289.9999999999999
 31
0.0000000000000000
  0
LINE
  5
42A
100
AcDbEntity
  8
WAKU0
  6
BYBLOCK
 62
0
100
AcDbLine
 10
1164.000000000000
 20
289.9999999999999
 30
0.0000000000000000
 11
1172.000000000000
 21
289.9999999999999
 31
0.0000000000000000
  0
LINE
  5
42B
100
AcDbEntity
  8
WAKU0
  6
BYBLOCK
 62
0
100
AcDbLine
 10
42.00000000000387
 20
160.0000000000000
 30
0.0000000000000000
 11
50.00000000000387
 21
160.0000000000000
 31
0.0000000000000000
  0
LINE
  5
42C
100
AcDbEntity
  8
WAKU0
  6
BYBLOCK
 62
0
100
AcDbLine
 10
1164.000000000000
 20
159.9999999999999
 30
0.0000000000000000
 11
1172.000000000000
 21
159.9999999999999
 31
0.0000000000000000
  0
LINE
  5
42D
100
AcDbEntity
  8
WAKU0
  6
BYBLOCK
 62
0
100
AcDbLine
 10
734.0000000000000
 20
14.00000000000007
 30
0.0000000000000000
 11
733.9999999999998
 21
24.00000000000003
 31
0.0000000000000000
  0
LINE
  5
42E
100
AcDbEntity
  8
WAKU0
  6
BYBLOCK
 62
0
100
AcDbLine
 10
733.9999999999998
 20
819.9999999999989
 30
0.0000000000000000
 11
733.9999999999998
 21
827.9999999999989
 31
0.0000000000000000
  0
LINE
  5
42F
100
AcDbEntity
  8
WAKU0
  6
BYBLOCK
 62
0
100
AcDbLine
 10
454.0000000000073
 20
14.00000000000001
 30
0.0000000000000000
 11
454.0000000000073
 21
23.99999999999990
 31
0.0000000000000000
  0
LINE
  5
430
100
AcDbEntity
  8
WAKU0
  6
BYBLOCK
 62
0
100
AcDbLine
 10
454.0000000000073
 20
819.9999999999927
 30
0.0000000000000000
 11
454.0000000000073
 21
827.9999999999927
 31
0.0000000000000000
  0
LINE
  5
431
100
AcDbEntity
  8
WAKU0
  6
BYBLOCK
 62
0
100
AcDbLine
 10
474.0000000000073
 20
20.00000000000020
 30
0.0000000000000000
 11
474.0000000000073
 21
14.00000000000006
 31
0.0000000000000000
  0
LINE
  5
432
100
AcDbEntity
  8
WAKU0
  6
BYBLOCK
 62
0
100
AcDbLine
 10
494.0000000000073
 20
20.00000000000011
 30
0.0000000000000000
 11
494.0000000000073
 21
14.00000000000004
 31
0.0000000000000000
  0
LINE
  5
433
100
AcDbEntity
  8
WAKU0
  6
BYBLOCK
 62
0
100
AcDbLine
 10
514.0000000000000
 20
14.00000000000002
 30
0.0000000000000000
 11
514.0000000000000
 21
20.00000000000020
 31
0.0000000000000000
  0
LINE
  5
434
100
AcDbEntity
  8
WAKU0
  6
BYBLOCK
 62
0
100
AcDbLine
 10
534.0000000000000
 20
14.00000000000006
 30
0.0000000000000000
 11
534.0000000000000
 21
20.00000000000014
 31
0.0000000000000000
  0
LINE
  5
435
100
AcDbEntity
  8
WAKU0
  6
BYBLOCK
 62
0
100
AcDbLine
 10
554.0000000000000
 20
20.00000000000020
 30
0.0000000000000000
 11
554.0000000000000
 21
14.00000000000002
 31
0.0000000000000000
  0
LINE
  5
436
100
AcDbEntity
  8
WAKU0
  6
BYBLOCK
 62
0
100
AcDbLine
 10
574.0000000000000
 20
20.00000000000017
 30
0.0000000000000000
 11
574.0000000000000
 21
14.00000000000004
 31
0.0000000000000000
  0
LINE
  5
437
100
AcDbEntity
  8
WAKU0
  6
BYBLOCK
 62
0
100
AcDbLine
 10
614.0000000000000
 20
20.00000000000014
 30
0.0000000000000000
 11
614.0000000000000
 21
14.00000000000001
 31
0.0000000000000000
  0
LINE
  5
438
100
AcDbEntity
  8
WAKU0
  6
BYBLOCK
 62
0
100
AcDbLine
 10
634.0000000000000
 20
14.00000000000003
 30
0.0000000000000000
 11
634.0000000000000
 21
20.00000000000017
 31
0.0000000000000000
  0
LINE
  5
439
100
AcDbEntity
  8
WAKU0
  6
BYBLOCK
 62
0
100
AcDbLine
 10
653.9999999999999
 20
20.00000000000014
 30
0.0000000000000000
 11
653.9999999999999
 21
14.00000000000001
 31
0.0000000000000000
  0
LINE
  5
43A
100
AcDbEntity
  8
WAKU0
  6
BYBLOCK
 62
0
100
AcDbLine
 10
674.0000000000000
 20
20.00000000000015
 30
0.0000000000000000
 11
673.9999999999998
 21
14.00000000000001
 31
0.0000000000000000
  0
LINE
  5
43B
100
AcDbEntity
  8
WAKU0
  6
BYBLOCK
 62
0
100
AcDbLine
 10
693.9999999999999
 20
20.00000000000023
 30
0.0000000000000000
 11
693.9999999999999
 21
14.00000000000007
 31
0.0000000000000000
  0
LINE
  5
43C
100
AcDbEntity
  8
WAKU0
  6
BYBLOCK
 62
0
100
AcDbLine
 10
713.9999999999999
 20
20.00000000000014
 30
0.0000000000000000
 11
713.9999999999999
 21
14.00000000000001
 31
0.0000000000000000
  0
LINE
  5
43D
100
AcDbEntity
  8
WAKU0
  6
BYBLOCK
 62
0
100
AcDbLine
 10
1014.000000000000
 20
16.00000000000017
 30
0.0000000000000000
 11
1014.000000000000
 21
23.99999999999997
 31
0.0000000000000000
  0
LINE
  5
43E
100
AcDbEntity
  8
WAKU0
  6
BYBLOCK
 62
0
100
AcDbLine
 10
1014.000000000000
 20
819.9999999999949
 30
0.0000000000000000
 11
1014.000000000000
 21
827.9999999999949
 31
0.0000000000000000
  0
LINE
  5
43F
100
AcDbEntity
  8
WAKU0
  6
BYBLOCK
 62
0
100
AcDbLine
 10
874.0000000000000
 20
16.00000000000020
 30
0.0000000000000000
 11
873.9999999999998
 21
24.00000000000002
 31
0.0000000000000000
  0
LINE
  5
440
100
AcDbEntity
  8
WAKU0
  6
BYBLOCK
 62
0
100
AcDbLine
 10
873.9999999999998
 20
819.9999999999968
 30
0.0000000000000000
 11
873.9999999999998
 21
827.9999999999968
 31
0.0000000000000000
  0
LINE
  5
441
100
AcDbEntity
  8
WAKU0
  6
BYBLOCK
 62
0
100
AcDbLine
 10
314.0000000000073
 20
16.00000000000021
 30
0.0000000000000000
 11
314.0000000000073
 21
24.00000000000002
 31
0.0000000000000000
  0
LINE
  5
442
100
AcDbEntity
  8
WAKU0
  6
BYBLOCK
 62
0
100
AcDbLine
 10
314.0000000000073
 20
819.9999999999927
 30
0.0000000000000000
 11
314.0000000000073
 21
827.9999999999927
 31
0.0000000000000000
  0
LINE
  5
443
100
AcDbEntity
  8
WAKU0
  6
BYBLOCK
 62
0
100
AcDbLine
 10
174.0000000000073
 20
16.00000000000019
 30
0.0000000000000000
 11
174.0000000000073
 21
24.00000000000003
 31
0.0000000000000000
  0
LINE
  5
444
100
AcDbEntity
  8
WAKU0
  6
BYBLOCK
 62
0
100
AcDbLine
 10
174.0000000000073
 20
819.9999999999927
 30
0.0000000000000000
 11
174.0000000000073
 21
827.9999999999927
 31
0.0000000000000000
  0
MTEXT
  5
445
100
AcDbEntity
  8
WAKU0
  6
BYBLOCK
 62
0
100
AcDbMText
 10
112.0000000000036
 20
20.20000076293957
 30
0.0000000000000000
 40
6.200000762939453
 41
0.0000000000000000
 71
     1
 72
     1
  1
{\H0.81x;1}
 11
1.000000000000000
 21
0.0000000000000000
 31
0.0000000000000000
  7
STANDARD
  0
MTEXT
  5
446
100
AcDbEntity
  8
WAKU0
  6
BYBLOCK
 62
0
100
AcDbMText
 10
244.0000000000073
 20
20.20000076293945
 30
0.0000000000000000
 40
6.200000762939453
 41
0.0000000000000000
 71
     1
 72
     1
  1
{\H0.81x;2}
 11
1.000000000000000
 21
0.0000000000000000
 31
0.0000000000000000
  7
STANDARD
  0
MTEXT
  5
447
100
AcDbEntity
  8
WAKU0
  6
BYBLOCK
 62
0
100
AcDbMText
 10
384.0000000000073
 20
20.20000076293945
 30
0.0000000000000000
 40
6.200000762939453
 41
0.0000000000000000
 71
     1
 72
     1
  1
{\H0.81x;3}
 11
1.000000000000000
 21
0.0000000000000000
 31
0.0000000000000000
  7
STANDARD
  0
MTEXT
  5
448
100
AcDbEntity
  8
WAKU0
  6
BYBLOCK
 62
0
100
AcDbMText
 10
803.9999999999996
 20
20.20000076293934
 30
0.0000000000000000
 40
6.200000762939453
 41
0.0000000000000000
 71
     1
 72
     1
  1
{\H0.81x;6}
 11
1.000000000000000
 21
0.0000000000000000
 31
0.0000000000000000
  7
STANDARD
  0
MTEXT
  5
449
100
AcDbEntity
  8
WAKU0
  6
BYBLOCK
 62
0
100
AcDbMText
 10
943.9999999999996
 20
20.20000076293945
 30
0.0000000000000000
 40
6.200000762939453
 41
0.0000000000000000
 71
     1
 72
     1
  1
{\H0.81x;7}
 11
1.000000000000000
 21
0.0000000000000000
 31
0.0000000000000000
  7
STANDARD
  0
MTEXT
  5
44A
100
AcDbEntity
  8
WAKU0
  6
BYBLOCK
 62
0
100
AcDbMText
 10
1089.000000000000
 20
20.20000076293945
 30
0.0000000000000000
 40
6.200000762939453
 41
0.0000000000000000
 71
     1
 72
     1
  1
{\H0.81x;8}
 11
1.000000000000000
 21
0.0000000000000000
 31
0.0000000000000000
  7
STANDARD
  0
MTEXT
  5
44B
100
AcDbEntity
  8
WAKU0
  6
BYBLOCK
 62
0
100
AcDbMText
 10
112.0000000000036
 20
830.2000007629322
 30
0.0000000000000000
 40
6.200000762939453
 41
0.0000000000000000
 71
     1
 72
     1
  1
{\H0.81x;1}
 11
1.000000000000000
 21
0.0000000000000000
 31
0.0000000000000000
  7
STANDARD
  0
MTEXT
  5
44C
100
AcDbEntity
  8
WAKU0
  6
BYBLOCK
 62
0
100
AcDbMText
 10
244.0000000000073
 20
830.2000007629322
 30
0.0000000000000000
 40
6.200000762939453
 41
0.0000000000000000
 71
     1
 72
     1
  1
{\H0.81x;2}
 11
1.000000000000000
 21
0.0000000000000000
 31
0.0000000000000000
  7
STANDARD
  0
MTEXT
  5
44D
100
AcDbEntity
  8
WAKU0
  6
BYBLOCK
 62
0
100
AcDbMText
 10
384.0000000000073
 20
830.2000007629322
 30
0.0000000000000000
 40
6.200000762939453
 41
0.0000000000000000
 71
     1
 72
     1
  1
{\H0.81x;3}
 11
1.000000000000000
 21
0.0000000000000000
 31
0.0000000000000000
  7
STANDARD
  0
MTEXT
  5
44E
100
AcDbEntity
  8
WAKU0
  6
BYBLOCK
 62
0
100
AcDbMText
 10
524.0000000000000
 20
830.2000007629322
 30
0.0000000000000000
 40
6.200000762939453
 41
0.0000000000000000
 71
     1
 72
     1
  1
{\H0.81x;4}
 11
1.000000000000000
 21
0.0000000000000000
 31
0.0000000000000000
  7
STANDARD
  0
MTEXT
  5
44F
100
AcDbEntity
  8
WAKU0
  6
BYBLOCK
 62
0
100
AcDbMText
 10
663.9999999999996
 20
830.2000007629322
 30
0.0000000000000000
 40
6.200000762939453
 41
0.0000000000000000
 71
     1
 72
     1
  1
{\H0.81x;5}
 11
1.000000000000000
 21
0.0000000000000000
 31
0.0000000000000000
  7
STANDARD
  0
MTEXT
  5
450
100
AcDbEntity
  8
WAKU0
  6
BYBLOCK
 62
0
100
AcDbMText
 10
803.9999999999996
 20
830.2000007629322
 30
0.0000000000000000
 40
6.200000762939453
 41
0.0000000000000000
 71
     1
 72
     1
  1
{\H0.81x;6}
 11
1.000000000000000
 21
0.0000000000000000
 31
0.0000000000000000
  7
STANDARD
  0
MTEXT
  5
451
100
AcDbEntity
  8
WAKU0
  6
BYBLOCK
 62
0
100
AcDbMText
 10
943.9999999999996
 20
830.2000007629322
 30
0.0000000000000000
 40
6.200000762939453
 41
0.0000000000000000
 71
     1
 72
     1
  1
{\H0.81x;7}
 11
1.000000000000000
 21
0.0000000000000000
 31
0.0000000000000000
  7
STANDARD
  0
MTEXT
  5
452
100
AcDbEntity
  8
WAKU0
  6
BYBLOCK
 62
0
100
AcDbMText
 10
1089.000000000000
 20
830.2000007629322
 30
0.0000000000000000
 40
6.200000762939453
 41
0.0000000000000000
 71
     1
 72
     1
  1
{\H0.81x;8}
 11
1.000000000000000
 21
0.0000000000000000
 31
0.0000000000000000
  7
STANDARD
  0
MTEXT
  5
453
100
AcDbEntity
  8
WAKU0
  6
BYBLOCK
 62
0
100
AcDbMText
 10
42.00000000000364
 20
756.2000007629322
 30
0.0000000000000000
 40
6.200000762939453
 41
0.0000000000000000
 71
     1
 72
     1
  1
{\H0.81x;A}
 11
1.000000000000000
 21
0.0000000000000000
 31
0.0000000000000000
  7
STANDARD
  0
MTEXT
  5
454
100
AcDbEntity
  8
WAKU0
  6
BYBLOCK
 62
0
100
AcDbMText
 10
42.00000000000364
 20
626.2000007629322
 30
0.0000000000000000
 40
6.200000762939453
 41
0.0000000000000000
 71
     1
 72
     1
  1
{\H0.81x;B}
 11
1.000000000000000
 21
0.0000000000000000
 31
0.0000000000000000
  7
STANDARD
  0
MTEXT
  5
455
100
AcDbEntity
  8
WAKU0
  6
BYBLOCK
 62
0
100
AcDbMText
 10
42.00000000000364
 20
496.2000007629391
 30
0.0000000000000000
 40
6.200000762939453
 41
0.0000000000000000
 71
     1
 72
     1
  1
{\H0.81x;C}
 11
1.000000000000000
 21
0.0000000000000000
 31
0.0000000000000000
  7
STANDARD
  0
MTEXT
  5
456
100
AcDbEntity
  8
WAKU0
  6
BYBLOCK
 62
0
100
AcDbMText
 10
42.00000000000364
 20
366.2000007629391
 30
0.0000000000000000
 40
6.200000762939453
 41
0.0000000000000000
 71
     1
 72
     1
  1
{\H0.81x;D}
 11
1.000000000000000
 21
0.0000000000000000
 31
0.0000000000000000
  7
STANDARD
  0
MTEXT
  5
457
100
AcDbEntity
  8
WAKU0
  6
BYBLOCK
 62
0
100
AcDbMText
 10
42.00000000000364
 20
236.2000007629390
 30
0.0000000000000000
 40
6.200000762939453
 41
0.0000000000000000
 71
     1
 72
     1
  1
{\H0.81x;E}
 11
1.000000000000000
 21
0.0000000000000000
 31
0.0000000000000000
  7
STANDARD
  0
MTEXT
  5
458
100
AcDbEntity
  8
WAKU0
  6
BYBLOCK
 62
0
100
AcDbMText
 10
42.00000000000364
 20
106.2000007629390
 30
0.0000000000000000
 40
6.200000762939453
 41
0.0000000000000000
 71
     1
 72
     1
  1
{\H0.81x;F}
 11
1.000000000000000
 21
0.0000000000000000
 31
0.0000000000000000
  7
STANDARD
  0
MTEXT
  5
459
100
AcDbEntity
  8
WAKU0
  6
BYBLOCK
 62
0
100
AcDbMText
 10
1170.000000000000
 20
756.2000007629322
 30
0.0000000000000000
 40
6.200000762939453
 41
0.0000000000000000
 71
     1
 72
     1
  1
{\H0.81x;A}
 11
1.000000000000000
 21
0.0000000000000000
 31
0.0000000000000000
  7
STANDARD
  0
MTEXT
  5
45A
100
AcDbEntity
  8
WAKU0
  6
BYBLOCK
 62
0
100
AcDbMText
 10
1170.000000000000
 20
626.2000007629322
 30
0.0000000000000000
 40
6.200000762939453
 41
0.0000000000000000
 71
     1
 72
     1
  1
{\H0.81x;B}
 11
1.000000000000000
 21
0.0000000000000000
 31
0.0000000000000000
  7
STANDARD
  0
MTEXT
  5
45B
100
AcDbEntity
  8
WAKU0
  6
BYBLOCK
 62
0
100
AcDbMText
 10
1170.000000000000
 20
496.2000007629392
 30
0.0000000000000000
 40
6.200000762939453
 41
0.0000000000000000
 71
     1
 72
     1
  1
{\H0.81x;C}
 11
1.000000000000000
 21
0.0000000000000000
 31
0.0000000000000000
  7
STANDARD
  0
MTEXT
  5
45C
100
AcDbEntity
  8
WAKU0
  6
BYBLOCK
 62
0
100
AcDbMText
 10
1170.000000000000
 20
366.2000007629392
 30
0.0000000000000000
 40
6.200000762939453
 41
0.0000000000000000
 71
     1
 72
     1
  1
{\H0.81x;D}
 11
1.000000000000000
 21
0.0000000000000000
 31
0.0000000000000000
  7
STANDARD
  0
MTEXT
  5
45D
100
AcDbEntity
  8
WAKU0
  6
BYBLOCK
 62
0
100
AcDbMText
 10
1170.000000000000
 20
236.2000007629391
 30
0.0000000000000000
 40
6.200000762939453
 41
0.0000000000000000
 71
     1
 72
     1
  1
{\H0.81x;E}
 11
1.000000000000000
 21
0.0000000000000000
 31
0.0000000000000000
  7
STANDARD
  0
MTEXT
  5
45E
100
AcDbEntity
  8
WAKU0
  6
BYBLOCK
 62
0
100
AcDbMText
 10
1170.000000000000
 20
106.2000007629390
 30
0.0000000000000000
 40
6.200000762939453
 41
0.0000000000000000
 71
     1
 72
     1
  1
{\H0.81x;F}
 11
1.000000000000000
 21
0.0000000000000000
 31
0.0000000000000000
  7
STANDARD
  0
ENDBLK
  5
45F
100
AcDbEntity
  8
WAKU0
  6
BYBLOCK
 62
3
100
AcDbBlockEnd
  0
ENDSEC
  0
SECTION
  2
ENTITIES
  0
LINE
  5
46
100
AcDbEntity
  8
MAIN0
  6
CENTER
 62
3
100
AcDbLine
 10
665.5500000000000
 20
559.6691503207479
 30
0.0000000000000000
 11
645.5500000000000
 21
594.3101664721255
 31
0.0000000000000000
  0
CIRCLE
  5
47
100
AcDbEntity
  8
MAIN0
  6
CONTINUOUS
 62
3
100
AcDbCircle
 10
655.5500000000000
 20
576.9896583964367
 30
0.0000000000000000
 40
13.33333333333333
  0
CIRCLE
  5
48
100
AcDbEntity
  8
MAIN0
  6
CONTINUOUS
 62
3
100
AcDbCircle
 10
655.5500000000000
 20
576.9896583964367
 30
0.0000000000000000
 40
9.000000000000000
  0
ARC
  5
49
100
AcDbEntity
  8
MAIN0
  6
CENTER
 62
3
100
AcDbCircle
 10
700.0000000000001
 20
499.9999999999999
 30
0.0000000000000000
 40
88.89999999999999
100
AcDbArc
 50
197.0827219803436
 51
222.9172780196562
  0
LINE
  5
4A
100
AcDbEntity
  8
MAIN0
  6
CENTER
 62
3
100
AcDbLine
 10
640.3308496792522
 20
465.5499999999999
 30
0.0000000000000000
 11
605.6898335278746
 21
445.5500000000000
 31
0.0000000000000000
  0
CIRCLE
  5
4B
100
AcDbEntity
  8
MAIN0
  6
CONTINUOUS
 62
3
100
AcDbCircle
 10
623.0103416035634
 20
455.5500000000000
 30
0.0000000000000000
 40
13.33333333333333
  0
CIRCLE
  5
4C
100
AcDbEntity
  8
MAIN0
  6
CONTINUOUS
 62
3
100
AcDbCircle
 10
623.0103416035634
 20
455.5500000000000
 30
0.0000000000000000
 40
9.000000000000000
  0
LINE
  5
4D
100
AcDbEntity
  8
MAIN0
  6
CENTER
 62
3
100
AcDbLine
 10
639.9267044908189
 20
534.6833333333341
 30
0.0000000000000000
 11
606.0939787163068
 21
554.2166666666674
 31
0.0000000000000000
  0
CIRCLE
  5
4E
100
AcDbEntity
  8
MAIN0
  6
HIDDEN
 62
3
100
AcDbCircle
 10
623.0103416035629
 20
544.4500000000006
 30
0.0000000000000000
 40
12.86666666666667
  0
CIRCLE
  5
4F
100
AcDbEntity
  8
MAIN0
  6
HIDDEN
 62
3
100
AcDbCircle
 10
623.0103416035629
 20
544.4500000000006
 30
0.0000000000000000
 40
8.000000000000000
  0
POINT
  5
50
100
AcDbEntity
  8
MAIN0
  6
CONTINUOUS
 62
3
100
AcDbPoint
 10
817.8511301977579
 20
382.1488698022421
 30
0.0000000000000000
  0
LINE
  5
51
100
AcDbEntity
  8
MAIN0
  6
CONTINUOUS
 62
3
100
AcDbLine
 10
230.6666666664232
 20
335.3333333333363
 30
0.0000000000000000
 11
230.6666666666667
 21
499.9999999999999
 31
0.0000000000000000
  0
LINE
  5
52
100
AcDbEntity
  8
MAIN0
  6
CONTINUOUS
 62
3
100
AcDbLine
 10
232.6666666664232
 20
333.3333333333333
 30
0.0000000000000000
 11
331.3333333330899
 21
333.3333333333333
 31
0.0000000000000000
  0
LINE
  5
53
100
AcDbEntity
  8
MAIN0
  6
CONTINUOUS
 62
3
100
AcDbLine
 10
230.6666666664203
 20
346.6666666666666
 30
0.0000000000000000
 11
235.3333333331095
 21
346.6666666666666
 31
0.0000000000000000
  0
LINE
  5
54
100
AcDbEntity
  8
MAIN0
  6
CONTINUOUS
 62
3
100
AcDbLine
 10
230.6666666665050
 20
390.6666666666666
 30
0.0000000000000000
 11
250.0161319794260
 21
390.6666666666666
 31
0.0000000000000000
  0
LINE
  5
55
100
AcDbEntity
  8
MAIN0
  6
CONTINUOUS
 62
3
100
AcDbLine
 10
239.9999999998049
 20
370.6666666666666
 30
0.0000000000000000
 11
245.7351625525548
 21
370.6666666666666
 31
0.0000000000000000
  0
LINE
  5
56
100
AcDbEntity
  8
MAIN0
  6
CONTINUOUS
 62
3
100
AcDbLine
 10
237.3333333331096
 20
348.6666666666637
 30
0.0000000000000000
 11
237.3333333331382
 21
368.0000000000039
 31
0.0000000000000000
  0
ARC
  5
57
100
AcDbEntity
  8
MAIN0
  6
CONTINUOUS
 62
3
100
AcDbCircle
 10
239.9999999998049
 20
368.0000000000000
 30
0.0000000000000000
 40
2.666666666666667
100
AcDbArc
 50
90.00000000000000
 51
180.0000000000000
  0
ARC
  5
58
100
AcDbEntity
  8
MAIN0
  6
CONTINUOUS
 62
3
100
AcDbCircle
 10
239.9999999998049
 20
368.0000000000000
 30
0.0000000000000000
 40
2.666666666666667
100
AcDbArc
 50
90.00000000000000
 51
180.0000000000000
  0
LINE
  5
59
100
AcDbEntity
  8
MAIN0
  6
HIDDEN
 62
3
100
AcDbLine
 10
314.6666666665155
 20
397.7666666666667
 30
0.0000000000000000
 11
314.6666666665550
 21
424.4333333333333
 31
0.0000000000000000
  0
LINE
  5
5A
100
AcDbEntity
  8
MAIN0
  6
HIDDEN
 62
3
100
AcDbLine
 10
314.6666666665550
 20
424.4333333333333
 30
0.0000000000000000
 11
333.3333333332216
 21
424.4333333333333
 31
0.0000000000000000
  0
LINE
  5
5B
100
AcDbEntity
  8
MAIN0
  6
HIDDEN
 62
3
100
AcDbLine
 10
314.6666666665155
 20
397.7666666666667
 30
0.0000000000000000
 11
333.3333333331822
 21
397.7666666666667
 31
0.0000000000000000
  0
LINE
  5
5C
100
AcDbEntity
  8
MAIN0
  6
HIDDEN
 62
3
100
AcDbLine
 10
230.6666666665485
 20
420.1000000000000
 30
0.0000000000000000
 11
314.6666666665486
 21
420.1000000000000
 31
0.0000000000000000
  0
LINE
  5
5D
100
AcDbEntity
  8
MAIN0
  6
HIDDEN
 62
3
100
AcDbLine
 10
230.6666666665485
 20
402.1000000000000
 30
0.0000000000000000
 11
314.6666666665486
 21
402.1000000000000
 31
0.0000000000000000
  0
POINT
  5
5E
100
AcDbEntity
  8
MAIN0
  6
CONTINUOUS
 62
3
100
AcDbPoint
 10
333.3333333332018
 20
411.1000000000000
 30
0.0000000000000000
  0
ARC
  5
5F
100
AcDbEntity
  8
MAIN0
  6
CONTINUOUS
 62
3
100
AcDbCircle
 10
235.3333333331095
 20
348.6666666666666
 30
0.0000000000000000
 40
2.000000000000000
100
AcDbArc
 50
270.0000000000000
 51
360.0000000000000
  0
ARC
  5
60
100
AcDbEntity
  8
MAIN0
  6
CONTINUOUS
 62
3
100
AcDbCircle
 10
232.6666666664232
 20
335.3333333333333
 30
0.0000000000000000
 40
2.000000000000000
100
AcDbArc
 50
180.0000000000000
 51
270.0000000000000
  0
LINE
  5
61
100
AcDbEntity
  8
MAIN0
  6
CONTINUOUS
 62
3
100
AcDbLine
 10
253.3333333320372
 20
431.3333333333333
 30
0.0000000000000000
 11
248.6027082376999
 21
431.3333333333333
 31
0.0000000000000000
  0
LINE
  5
62
100
AcDbEntity
  8
MAIN0
  6
CONTINUOUS
 62
3
100
AcDbLine
 10
230.6666666665618
 20
429.0913333348181
 30
0.0000000000000000
 11
248.6027082377195
 21
431.3333333333358
 31
0.0000000000000000
  0
LINE
  5
63
100
AcDbEntity
  8
MAIN0
  6
CONTINUOUS
 62
3
100
AcDbLine
 10
253.3333333320372
 20
431.3333333333333
 30
0.0000000000000000
 11
253.3333333319357
 21
500.0000000000000
 31
0.0000000000000000
  0
POINT
  5
64
100
AcDbEntity
  8
MAIN0
  6
CONTINUOUS
 62
3
100
AcDbPoint
 10
230.6666666546839
 20
429.0913333333333
 30
0.0000000000000000
  0
POINT
  5
65
100
AcDbEntity
  8
MAIN0
  6
CONTINUOUS
 62
3
100
AcDbPoint
 10
290.0000000000000
 20
500.0000000000640
 30
0.0000000000000000
  0
ARC
  5
66
100
AcDbEntity
  8
MAIN0
  6
CONTINUOUS
 62
3
100
AcDbCircle
 10
331.3333333330899
 20
335.3333333333333
 30
0.0000000000000000
 40
2.000000000000000
100
AcDbArc
 50
270.0000000000000
 51
360.0000000000000
  0
LINE
  5
67
100
AcDbEntity
  8
MAIN0
  6
HIDDEN
 62
3
100
AcDbLine
 10
235.3333333331095
 20
346.6666666666666
 30
0.0000000000000000
 11
249.4418270024931
 21
346.6666666666666
 31
0.0000000000000000
  0
LINE
  5
68
100
AcDbEntity
  8
MAIN0
  6
CONTINUOUS
 62
3
100
AcDbLine
 10
230.6666666664232
 20
664.6666666666637
 30
0.0000000000000000
 11
230.6666666666667
 21
499.9999999999999
 31
0.0000000000000000
  0
LINE
  5
69
100
AcDbEntity
  8
MAIN0
  6
CONTINUOUS
 62
3
100
AcDbLine
 10
232.6666666664232
 20
666.6666666666666
 30
0.0000000000000000
 11
331.3333333330899
 21
666.6666666666666
 31
0.0000000000000000
  0
ARC
  5
6A
100
AcDbEntity
  8
MAIN0
  6
CONTINUOUS
 62
3
100
AcDbCircle
 10
232.6666666664232
 20
664.6666666666666
 30
0.0000000000000000
 40
2.000000000000000
100
AcDbArc
 50
90.00000000000000
 51
180.0000000000000
  0
ARC
  5
6B
100
AcDbEntity
  8
MAIN0
  6
CONTINUOUS
 62
3
100
AcDbCircle
 10
331.3333333330899
 20
664.6666666666666
 30
0.0000000000000000
 40
2.000000000000000
100
AcDbArc
 50
0.0000000000000000
 51
90.00000000000000
  0
LINE
  5
6C
100
AcDbEntity
  8
MAIN0
  6
CONTINUOUS
 62
3
100
AcDbLine
 10
230.6666666665030
 20
610.6666666666666
 30
0.0000000000000000
 11
254.3088987546462
 21
610.6666666666666
 31
0.0000000000000000
  0
LINE
  5
6D
100
AcDbEntity
  8
MAIN0
  6
CONTINUOUS
 62
3
100
AcDbLine
 10
230.6666666665544
 20
576.0000000000000
 30
0.0000000000000000
 11
263.7166229691583
 21
576.0000000000000
 31
0.0000000000000000
  0
LINE
  5
6E
100
AcDbEntity
  8
MAIN0
  6
CENTER
 62
3
100
AcDbLine
 10
222.3279069516996
 20
593.3333333333333
 30
0.0000000000000000
 11
266.6666666666667
 21
593.3333333333333
 31
0.0000000000000000
  0
POINT
  5
6F
100
AcDbEntity
  8
MAIN0
  6
CONTINUOUS
 62
3
100
AcDbPoint
 10
289.9999999998619
 20
593.3333333333333
 30
0.0000000000000000
  0
LINE
  5
70
100
AcDbEntity
  8
MAIN0
  6
CONTINUOUS
 62
3
100
AcDbLine
 10
230.6666666664400
 20
653.3333333333333
 30
0.0000000000000000
 11
233.3333333344737
 21
653.3333333333333
 31
0.0000000000000000
  0
LINE
  5
71
100
AcDbEntity
  8
MAIN0
  6
CONTINUOUS
 62
3
100
AcDbLine
 10
230.6666666664794
 20
626.6666666666666
 30
0.0000000000000000
 11
233.3333333344185
 21
626.6666666666666
 31
0.0000000000000000
  0
LINE
  5
72
100
AcDbEntity
  8
MAIN0
  6
CONTINUOUS
 62
3
100
AcDbLine
 10
237.3333333344185
 20
630.6666666666548
 30
0.0000000000000000
 11
237.3333333344737
 21
649.3333333333214
 31
0.0000000000000000
  0
ARC
  5
73
100
AcDbEntity
  8
MAIN0
  6
CONTINUOUS
 62
3
100
AcDbCircle
 10
233.3333333344737
 20
649.3333333333333
 30
0.0000000000000000
 40
4.000000000000000
100
AcDbArc
 50
0.0000000000000000
 51
90.00000000000000
  0
ARC
  5
74
100
AcDbEntity
  8
MAIN0
  6
CONTINUOUS
 62
3
100
AcDbCircle
 10
233.3333333344185
 20
630.6666666666666
 30
0.0000000000000000
 40
4.000000000000000
100
AcDbArc
 50
270.0000000000000
 51
360.0000000000000
  0
LINE
  5
75
100
AcDbEntity
  8
MAIN0
  6
CONTINUOUS
 62
3
100
AcDbLine
 10
258.6666666666037
 20
457.3333333333333
 30
0.0000000000000000
 11
258.6666666666667
 21
499.9999999999586
 31
0.0000000000000000
  0
LINE
  5
76
100
AcDbEntity
  8
MAIN0
  6
CONTINUOUS
 62
3
100
AcDbLine
 10
254.6666666653321
 20
457.3333333333333
 30
0.0000000000000000
 11
258.6666666666035
 21
457.3333333333333
 31
0.0000000000000000
  0
LINE
  5
77
100
AcDbEntity
  8
MAIN0
  6
CONTINUOUS
 62
3
100
AcDbLine
 10
253.3333333320008
 20
456.0000000000001
 30
0.0000000000000000
 11
254.6666666653322
 21
457.3333333333334
 31
0.0000000000000000
  0
LINE
  5
78
100
AcDbEntity
  8
MAIN0
  6
CONTINUOUS
 62
3
100
AcDbLine
 10
253.3333333320372
 20
568.6666666666666
 30
0.0000000000000000
 11
248.6027082376999
 21
568.6666666666666
 31
0.0000000000000000
  0
LINE
  5
79
100
AcDbEntity
  8
MAIN0
  6
CONTINUOUS
 62
3
100
AcDbLine
 10
230.6666666546840
 20
570.9086666666667
 30
0.0000000000000000
 11
248.6027082377197
 21
568.6666666666641
 31
0.0000000000000000
  0
LINE
  5
7A
100
AcDbEntity
  8
MAIN0
  6
CONTINUOUS
 62
3
100
AcDbLine
 10
253.3333333320372
 20
568.6666666666666
 30
0.0000000000000000
 11
253.3333333319357
 21
499.9999999999999
 31
0.0000000000000000
  0
POINT
  5
7B
100
AcDbEntity
  8
MAIN0
  6
CONTINUOUS
 62
3
100
AcDbPoint
 10
230.6666666546839
 20
570.9086666666667
 30
0.0000000000000000
  0
LINE
  5
7C
100
AcDbEntity
  8
MAIN0
  6
CONTINUOUS
 62
3
100
AcDbLine
 10
258.6666666666037
 20
542.6666666666666
 30
0.0000000000000000
 11
258.6666666666667
 21
500.0000000000414
 31
0.0000000000000000
  0
LINE
  5
7D
100
AcDbEntity
  8
MAIN0
  6
CONTINUOUS
 62
3
100
AcDbLine
 10
254.6666666653321
 20
542.6666666666666
 30
0.0000000000000000
 11
258.6666666666035
 21
542.6666666666666
 31
0.0000000000000000
  0
LINE
  5
7E
100
AcDbEntity
  8
MAIN0
  6
CONTINUOUS
 62
3
100
AcDbLine
 10
253.3333333320007
 20
543.9999999999999
 30
0.0000000000000000
 11
254.6666666653321
 21
542.6666666666666
 31
0.0000000000000000
  0
POINT
  5
7F
100
AcDbEntity
  8
MAIN0
  6
CONTINUOUS
 62
3
100
AcDbPoint
 10
290.0000000000000
 20
499.9999999999359
 30
0.0000000000000000
  0
LINE
  5
80
100
AcDbEntity
  8
MAIN0
  6
HIDDEN
 62
3
100
AcDbLine
 10
272.6666666662644
 20
666.6666666666666
 30
0.0000000000000000
 11
272.6666666662699
 21
662.9748726750272
 31
0.0000000000000000
  0
LINE
  5
81
100
AcDbEntity
  8
MAIN0
  6
HIDDEN
 62
3
100
AcDbLine
 10
303.3219993184007
 20
663.3333333333330
 30
0.0000000000000000
 11
298.7031971648619
 21
660.6666666666667
 31
0.0000000000000000
  0
LINE
  5
82
100
AcDbEntity
  8
MAIN0
  6
HIDDEN
 62
3
100
AcDbLine
 10
276.6780006811164
 20
663.3333333332936
 30
0.0000000000000000
 11
281.2968028346630
 21
660.6666666666411
 31
0.0000000000000000
  0
POINT
  5
83
100
AcDbEntity
  8
MAIN0
  6
CONTINUOUS
 62
3
100
AcDbPoint
 10
238.6666666666667
 20
499.9999999999901
 30
0.0000000000000000
  0
LINE
  5
84
100
AcDbEntity
  8
MAIN0
  6
CONTINUOUS
 62
3
100
AcDbLine
 10
333.3333333333037
 20
520.0000000000000
 30
0.0000000000000000
 11
379.9999999998146
 21
520.0000000000000
 31
0.0000000000000000
  0
LINE
  5
85
100
AcDbEntity
  8
MAIN0
  6
CONTINUOUS
 62
3
100
AcDbLine
 10
333.3333333333037
 20
480.0000000000000
 30
0.0000000000000000
 11
379.9999999998736
 21
480.0000000000000
 31
0.0000000000000000
  0
LINE
  5
86
100
AcDbEntity
  8
MAIN0
  6
CONTINUOUS
 62
3
100
AcDbLine
 10
379.9999999998145
 20
520.0000000000000
 30
0.0000000000000000
 11
379.9999999998736
 21
480.0000000000000
 31
0.0000000000000000
  0
LINE
  5
87
100
AcDbEntity
  8
MAIN0
  6
CENTER
 62
3
100
AcDbLine
 10
373.3333333331638
 20
509.1651814436998
 30
0.0000000000000000
 11
373.3333333331906
 21
491.0989644242276
 31
0.0000000000000000
  0
LINE
  5
88
100
AcDbEntity
  8
MAIN0
  6
CENTER
 62
3
100
AcDbLine
 10
367.9999999998305
 20
509.1651814436919
 30
0.0000000000000000
 11
367.9999999998572
 21
491.0989644242197
 31
0.0000000000000000
  0
LINE
  5
89
100
AcDbEntity
  8
MAIN0
  6
CENTER
 62
3
100
AcDbLine
 10
362.6666666664971
 20
509.1651814436840
 30
0.0000000000000000
 11
362.6666666665239
 21
491.0989644242119
 31
0.0000000000000000
  0
LINE
  5
8A
100
AcDbEntity
  8
MAIN0
  6
CENTER
 62
3
100
AcDbLine
 10
357.3333333331638
 20
509.1651814436762
 30
0.0000000000000000
 11
357.3333333331906
 21
491.0989644242040
 31
0.0000000000000000
  0
LINE
  5
8B
100
AcDbEntity
  8
MAIN0
  6
CENTER
 62
3
100
AcDbLine
 10
351.9999999998305
 20
509.1651814436683
 30
0.0000000000000000
 11
351.9999999998572
 21
491.0989644241961
 31
0.0000000000000000
  0
LINE
  5
8C
100
AcDbEntity
  8
MAIN0
  6
CENTER
 62
3
100
AcDbLine
 10
346.6666666664971
 20
509.1651814436603
 30
0.0000000000000000
 11
346.6666666665239
 21
491.0989644241882
 31
0.0000000000000000
  0
LINE
  5
8D
100
AcDbEntity
  8
MAIN0
  6
CONTINUOUS
 62
3
100
AcDbLine
 10
374.1333333331676
 20
506.6666666666665
 30
0.0000000000000000
 11
374.1333333331872
 21
493.3333333305036
 31
0.0000000000000000
  0
LINE
  5
8E
100
AcDbEntity
  8
MAIN0
  6
CONTINUOUS
 62
3
100
AcDbLine
 10
372.5333333331675
 20
506.6666666582115
 30
0.0000000000000000
 11
372.5333333331872
 21
493.3333333326449
 31
0.0000000000000000
  0
LINE
  5
8F
100
AcDbEntity
  8
MAIN0
  6
CONTINUOUS
 62
3
100
AcDbLine
 10
373.3333333356076
 20
508.0523073084908
 30
0.0000000000000000
 11
374.1333333331675
 21
506.6666666666666
 31
0.0000000000000000
  0
LINE
  5
90
100
AcDbEntity
  8
MAIN0
  6
CONTINUOUS
 62
3
100
AcDbLine
 10
372.5333333331873
 20
493.3333333326447
 30
0.0000000000000000
 11
373.3333333338041
 21
491.9476926855187
 31
0.0000000000000000
  0
LINE
  5
91
100
AcDbEntity
  8
MAIN0
  6
CONTINUOUS
 62
3
100
AcDbLine
 10
373.3333333356073
 20
508.0523073084909
 30
0.0000000000000000
 11
372.5333333331675
 21
506.6666666582115
 31
0.0000000000000000
  0
LINE
  5
92
100
AcDbEntity
  8
MAIN0
  6
CONTINUOUS
 62
3
100
AcDbLine
 10
374.1333333331872
 20
493.3333333305037
 30
0.0000000000000000
 11
373.3333333338038
 21
491.9476926855182
 31
0.0000000000000000
  0
LINE
  5
93
100
AcDbEntity
  8
MAIN0
  6
CONTINUOUS
 62
3
100
AcDbLine
 10
368.0000000022740
 20
508.0523073084909
 30
0.0000000000000000
 11
367.1999999998342
 21
506.6666666582115
 31
0.0000000000000000
  0
LINE
  5
94
100
AcDbEntity
  8
MAIN0
  6
CONTINUOUS
 62
3
100
AcDbLine
 10
368.0000000022742
 20
508.0523073084908
 30
0.0000000000000000
 11
368.7999999998341
 21
506.6666666666666
 31
0.0000000000000000
  0
LINE
  5
95
100
AcDbEntity
  8
MAIN0
  6
CONTINUOUS
 62
3
100
AcDbLine
 10
368.7999999998342
 20
506.6666666666665
 30
0.0000000000000000
 11
368.7999999998539
 21
493.3333333305036
 31
0.0000000000000000
  0
LINE
  5
96
100
AcDbEntity
  8
MAIN0
  6
CONTINUOUS
 62
3
100
AcDbLine
 10
367.1999999998342
 20
506.6666666582115
 30
0.0000000000000000
 11
367.1999999998538
 21
493.3333333326449
 31
0.0000000000000000
  0
LINE
  5
97
100
AcDbEntity
  8
MAIN0
  6
CONTINUOUS
 62
3
100
AcDbLine
 10
367.1999999998540
 20
493.3333333326447
 30
0.0000000000000000
 11
368.0000000004707
 21
491.9476926855187
 31
0.0000000000000000
  0
LINE
  5
98
100
AcDbEntity
  8
MAIN0
  6
CONTINUOUS
 62
3
100
AcDbLine
 10
368.7999999998539
 20
493.3333333305037
 30
0.0000000000000000
 11
368.0000000004704
 21
491.9476926855182
 31
0.0000000000000000
  0
LINE
  5
99
100
AcDbEntity
  8
MAIN0
  6
CENTER
 62
3
100
AcDbLine
 10
341.3333333331638
 20
509.1651814436525
 30
0.0000000000000000
 11
341.3333333331906
 21
491.0989644241803
 31
0.0000000000000000
  0
LINE
  5
9A
100
AcDbEntity
  8
MAIN0
  6
CENTER
 62
3
100
AcDbLine
 10
335.9999999998305
 20
509.1651814436446
 30
0.0000000000000000
 11
335.9999999998572
 21
491.0989644241724
 31
0.0000000000000000
  0
LINE
  5
9B
100
AcDbEntity
  8
MAIN0
  6
CONTINUOUS
 62
3
100
AcDbLine
 10
341.4666666784357
 20
666.6666666666666
 30
0.0000000000000000
 11
408.6666666666667
 21
666.6666666666666
 31
0.0000000000000000
  0
LINE
  5
9C
100
AcDbEntity
  8
MAIN0
  6
CONTINUOUS
 62
3
100
AcDbLine
 10
406.6666666666667
 20
666.6666666666666
 30
0.0000000000000000
 11
406.6666666666667
 21
618.6666666666666
 31
0.0000000000000000
  0
LINE
  5
9D
100
AcDbEntity
  8
MAIN0
  6
CONTINUOUS
 62
3
100
AcDbLine
 10
407.8666667143504
 20
662.6666666666666
 30
0.0000000000000000
 11
406.6666666666667
 21
666.6666666666666
 31
0.0000000000000000
  0
LINE
  5
9E
100
AcDbEntity
  8
MAIN0
  6
CONTINUOUS
 62
3
100
AcDbLine
 10
406.6666666666667
 20
666.6666666666666
 30
0.0000000000000000
 11
405.4666666189830
 21
662.6666666666666
 31
0.0000000000000000
  0
LINE
  5
9F
100
AcDbEntity
  8
MAIN0
  6
CONTINUOUS
 62
3
100
AcDbLine
 10
407.8666667143504
 20
622.6666666666666
 30
0.0000000000000000
 11
406.6666666666667
 21
618.6666666666666
 31
0.0000000000000000
  0
LINE
  5
A0
100
AcDbEntity
  8
MAIN0
  6
CONTINUOUS
 62
3
100
AcDbLine
 10
406.6666666666667
 20
618.6666666666666
 30
0.0000000000000000
 11
405.4666666189830
 21
622.6666666666666
 31
0.0000000000000000
  0
MTEXT
  5
A1
100
AcDbEntity
  8
MAIN0
  6
CONTINUOUS
 62
3
100
AcDbMText
 10
405.6666666666667
 20
642.6666666666666
 30
0.0000000000000000
 40
6.199999809265137
 41
0.0000000000000000
 71
     8
 72
     1
  1
{\H0.69x;{36}}
 11
6.123233995736766e-017
 21
1.000000000000000
 31
0.0000000000000000
  7
STANDARD
  0
LINE
  5
A2
100
AcDbEntity
  8
MAIN0
  6
CONTINUOUS
 62
3
100
AcDbLine
 10
360.1333333451024
 20
618.6666666666666
 30
0.0000000000000000
 11
408.6666666666667
 21
618.6666666666666
 31
0.0000000000000000
  0
LINE
  5
A3
100
AcDbEntity
  8
MAIN0
  6
CONTINUOUS
 62
3
100
AcDbLine
 10
406.6666666666667
 20
618.6666666666666
 30
0.0000000000000000
 11
406.6666666666667
 21
581.3333333333333
 31
0.0000000000000000
  0
LINE
  5
A4
100
AcDbEntity
  8
MAIN0
  6
CONTINUOUS
 62
3
100
AcDbLine
 10
407.8666667143504
 20
614.6666666666666
 30
0.0000000000000000
 11
406.6666666666667
 21
618.6666666666666
 31
0.0000000000000000
  0
LINE
  5
A5
100
AcDbEntity
  8
MAIN0
  6
CONTINUOUS
 62
3
100
AcDbLine
 10
406.6666666666667
 20
618.6666666666666
 30
0.0000000000000000
 11
405.4666666189830
 21
614.6666666666666
 31
0.0000000000000000
  0
LINE
  5
A6
100
AcDbEntity
  8
MAIN0
  6
CONTINUOUS
 62
3
100
AcDbLine
 10
407.8666667143504
 20
585.3333333333333
 30
0.0000000000000000
 11
406.6666666666667
 21
581.3333333333333
 31
0.0000000000000000
  0
LINE
  5
A7
100
AcDbEntity
  8
MAIN0
  6
CONTINUOUS
 62
3
100
AcDbLine
 10
406.6666666666667
 20
581.3333333333333
 30
0.0000000000000000
 11
405.4666666189830
 21
585.3333333333333
 31
0.0000000000000000
  0
MTEXT
  5
A8
100
AcDbEntity
  8
MAIN0
  6
CONTINUOUS
 62
3
100
AcDbMText
 10
405.6666666666667
 20
600.0000000000000
 30
0.0000000000000000
 40
6.199999809265137
 41
0.0000000000000000
 71
     8
 72
     1
  1
{\H0.69x;{28}}
 11
6.123233995736766e-017
 21
1.000000000000000
 31
0.0000000000000000
  7
STANDARD
  0
LINE
  5
A9
100
AcDbEntity
  8
MAIN0
  6
CONTINUOUS
 62
3
100
AcDbLine
 10
379.4666666784357
 20
581.3333333333333
 30
0.0000000000000000
 11
408.6666666666667
 21
581.3333333333333
 31
0.0000000000000000
  0
LINE
  5
AA
100
AcDbEntity
  8
MAIN0
  6
CONTINUOUS
 62
3
100
AcDbLine
 10
406.6666666666667
 20
581.3333333333333
 30
0.0000000000000000
 11
406.6666666666667
 21
546.6666666666666
 31
0.0000000000000000
  0
LINE
  5
AB
100
AcDbEntity
  8
MAIN0
  6
CONTINUOUS
 62
3
100
AcDbLine
 10
407.8666667143504
 20
577.3333333333333
 30
0.0000000000000000
 11
406.6666666666667
 21
581.3333333333333
 31
0.0000000000000000
  0
LINE
  5
AC
100
AcDbEntity
  8
MAIN0
  6
CONTINUOUS
 62
3
100
AcDbLine
 10
406.6666666666667
 20
581.3333333333333
 30
0.0000000000000000
 11
405.4666666189830
 21
577.3333333333333
 31
0.0000000000000000
  0
LINE
  5
AD
100
AcDbEntity
  8
MAIN0
  6
CONTINUOUS
 62
3
100
AcDbLine
 10
407.8666667143504
 20
550.6666666666666
 30
0.0000000000000000
 11
406.6666666666667
 21
546.6666666666666
 31
0.0000000000000000
  0
LINE
  5
AE
100
AcDbEntity
  8
MAIN0
  6
CONTINUOUS
 62
3
100
AcDbLine
 10
406.6666666666667
 20
546.6666666666666
 30
0.0000000000000000
 11
405.4666666189830
 21
550.6666666666666
 31
0.0000000000000000
  0
MTEXT
  5
AF
100
AcDbEntity
  8
MAIN0
  6
CONTINUOUS
 62
3
100
AcDbMText
 10
405.6666666666667
 20
564.0000000000000
 30
0.0000000000000000
 40
6.199999809265137
 41
0.0000000000000000
 71
     8
 72
     1
  1
{\H0.69x;{26}}
 11
6.123233995736766e-017
 21
1.000000000000000
 31
0.0000000000000000
  7
STANDARD
  0
LINE
  5
B0
100
AcDbEntity
  8
MAIN0
  6
CONTINUOUS
 62
3
100
AcDbLine
 10
379.4666666784357
 20
546.6666666666666
 30
0.0000000000000000
 11
408.6666666666667
 21
546.6666666666666
 31
0.0000000000000000
  0
LINE
  5
B1
100
AcDbEntity
  8
MAIN0
  6
CONTINUOUS
 62
3
100
AcDbLine
 10
341.4666666784357
 20
666.6666666666666
 30
0.0000000000000000
 11
435.3333333333334
 21
666.6666666666666
 31
0.0000000000000000
  0
LINE
  5
B2
100
AcDbEntity
  8
MAIN0
  6
CONTINUOUS
 62
3
100
AcDbLine
 10
433.3333333333334
 20
666.6666666666666
 30
0.0000000000000000
 11
433.3333333333334
 21
546.6666666666666
 31
0.0000000000000000
  0
LINE
  5
B3
100
AcDbEntity
  8
MAIN0
  6
CONTINUOUS
 62
3
100
AcDbLine
 10
434.5333333810171
 20
662.6666666666666
 30
0.0000000000000000
 11
433.3333333333334
 21
666.6666666666666
 31
0.0000000000000000
  0
LINE
  5
B4
100
AcDbEntity
  8
MAIN0
  6
CONTINUOUS
 62
3
100
AcDbLine
 10
433.3333333333334
 20
666.6666666666666
 30
0.0000000000000000
 11
432.1333332856497
 21
662.6666666666666
 31
0.0000000000000000
  0
LINE
  5
B5
100
AcDbEntity
  8
MAIN0
  6
CONTINUOUS
 62
3
100
AcDbLine
 10
434.5333333810171
 20
550.6666666666666
 30
0.0000000000000000
 11
433.3333333333334
 21
546.6666666666666
 31
0.0000000000000000
  0
LINE
  5
B6
100
AcDbEntity
  8
MAIN0
  6
CONTINUOUS
 62
3
100
AcDbLine
 10
433.3333333333334
 20
546.6666666666666
 30
0.0000000000000000
 11
432.1333332856497
 21
550.6666666666666
 31
0.0000000000000000
  0
MTEXT
  5
B7
100
AcDbEntity
  8
MAIN0
  6
CONTINUOUS
 62
3
100
AcDbMText
 10
432.3333333333334
 20
606.6666666666666
 30
0.0000000000000000
 40
6.199999809265137
 41
0.0000000000000000
 71
     8
 72
     1
  1
{\H0.69x;{90}}
 11
6.123233995736766e-017
 21
1.000000000000000
 31
0.0000000000000000
  7
STANDARD
  0
LINE
  5
B8
100
AcDbEntity
  8
MAIN0
  6
CONTINUOUS
 62
3
100
AcDbLine
 10
379.4666666784357
 20
546.6666666666666
 30
0.0000000000000000
 11
435.3333333333334
 21
546.6666666666666
 31
0.0000000000000000
  0
LINE
  5
B9
100
AcDbEntity
  8
MAIN0
  6
CONTINUOUS
 62
3
100
AcDbLine
 10
380.8000000117355
 20
520.0000000000000
 30
0.0000000000000000
 11
435.3333333333334
 21
520.0000000000000
 31
0.0000000000000000
  0
LINE
  5
BA
100
AcDbEntity
  8
MAIN0
  6
CONTINUOUS
 62
3
100
AcDbLine
 10
433.3333333333334
 20
520.0000000000000
 30
0.0000000000000000
 11
433.3333333333334
 21
480.0000000000000
 31
0.0000000000000000
  0
LINE
  5
BB
100
AcDbEntity
  8
MAIN0
  6
CONTINUOUS
 62
3
100
AcDbLine
 10
434.5333333810171
 20
516.0000000000000
 30
0.0000000000000000
 11
433.3333333333334
 21
520.0000000000000
 31
0.0000000000000000
  0
LINE
  5
BC
100
AcDbEntity
  8
MAIN0
  6
CONTINUOUS
 62
3
100
AcDbLine
 10
433.3333333333334
 20
520.0000000000000
 30
0.0000000000000000
 11
432.1333332856497
 21
516.0000000000000
 31
0.0000000000000000
  0
LINE
  5
BD
100
AcDbEntity
  8
MAIN0
  6
CONTINUOUS
 62
3
100
AcDbLine
 10
434.5333333810171
 20
484.0000000000000
 30
0.0000000000000000
 11
433.3333333333334
 21
480.0000000000000
 31
0.0000000000000000
  0
LINE
  5
BE
100
AcDbEntity
  8
MAIN0
  6
CONTINUOUS
 62
3
100
AcDbLine
 10
433.3333333333334
 20
480.0000000000000
 30
0.0000000000000000
 11
432.1333332856497
 21
484.0000000000000
 31
0.0000000000000000
  0
MTEXT
  5
BF
100
AcDbEntity
  8
MAIN0
  6
CONTINUOUS
 62
3
100
AcDbMText
 10
432.3333333333334
 20
500.0000000000000
 30
0.0000000000000000
 40
6.199999809265137
 41
0.0000000000000000
 71
     8
 72
     1
  1
{\H0.69x;{30}}
 11
6.123233995736766e-017
 21
1.000000000000000
 31
0.0000000000000000
  7
STANDARD
  0
LINE
  5
C0
100
AcDbEntity
  8
MAIN0
  6
CONTINUOUS
 62
3
100
AcDbLine
 10
380.8000000117945
 20
480.0000000000000
 30
0.0000000000000000
 11
435.3333333333334
 21
480.0000000000000
 31
0.0000000000000000
  0
LINE
  5
C1
100
AcDbEntity
  8
MAIN0
  6
CONTINUOUS
 62
3
100
AcDbLine
 10
374.1333333331676
 20
506.6666666666666
 30
0.0000000000000000
 11
379.9999999998342
 21
506.6666666666666
 31
0.0000000000000000
  0
LINE
  5
C2
100
AcDbEntity
  8
MAIN0
  6
CONTINUOUS
 62
3
100
AcDbLine
 10
333.3333333332313
 20
506.6666666666666
 30
0.0000000000000000
 11
367.1999999998342
 21
506.6666666666666
 31
0.0000000000000000
  0
LINE
  5
C3
100
AcDbEntity
  8
MAIN0
  6
CONTINUOUS
 62
3
100
AcDbLine
 10
368.7999999998342
 20
506.6666666666666
 30
0.0000000000000000
 11
372.5333333331675
 21
506.6666666666666
 31
0.0000000000000000
  0
LINE
  5
C4
100
AcDbEntity
  8
MAIN0
  6
CONTINUOUS
 62
3
100
AcDbLine
 10
333.3333333332204
 20
493.3333333333333
 30
0.0000000000000000
 11
367.1999999998538
 21
493.3333333333333
 31
0.0000000000000000
  0
LINE
  5
C5
100
AcDbEntity
  8
MAIN0
  6
CONTINUOUS
 62
3
100
AcDbLine
 10
368.7999999998539
 20
493.3333333333333
 30
0.0000000000000000
 11
372.5333333327898
 21
493.3333333333333
 31
0.0000000000000000
  0
LINE
  5
C6
100
AcDbEntity
  8
MAIN0
  6
CONTINUOUS
 62
3
100
AcDbLine
 10
374.1333333348210
 20
493.3333333333333
 30
0.0000000000000000
 11
379.9999999998540
 21
493.3333333333333
 31
0.0000000000000000
  0
ARC
  5
C7
100
AcDbEntity
  8
MAIN0
  6
CONTINUOUS
 62
3
100
AcDbCircle
 10
941.3333333333333
 20
666.6666666667189
 30
0.0000000000000000
 40
8.000000000000000
100
AcDbArc
 50
90.00000000000000
 51
270.0000000000000
  0
ARC
  5
C8
100
AcDbEntity
  8
MAIN0
  6
CONTINUOUS
 62
3
100
AcDbCircle
 10
1125.333333333333
 20
666.6666666666145
 30
0.0000000000000000
 40
8.000000000000000
100
AcDbArc
 50
270.0000000000000
 51
450.0000000000000
  0
POINT
  5
C9
100
AcDbEntity
  8
MAIN0
  6
CONTINUOUS
 62
3
100
AcDbPoint
 10
1133.333333333343
 20
666.6666666666145
 30
0.0000000000000000
  0
POINT
  5
CA
100
AcDbEntity
  8
MAIN0
  6
CONTINUOUS
 62
3
100
AcDbPoint
 10
933.3333333333434
 20
666.6666666667189
 30
0.0000000000000000
  0
LINE
  5
CB
100
AcDbEntity
  8
MAIN0
  6
CONTINUOUS
 62
3
100
AcDbLine
 10
1019.999999999985
 20
686.6666666666736
 30
0.0000000000000000
 11
1046.666666666652
 21
686.6666666666597
 31
0.0000000000000000
  0
LINE
  5
CC
100
AcDbEntity
  8
MAIN0
  6
CONTINUOUS
 62
3
100
AcDbLine
 10
1046.666666666652
 20
686.6666666666597
 30
0.0000000000000000
 11
1049.333333333321
 21
683.9999999999917
 31
0.0000000000000000
  0
LINE
  5
CD
100
AcDbEntity
  8
MAIN0
  6
CONTINUOUS
 62
3
100
AcDbLine
 10
1019.999999999985
 20
686.6666666666736
 30
0.0000000000000000
 11
1017.333333333321
 21
684.0000000000084
 31
0.0000000000000000
  0
LINE
  5
CE
100
AcDbEntity
  8
MAIN0
  6
CONTINUOUS
 62
3
100
AcDbLine
 10
1045.333333333439
 20
523.9999999999938
 30
0.0000000000000000
 11
1045.333333333357
 21
635.1045076251454
 31
0.0000000000000000
  0
LINE
  5
CF
100
AcDbEntity
  8
MAIN0
  6
CONTINUOUS
 62
3
100
AcDbLine
 10
1021.333333333439
 20
524.0000000000064
 30
0.0000000000000000
 11
1021.333333333357
 21
635.1045076251414
 31
0.0000000000000000
  0
LINE
  5
D0
100
AcDbEntity
  8
MAIN0
  6
CONTINUOUS
 62
3
100
AcDbLine
 10
1025.563469502044
 20
486.6666666666708
 30
0.0000000000000000
 11
1041.103197164952
 21
486.6666666666627
 31
0.0000000000000000
  0
LINE
  5
D1
100
AcDbEntity
  8
MAIN0
  6
CONTINUOUS
 62
3
100
AcDbLine
 10
1042.036530498066
 20
448.5968592719108
 30
0.0000000000000000
 11
1034.058226584734
 21
456.5751631852231
 31
0.0000000000000000
  0
LINE
  5
D2
100
AcDbEntity
  8
MAIN0
  6
CONTINUOUS
 62
3
100
AcDbLine
 10
1032.608440082257
 20
439.1687688560784
 30
0.0000000000000000
 11
1024.630136168924
 21
447.1470727693909
 31
0.0000000000000000
  0
LINE
  5
D3
100
AcDbEntity
  8
MAIN0
  6
CONTINUOUS
 62
3
100
AcDbLine
 10
1032.608440082623
 20
456.5751631852535
 30
0.0000000000000000
 11
1024.630136168889
 21
448.5968592714832
 31
0.0000000000000000
  0
LINE
  5
D4
100
AcDbEntity
  8
MAIN0
  6
CONTINUOUS
 62
3
100
AcDbLine
 10
1042.036530498035
 20
447.1470727690244
 30
0.0000000000000000
 11
1034.058226585161
 21
439.1687688561140
 31
0.0000000000000000
  0
ARC
  5
D5
100
AcDbEntity
  8
MAIN0
  6
CONTINUOUS
 62
3
100
AcDbCircle
 10
1033.333333333495
 20
447.8719660206508
 30
0.0000000000000000
 40
8.733333333333334
100
AcDbArc
 50
355.2387981234409
 51
364.7612018741471
  0
ARC
  5
D6
100
AcDbEntity
  8
MAIN0
  6
CONTINUOUS
 62
3
100
AcDbCircle
 10
1033.333333333495
 20
447.8719660206508
 30
0.0000000000000000
 40
8.733333333333334
100
AcDbArc
 50
265.2387981259951
 51
274.7612018768213
  0
ARC
  5
D7
100
AcDbEntity
  8
MAIN0
  6
CONTINUOUS
 62
3
100
AcDbCircle
 10
1033.333333333495
 20
447.8719660206508
 30
0.0000000000000000
 40
8.733333333333334
100
AcDbArc
 50
85.23879812599388
 51
94.76120187159468
  0
ARC
  5
D8
100
AcDbEntity
  8
MAIN0
  6
CONTINUOUS
 62
3
100
AcDbCircle
 10
1033.333333333495
 20
447.8719660206508
 30
0.0000000000000000
 40
8.733333333333334
100
AcDbArc
 50
175.2387981286674
 51
184.7612018741459
  0
LINE
  5
D9
100
AcDbEntity
  8
MAIN0
  6
CONTINUOUS
 62
3
100
AcDbLine
 10
1042.036530498287
 20
487.5999999999955
 30
0.0000000000000000
 11
1042.036530498313
 21
505.5395000025787
 31
0.0000000000000000
  0
LINE
  5
DA
100
AcDbEntity
  8
MAIN0
  6
CONTINUOUS
 62
3
100
AcDbLine
 10
1024.630136168711
 20
487.6000000000046
 30
0.0000000000000000
 11
1024.630136168711
 21
505.5395000024082
 31
0.0000000000000000
  0
LINE
  5
DB
100
AcDbEntity
  8
MAIN0
  6
CONTINUOUS
 62
3
100
AcDbLine
 10
1032.608440082980
 20
486.6666666666671
 30
0.0000000000000000
 11
1032.608440082980
 21
504.0000000000005
 31
0.0000000000000000
  0
LINE
  5
DC
100
AcDbEntity
  8
MAIN0
  6
CONTINUOUS
 62
3
100
AcDbLine
 10
1034.058226584606
 20
486.6666666666663
 30
0.0000000000000000
 11
1034.058226584606
 21
503.9999999999998
 31
0.0000000000000000
  0
LINE
  5
DD
100
AcDbEntity
  8
MAIN0
  6
CONTINUOUS
 62
3
100
AcDbLine
 10
1042.036530498295
 20
503.9999999999955
 30
0.0000000000000000
 11
1034.058226584606
 21
486.6666666666663
 31
0.0000000000000000
  0
LINE
  5
DE
100
AcDbEntity
  8
MAIN0
  6
CONTINUOUS
 62
3
100
AcDbLine
 10
1024.630136168720
 20
504.0000000000046
 30
0.0000000000000000
 11
1032.608440082980
 21
486.6666666666671
 31
0.0000000000000000
  0
LINE
  5
DF
100
AcDbEntity
  8
MAIN0
  6
CONTINUOUS
 62
3
100
AcDbLine
 10
1032.608440082980
 20
504.0000000000005
 30
0.0000000000000000
 11
1024.924325632388
 21
487.3058105363278
 31
0.0000000000000000
  0
LINE
  5
E0
100
AcDbEntity
  8
MAIN0
  6
CONTINUOUS
 62
3
100
AcDbLine
 10
1034.058226584606
 20
503.9999999999998
 30
0.0000000000000000
 11
1041.742341034624
 21
487.3058105363333
 31
0.0000000000000000
  0
LINE
  5
E1
100
AcDbEntity
  8
MAIN0
  6
CONTINUOUS
 62
3
100
AcDbLine
 10
1024.630136168711
 20
487.6000000000046
 30
0.0000000000000000
 11
1025.563469502044
 21
486.6666666666708
 31
0.0000000000000000
  0
LINE
  5
E2
100
AcDbEntity
  8
MAIN0
  6
CONTINUOUS
 62
3
100
AcDbLine
 10
1041.103197164952
 20
486.6666666666627
 30
0.0000000000000000
 11
1042.036530498287
 21
487.5999999999955
 31
0.0000000000000000
  0
LINE
  5
E3
100
AcDbEntity
  8
MAIN0
  6
CONTINUOUS
 62
3
100
AcDbLine
 10
1021.333333333439
 20
524.0000000000064
 30
0.0000000000000000
 11
1045.333333333431
 21
523.9999999999938
 31
0.0000000000000000
  0
ARC
  5
E4
100
AcDbEntity
  8
MAIN0
  6
CONTINUOUS
 62
3
100
AcDbCircle
 10
1002.666666666690
 20
635.1045076251277
 30
0.0000000000000000
 40
18.66666666666666
100
AcDbArc
 50
0.0000000000000000
 51
38.21321070178068
  0
POINT
  5
E5
100
AcDbEntity
  8
MAIN0
  6
CONTINUOUS
 62
3
100
AcDbPoint
 10
1049.333333333348
 20
646.6666666666583
 30
0.0000000000000000
  0
ARC
  5
E6
100
AcDbEntity
  8
MAIN0
  6
CONTINUOUS
 62
3
100
AcDbCircle
 10
971.2968028353774
 20
505.5395000024082
 30
0.0000000000000000
 40
53.33333333333333
100
AcDbArc
 50
0.0000000000000000
 51
20.25105761440114
  0
ARC
  5
E7
100
AcDbEntity
  8
MAIN0
  6
CONTINUOUS
 62
3
100
AcDbCircle
 10
1095.369863831527
 20
505.5395000024998
 30
0.0000000000000000
 40
53.33333333333333
100
AcDbArc
 50
159.7489423856835
 51
180.0000000000847
  0
LINE
  5
E8
100
AcDbEntity
  8
MAIN0
  6
HIDDEN
 62
3
100
AcDbLine
 10
1017.333333333327
 20
674.6666666665769
 30
0.0000000000000000
 11
1049.333333333327
 21
674.6666666665979
 31
0.0000000000000000
  0
LINE
  5
E9
100
AcDbEntity
  8
MAIN0
  6
HIDDEN
 62
3
100
AcDbLine
 10
1017.333333333339
 20
658.6666666665769
 30
0.0000000000000000
 11
1049.333333333339
 21
658.6666666665979
 31
0.0000000000000000
  0
ARC
  5
EA
100
AcDbEntity
  8
MAIN0
  6
CONTINUOUS
 62
3
100
AcDbCircle
 10
1064.000000000023
 20
635.1045076251730
 30
0.0000000000000000
 40
18.66666666666666
100
AcDbArc
 50
141.7867892983040
 51
180.0000000000847
  0
LINE
  5
EB
100
AcDbEntity
  8
MAIN0
  6
CONTINUOUS
 62
3
100
AcDbLine
 10
1049.333333333348
 20
646.6515130089547
 30
0.0000000000000000
 11
1049.333333333339
 21
658.6666666665979
 31
0.0000000000000000
  0
LINE
  5
EC
100
AcDbEntity
  8
MAIN0
  6
CONTINUOUS
 62
3
100
AcDbLine
 10
1049.333333333328
 20
674.6666666665979
 30
0.0000000000000000
 11
1049.333333333321
 21
683.9999999999916
 31
0.0000000000000000
  0
LINE
  5
ED
100
AcDbEntity
  8
MAIN0
  6
CONTINUOUS
 62
3
100
AcDbLine
 10
1017.333333333348
 20
646.6666666666750
 30
0.0000000000000000
 11
1017.333333333339
 21
658.6666666665769
 31
0.0000000000000000
  0
LINE
  5
EE
100
AcDbEntity
  8
MAIN0
  6
CONTINUOUS
 62
3
100
AcDbLine
 10
1017.333333333327
 20
674.6666666665769
 30
0.0000000000000000
 11
1017.333333333321
 21
684.0000000000084
 31
0.0000000000000000
  0
LINE
  5
EF
100
AcDbEntity
  8
MAIN0
  6
CONTINUOUS
 62
3
100
AcDbLine
 10
1017.333333333321
 20
684.0000000000084
 30
0.0000000000000000
 11
1049.333333333321
 21
683.9999999999916
 31
0.0000000000000000
  0
LINE
  5
F0
100
AcDbEntity
  8
MAIN0
  6
CONTINUOUS
 62
3
100
AcDbLine
 10
1017.333333333348
 20
646.6666666666750
 30
0.0000000000000000
 11
1049.333333333348
 21
646.6666666666583
 31
0.0000000000000000
  0
ARC
  5
F1
100
AcDbEntity
  8
MAIN0
  6
CONTINUOUS
 62
3
100
AcDbCircle
 10
1033.333333333495
 20
447.8719660206508
 30
0.0000000000000000
 40
8.733333333333290
100
AcDbArc
 50
48.70769228990212
 51
85.23879812599385
  0
ARC
  5
F2
100
AcDbEntity
  8
MAIN0
  6
CONTINUOUS
 62
3
100
AcDbCircle
 10
1033.333333333495
 20
447.8719660206508
 30
0.0000000000000000
 40
8.733333333333290
100
AcDbArc
 50
232.5927915490115
 51
265.2387981259948
  0
LINE
  5
F3
100
AcDbEntity
  8
MAIN0
  6
CONTINUOUS
 62
3
100
AcDbLine
 10
1042.602215931445
 20
448.0311738385329
 30
0.0000000000000000
 11
1062.812414111900
 21
427.8209756581272
 31
0.0000000000000000
  0
LINE
  5
F4
100
AcDbEntity
  8
MAIN0
  6
CONTINUOUS
 62
3
100
AcDbLine
 10
1069.784597324952
 20
437.6215859959459
 30
0.0000000000000000
 11
1049.848789790159
 21
417.6857784611042
 31
0.0000000000000000
  0
LINE
  5
F5
100
AcDbEntity
  8
MAIN0
  6
CONTINUOUS
 62
3
100
AcDbLine
 10
1065.075155845410
 20
431.2150881741079
 30
0.0000000000000000
 11
1061.398200549525
 21
429.2351892204986
 31
0.0000000000000000
  0
LINE
  5
F6
100
AcDbEntity
  8
MAIN0
  6
CONTINUOUS
 62
3
100
AcDbLine
 10
1061.398200549525
 20
429.2351892204986
 30
0.0000000000000000
 11
1063.378099503125
 21
432.9121445163885
 31
0.0000000000000000
  0
LINE
  5
F7
100
AcDbEntity
  8
MAIN0
  6
CONTINUOUS
 62
3
100
AcDbLine
 10
1049.990211180115
 20
416.1301435087765
 30
0.0000000000000000
 11
1051.970110133716
 21
419.8070988046664
 31
0.0000000000000000
  0
LINE
  5
F8
100
AcDbEntity
  8
MAIN0
  6
CONTINUOUS
 62
3
100
AcDbLine
 10
1051.970110133716
 20
419.8070988046664
 30
0.0000000000000000
 11
1048.293154837831
 21
417.8271998510571
 31
0.0000000000000000
  0
MTEXT
  5
F9
100
AcDbEntity
  8
MAIN0
  6
CONTINUOUS
 62
3
100
AcDbMText
 10
1065.513782228998
 20
434.7649844623564
 30
0.0000000000000000
 40
6.199999809265137
 41
0.0000000000000000
 71
     8
 72
     1
  1
{\H0.69x;{10}}
 11
0.7071067811856878
 21
0.7071067811874073
 31
0.0000000000000000
  7
STANDARD
  0
MTEXT
  5
FA
100
AcDbEntity
  8
MAIN0
  6
CONTINUOUS
 62
3
100
AcDbMText
 10
1067.069417286682
 20
444.2402153344727
 30
0.0000000000000000
 40
5.599999904632568
 41
0.0000000000000000
 71
     8
 72
     1
  1
{ 0}
 11
0.7071067811856878
 21
0.7071067811874073
 31
0.0000000000000000
  7
STANDARD
  0
MTEXT
  5
FB
100
AcDbEntity
  8
MAIN0
  6
CONTINUOUS
 62
3
100
AcDbMText
 10
1072.973758894840
 20
442.2249611282168
 30
0.0000000000000000
 40
5.599999904632568
 41
0.0000000000000000
 71
     8
 72
     1
  1
{-0.1}
 11
0.7071067811856878
 21
0.7071067811874073
 31
0.0000000000000000
  7
STANDARD
  0
LINE
  5
FC
100
AcDbEntity
  8
MAIN0
  6
CONTINUOUS
 62
3
100
AcDbLine
 10
1033.174125515636
 20
438.6030834227005
 30
0.0000000000000000
 11
1053.384323696091
 21
418.3928852422950
 31
0.0000000000000000
  0
LINE
  5
FD
100
AcDbEntity
  8
MAIN0
  6
CONTINUOUS
 62
1
100
AcDbLine
 10
1133.333333333343
 20
667.4666666785354
 30
0.0000000000000000
 11
1133.333333333343
 21
734.0212634625691
 31
0.0000000000000000
  0
LINE
  5
FE
100
AcDbEntity
  8
MAIN0
  6
CONTINUOUS
 62
1
100
AcDbLine
 10
1133.333333333343
 20
732.0212634625691
 30
0.0000000000000000
 11
933.3333333333434
 21
732.0212634625691
 31
0.0000000000000000
  0
LINE
  5
FF
100
AcDbEntity
  8
MAIN0
  6
CONTINUOUS
 62
1
100
AcDbLine
 10
1129.333333333343
 20
730.8212634148854
 30
0.0000000000000000
 11
1133.333333333343
 21
732.0212634625691
 31
0.0000000000000000
  0
LINE
  5
100
100
AcDbEntity
  8
MAIN0
  6
CONTINUOUS
 62
1
100
AcDbLine
 10
1133.333333333343
 20
732.0212634625691
 30
0.0000000000000000
 11
1129.333333333343
 21
733.2212635102528
 31
0.0000000000000000
  0
LINE
  5
101
100
AcDbEntity
  8
MAIN0
  6
CONTINUOUS
 62
1
100
AcDbLine
 10
937.3333333333434
 20
730.8212634148854
 30
0.0000000000000000
 11
933.3333333333434
 21
732.0212634625691
 31
0.0000000000000000
  0
LINE
  5
102
100
AcDbEntity
  8
MAIN0
  6
CONTINUOUS
 62
1
100
AcDbLine
 10
933.3333333333434
 20
732.0212634625691
 30
0.0000000000000000
 11
937.3333333333434
 21
733.2212635102528
 31
0.0000000000000000
  0
MTEXT
  5
103
100
AcDbEntity
  8
MAIN0
  6
CONTINUOUS
 62
1
100
AcDbMText
 10
1033.333333333343
 20
733.0212634625691
 30
0.0000000000000000
 40
6.199999809265137
 41
0.0000000000000000
 71
     8
 72
     1
  1
{\H0.70x;{250}}
 11
1.000000000000000
 21
0.0000000000000000
 31
0.0000000000000000
  7
STANDARD
  0
LINE
  5
104
100
AcDbEntity
  8
MAIN0
  6
CONTINUOUS
 62
1
100
AcDbLine
 10
933.3333333333434
 20
667.4666666786399
 30
0.0000000000000000
 11
933.3333333333434
 21
734.0212634625691
 31
0.0000000000000000
  0
LINE
  5
105
100
AcDbEntity
  8
MAIN0
  6
CONTINUOUS
 62
3
100
AcDbLine
 10
1049.333333333321
 20
684.8000000119125
 30
0.0000000000000000
 11
1049.333333333321
 21
707.0174075028687
 31
0.0000000000000000
  0
LINE
  5
106
100
AcDbEntity
  8
MAIN0
  6
CONTINUOUS
 62
3
100
AcDbLine
 10
1049.333333333321
 20
705.0174075028687
 30
0.0000000000000000
 11
1017.333333333321
 21
705.0174075028687
 31
0.0000000000000000
  0
LINE
  5
107
100
AcDbEntity
  8
MAIN0
  6
CONTINUOUS
 62
3
100
AcDbLine
 10
1045.333333333321
 20
703.8174074551849
 30
0.0000000000000000
 11
1049.333333333321
 21
705.0174075028687
 31
0.0000000000000000
  0
LINE
  5
108
100
AcDbEntity
  8
MAIN0
  6
CONTINUOUS
 62
3
100
AcDbLine
 10
1049.333333333321
 20
705.0174075028687
 30
0.0000000000000000
 11
1045.333333333321
 21
706.2174075505524
 31
0.0000000000000000
  0
LINE
  5
109
100
AcDbEntity
  8
MAIN0
  6
CONTINUOUS
 62
3
100
AcDbLine
 10
1021.333333333321
 20
703.8174074551849
 30
0.0000000000000000
 11
1017.333333333321
 21
705.0174075028687
 31
0.0000000000000000
  0
LINE
  5
10A
100
AcDbEntity
  8
MAIN0
  6
CONTINUOUS
 62
3
100
AcDbLine
 10
1017.333333333321
 20
705.0174075028687
 30
0.0000000000000000
 11
1021.333333333321
 21
706.2174075505524
 31
0.0000000000000000
  0
MTEXT
  5
10B
100
AcDbEntity
  8
MAIN0
  6
CONTINUOUS
 62
3
100
AcDbMText
 10
1033.333333333321
 20
706.0174075028687
 30
0.0000000000000000
 40
6.199999809265137
 41
0.0000000000000000
 71
     8
 72
     1
  1
{\U+220524}
 11
1.000000000000000
 21
0.0000000000000000
 31
0.0000000000000000
  7
STANDARD
  0
LINE
  5
10C
100
AcDbEntity
  8
MAIN0
  6
CONTINUOUS
 62
3
100
AcDbLine
 10
1017.333333333321
 20
684.8000000119293
 30
0.0000000000000000
 11
1017.333333333321
 21
707.0174075028687
 31
0.0000000000000000
  0
LINE
  5
10D
100
AcDbEntity
  8
MAIN0
  6
CONTINUOUS
 62
3
100
AcDbLine
 10
1047.466666678573
 20
686.6666666666597
 30
0.0000000000000000
 11
1068.984962557502
 21
686.6666666666597
 31
0.0000000000000000
  0
LINE
  5
10E
100
AcDbEntity
  8
MAIN0
  6
CONTINUOUS
 62
3
100
AcDbLine
 10
1066.984962557502
 20
686.6666666666597
 30
0.0000000000000000
 11
1066.984962557502
 21
646.6666666666583
 31
0.0000000000000000
  0
LINE
  5
10F
100
AcDbEntity
  8
MAIN0
  6
CONTINUOUS
 62
3
100
AcDbLine
 10
1068.184962605186
 20
682.6666666666597
 30
0.0000000000000000
 11
1066.984962557502
 21
686.6666666666597
 31
0.0000000000000000
  0
LINE
  5
110
100
AcDbEntity
  8
MAIN0
  6
CONTINUOUS
 62
3
100
AcDbLine
 10
1066.984962557502
 20
686.6666666666597
 30
0.0000000000000000
 11
1065.784962509818
 21
682.6666666666597
 31
0.0000000000000000
  0
LINE
  5
111
100
AcDbEntity
  8
MAIN0
  6
CONTINUOUS
 62
3
100
AcDbLine
 10
1068.184962605186
 20
650.6666666666583
 30
0.0000000000000000
 11
1066.984962557502
 21
646.6666666666583
 31
0.0000000000000000
  0
LINE
  5
112
100
AcDbEntity
  8
MAIN0
  6
CONTINUOUS
 62
3
100
AcDbLine
 10
1066.984962557502
 20
646.6666666666583
 30
0.0000000000000000
 11
1065.784962509818
 21
650.6666666666583
 31
0.0000000000000000
  0
MTEXT
  5
113
100
AcDbEntity
  8
MAIN0
  6
CONTINUOUS
 62
3
100
AcDbMText
 10
1065.984962557502
 20
666.6666666666590
 30
0.0000000000000000
 40
6.199999809265137
 41
0.0000000000000000
 71
     8
 72
     1
  1
{\H0.69x;{30}}
 11
6.123233995736766e-017
 21
1.000000000000000
 31
0.0000000000000000
  7
STANDARD
  0
LINE
  5
114
100
AcDbEntity
  8
MAIN0
  6
CONTINUOUS
 62
3
100
AcDbLine
 10
1050.133333345269
 20
646.6666666666583
 30
0.0000000000000000
 11
1068.984962557502
 21
646.6666666666583
 31
0.0000000000000000
  0
LINE
  5
115
100
AcDbEntity
  8
MAIN0
  6
CONTINUOUS
 62
3
100
AcDbLine
 10
1047.466666678573
 20
686.6666666666597
 30
0.0000000000000000
 11
1088.609393687068
 21
686.6666666666597
 31
0.0000000000000000
  0
LINE
  5
116
100
AcDbEntity
  8
MAIN0
  6
CONTINUOUS
 62
3
100
AcDbLine
 10
1086.609393687068
 20
686.6666666666597
 30
0.0000000000000000
 11
1086.609393687068
 21
486.6666666666627
 31
0.0000000000000000
  0
LINE
  5
117
100
AcDbEntity
  8
MAIN0
  6
CONTINUOUS
 62
3
100
AcDbLine
 10
1087.809393734751
 20
682.6666666666597
 30
0.0000000000000000
 11
1086.609393687068
 21
686.6666666666597
 31
0.0000000000000000
  0
LINE
  5
118
100
AcDbEntity
  8
MAIN0
  6
CONTINUOUS
 62
3
100
AcDbLine
 10
1086.609393687068
 20
686.6666666666597
 30
0.0000000000000000
 11
1085.409393639384
 21
682.6666666666597
 31
0.0000000000000000
  0
LINE
  5
119
100
AcDbEntity
  8
MAIN0
  6
CONTINUOUS
 62
3
100
AcDbLine
 10
1087.809393734751
 20
490.6666666666627
 30
0.0000000000000000
 11
1086.609393687068
 21
486.6666666666627
 31
0.0000000000000000
  0
LINE
  5
11A
100
AcDbEntity
  8
MAIN0
  6
CONTINUOUS
 62
3
100
AcDbLine
 10
1086.609393687068
 20
486.6666666666627
 30
0.0000000000000000
 11
1085.409393639384
 21
490.6666666666627
 31
0.0000000000000000
  0
MTEXT
  5
11B
100
AcDbEntity
  8
MAIN0
  6
CONTINUOUS
 62
3
100
AcDbMText
 10
1085.609393687068
 20
586.6666666666612
 30
0.0000000000000000
 40
6.199999809265137
 41
0.0000000000000000
 71
     8
 72
     1
  1
{\H0.70x;{150}}
 11
6.123233995736766e-017
 21
1.000000000000000
 31
0.0000000000000000
  7
STANDARD
  0
LINE
  5
11C
100
AcDbEntity
  8
MAIN0
  6
CONTINUOUS
 62
3
100
AcDbLine
 10
1041.903197176873
 20
486.6666666666627
 30
0.0000000000000000
 11
1088.609393687068
 21
486.6666666666627
 31
0.0000000000000000
  0
LINE
  5
11D
100
AcDbEntity
  8
MAIN0
  6
CONTINUOUS
 62
3
100
AcDbLine
 10
1021.333333333439
 20
563.5522388575510
 30
0.0000000000000000
 11
1045.333333333439
 21
563.5522388575510
 31
0.0000000000000000
  0
LINE
  5
11E
100
AcDbEntity
  8
MAIN0
  6
CONTINUOUS
 62
3
100
AcDbLine
 10
1025.333333333439
 20
564.7522389052347
 30
0.0000000000000000
 11
1021.333333333439
 21
563.5522388575510
 31
0.0000000000000000
  0
LINE
  5
11F
100
AcDbEntity
  8
MAIN0
  6
CONTINUOUS
 62
3
100
AcDbLine
 10
1021.333333333439
 20
563.5522388575510
 30
0.0000000000000000
 11
1025.333333333439
 21
562.3522388098672
 31
0.0000000000000000
  0
LINE
  5
120
100
AcDbEntity
  8
MAIN0
  6
CONTINUOUS
 62
3
100
AcDbLine
 10
1041.333333333439
 20
564.7522389052347
 30
0.0000000000000000
 11
1045.333333333439
 21
563.5522388575510
 31
0.0000000000000000
  0
LINE
  5
121
100
AcDbEntity
  8
MAIN0
  6
CONTINUOUS
 62
3
100
AcDbLine
 10
1045.333333333439
 20
563.5522388575510
 30
0.0000000000000000
 11
1041.333333333439
 21
562.3522388098672
 31
0.0000000000000000
  0
MTEXT
  5
122
100
AcDbEntity
  8
MAIN0
  6
CONTINUOUS
 62
3
100
AcDbMText
 10
1033.333333333439
 20
564.5522388575510
 30
0.0000000000000000
 40
6.199999809265137
 41
0.0000000000000000
 71
     8
 72
     1
  1
{\U+220518}
 11
1.000000000000000
 21
0.0000000000000000
 31
0.0000000000000000
  7
STANDARD
  0
LINE
  5
123
100
AcDbEntity
  8
MAIN0
  6
CENTER
 62
3
100
AcDbLine
 10
1067.804553239452
 20
666.6666666666487
 30
0.0000000000000000
 11
1141.267565855817
 21
666.6666666666102
 31
0.0000000000000000
  0
LINE
  5
124
100
AcDbEntity
  8
MAIN0
  6
CENTER
 62
3
100
AcDbLine
 10
1033.333333333513
 20
424.0426740462523
 30
0.0000000000000000
 11
1033.333333333411
 21
561.5522388575510
 31
0.0000000000000000
  0
LINE
  5
125
100
AcDbEntity
  8
MAIN0
  6
CENTER
 62
3
100
AcDbLine
 10
1033.333333333402
 20
573.7522386668161
 30
0.0000000000000000
 11
1033.333333333311
 21
696.6135434696661
 31
0.0000000000000000
  0
LINE
  5
126
100
AcDbEntity
  8
MAIN0
  6
CENTER
 62
3
100
AcDbLine
 10
922.8395031383845
 20
666.6666666667244
 30
0.0000000000000000
 11
970.7855125454362
 21
666.6666666666994
 31
0.0000000000000000
  0
LINE
  5
127
100
AcDbEntity
  8
MAIN0
  6
CENTER
 62
3
100
AcDbLine
 10
982.9855123547013
 20
666.6666666666930
 30
0.0000000000000000
 11
1058.790431293922
 21
666.6666666666533
 31
0.0000000000000000
  0
SPLINE
  5
128
100
AcDbEntity
  8
MAIN0
  6
CONTINUOUS
 62
3
100
AcDbSpline
210
0.0000000000000000
220
0.0000000000000000
230
1.000000000000000
 70
     8
 71
     3
 72
    11
 73
     7
 74
     0
 42
1.000000000000000e-007
 43
1.000000000000000e-007
 12
-0.7692307691623910
 22
-1.230769230774399
 32
0.0000000000000000
 13
-0.7692307693305338
 23
-1.230769230739270
 33
0.0000000000000000
 40
0.0000000000000000
 40
0.0000000000000000
 40
0.0000000000000000
 40
0.0000000000000000
 40
3.249999999860126
 40
6.499999999904398
 40
9.750000000051715
 40
13.00000000001701
 40
13.00000000001701
 40
13.00000000001701
 40
13.00000000001701
 10
1105.010038701810
 20
674.6666666666341
 30
0.0000000000000000
 10
1104.176705368587
 20
673.3333333333526
 30
0.0000000000000000
 10
1102.510038702093
 20
670.6666666667140
 30
0.0000000000000000
 10
1105.010038701682
 20
666.6666666665487
 30
0.0000000000000000
 10
1107.510038702119
 20
662.6666666665692
 30
0.0000000000000000
 10
1105.843372035207
 20
659.9999999999209
 30
0.0000000000000000
 10
1105.010038701775
 20
658.6666666666342
 30
0.0000000000000000
  0
SPLINE
  5
129
100
AcDbEntity
  8
MAIN0
  6
CONTINUOUS
 62
3
100
AcDbSpline
210
0.0000000000000000
220
0.0000000000000000
230
1.000000000000000
 70
     8
 71
     3
 72
     9
 73
     5
 74
     0
 42
1.000000000000000e-007
 43
1.000000000000000e-007
 12
0.7692307693027942
 22
-1.230769230742794
 32
0.0000000000000000
 13
-0.7692307692929035
 23
-1.230769230758483
 33
0.0000000000000000
 40
0.0000000000000000
 40
0.0000000000000000
 40
0.0000000000000000
 40
0.0000000000000000
 40
3.249999999954941
 40
6.500000000102475
 40
6.500000000102475
 40
6.500000000102475
 40
6.500000000102475
 10
1105.010038701810
 20
674.6666666666341
 30
0.0000000000000000
 10
1105.843372035210
 20
673.3333333333479
 30
0.0000000000000000
 10
1107.510038702059
 20
670.6666666666965
 30
0.0000000000000000
 10
1105.843372035231
 20
668.0000000000114
 30
0.0000000000000000
 10
1105.010038701792
 20
666.6666666666292
 30
0.0000000000000000
  0
SPLINE
  5
12A
100
AcDbEntity
  8
MAIN0
  6
CONTINUOUS
 62
3
100
AcDbSpline
210
0.0000000000000000
220
0.0000000000000000
230
1.000000000000000
 70
     8
 71
     3
 72
    11
 73
     7
 74
     0
 42
1.000000000000000e-007
 43
1.000000000000000e-007
 12
-0.7692307691622773
 22
-1.230769230774286
 32
0.0000000000000000
 13
-0.7692307693308749
 23
-1.230769230739497
 33
0.0000000000000000
 40
0.0000000000000000
 40
0.0000000000000000
 40
0.0000000000000000
 40
0.0000000000000000
 40
3.249999999860126
 40
6.499999999904398
 40
9.750000000051715
 40
13.00000000001701
 40
13.00000000001701
 40
13.00000000001701
 40
13.00000000001701
 10
954.6759896815198
 20
674.6666666665360
 30
0.0000000000000000
 10
953.8426563482966
 20
673.3333333332545
 30
0.0000000000000000
 10
952.1759896818028
 20
670.6666666666159
 30
0.0000000000000000
 10
954.6759896813913
 20
666.6666666664505
 30
0.0000000000000000
 10
957.1759896818292
 20
662.6666666664710
 30
0.0000000000000000
 10
955.5093230149171
 20
659.9999999998228
 30
0.0000000000000000
 10
954.6759896814843
 20
658.6666666665360
 30
0.0000000000000000
  0
SPLINE
  5
12B
100
AcDbEntity
  8
MAIN0
  6
CONTINUOUS
 62
3
100
AcDbSpline
210
0.0000000000000000
220
0.0000000000000000
230
1.000000000000000
 70
     8
 71
     3
 72
     9
 73
     5
 74
     0
 42
1.000000000000000e-007
 43
1.000000000000000e-007
 12
0.7692307693027942
 22
-1.230769230742794
 32
0.0000000000000000
 13
-0.7692307692930172
 23
-1.230769230758369
 33
0.0000000000000000
 40
0.0000000000000000
 40
0.0000000000000000
 40
0.0000000000000000
 40
0.0000000000000000
 40
3.249999999954941
 40
6.500000000102475
 40
6.500000000102475
 40
6.500000000102475
 40
6.500000000102475
 10
954.6759896815198
 20
674.6666666665360
 30
0.0000000000000000
 10
955.5093230149196
 20
673.3333333332498
 30
0.0000000000000000
 10
957.1759896817684
 20
670.6666666665983
 30
0.0000000000000000
 10
955.5093230149406
 20
667.9999999999131
 30
0.0000000000000000
 10
954.6759896815021
 20
666.6666666665310
 30
0.0000000000000000
  0
SPLINE
  5
12C
100
AcDbEntity
  8
MAIN0
  6
CONTINUOUS
 62
3
100
AcDbSpline
210
0.0000000000000000
220
0.0000000000000000
230
1.000000000000000
 70
     8
 71
     3
 72
    11
 73
     7
 74
     0
 42
1.000000000000000e-007
 43
1.000000000000000e-007
 12
0.7692307691622773
 22
1.230769230774513
 32
0.0000000000000000
 13
0.7692307693308749
 23
1.230769230739270
 33
0.0000000000000000
 40
0.0000000000000000
 40
0.0000000000000000
 40
0.0000000000000000
 40
0.0000000000000000
 40
3.249999999860126
 40
6.499999999904398
 40
9.750000000051715
 40
13.00000000001701
 40
13.00000000001701
 40
13.00000000001701
 40
13.00000000001701
 10
1109.629687334844
 20
658.6666666666218
 30
0.0000000000000000
 10
1110.463020668068
 20
659.9999999999034
 30
0.0000000000000000
 10
1112.129687334561
 20
662.6666666665419
 30
0.0000000000000000
 10
1109.629687334973
 20
666.6666666667072
 30
0.0000000000000000
 10
1107.129687334535
 20
670.6666666666868
 30
0.0000000000000000
 10
1108.796354001447
 20
673.3333333333351
 30
0.0000000000000000
 10
1109.629687334880
 20
674.6666666666217
 30
0.0000000000000000
  0
SPLINE
  5
12D
100
AcDbEntity
  8
MAIN0
  6
CONTINUOUS
 62
3
100
AcDbSpline
210
0.0000000000000000
220
0.0000000000000000
230
1.000000000000000
 70
     8
 71
     3
 72
     9
 73
     5
 74
     0
 42
1.000000000000000e-007
 43
1.000000000000000e-007
 12
-0.7692307693025668
 22
1.230769230742794
 32
0.0000000000000000
 13
0.7692307692930172
 23
1.230769230758369
 33
0.0000000000000000
 40
0.0000000000000000
 40
0.0000000000000000
 40
0.0000000000000000
 40
0.0000000000000000
 40
3.249999999954941
 40
6.500000000102475
 40
6.500000000102475
 40
6.500000000102475
 40
6.500000000102475
 10
1109.629687334844
 20
658.6666666666218
 30
0.0000000000000000
 10
1108.796354001445
 20
659.9999999999080
 30
0.0000000000000000
 10
1107.129687334596
 20
662.6666666665594
 30
0.0000000000000000
 10
1108.796354001424
 20
665.3333333332447
 30
0.0000000000000000
 10
1109.629687334862
 20
666.6666666666267
 30
0.0000000000000000
  0
SPLINE
  5
12E
100
AcDbEntity
  8
MAIN0
  6
CONTINUOUS
 62
3
100
AcDbSpline
210
0.0000000000000000
220
0.0000000000000000
230
1.000000000000000
 70
     8
 71
     3
 72
    11
 73
     7
 74
     0
 42
1.000000000000000e-007
 43
1.000000000000000e-007
 12
0.7692307691622773
 22
1.230769230774286
 32
0.0000000000000000
 13
0.7692307693307612
 23
1.230769230739384
 33
0.0000000000000000
 40
0.0000000000000000
 40
0.0000000000000000
 40
0.0000000000000000
 40
0.0000000000000000
 40
3.249999999860126
 40
6.499999999904398
 40
9.750000000051715
 40
13.00000000001701
 40
13.00000000001701
 40
13.00000000001701
 40
13.00000000001701
 10
959.4528495066783
 20
658.6666666667003
 30
0.0000000000000000
 10
960.2861828399015
 20
659.9999999999818
 30
0.0000000000000000
 10
961.9528495063953
 20
662.6666666666204
 30
0.0000000000000000
 10
959.4528495068067
 20
666.6666666667857
 30
0.0000000000000000
 10
956.9528495063689
 20
670.6666666667653
 30
0.0000000000000000
 10
958.6195161732811
 20
673.3333333334135
 30
0.0000000000000000
 10
959.4528495067139
 20
674.6666666667003
 30
0.0000000000000000
  0
SPLINE
  5
12F
100
AcDbEntity
  8
MAIN0
  6
CONTINUOUS
 62
3
100
AcDbSpline
210
0.0000000000000000
220
0.0000000000000000
230
1.000000000000000
 70
     8
 71
     3
 72
     9
 73
     5
 74
     0
 42
1.000000000000000e-007
 43
1.000000000000000e-007
 12
-0.7692307693027942
 22
1.230769230742794
 32
0.0000000000000000
 13
0.7692307692930172
 23
1.230769230758369
 33
0.0000000000000000
 40
0.0000000000000000
 40
0.0000000000000000
 40
0.0000000000000000
 40
0.0000000000000000
 40
3.249999999954941
 40
6.500000000102475
 40
6.500000000102475
 40
6.500000000102475
 40
6.500000000102475
 10
959.4528495066783
 20
658.6666666667003
 30
0.0000000000000000
 10
958.6195161732785
 20
659.9999999999865
 30
0.0000000000000000
 10
956.9528495064296
 20
662.6666666666380
 30
0.0000000000000000
 10
958.6195161732575
 20
665.3333333333231
 30
0.0000000000000000
 10
959.4528495066960
 20
666.6666666667053
 30
0.0000000000000000
  0
LINE
  5
130
100
AcDbEntity
  8
MAIN0
  6
CONTINUOUS
 62
3
100
AcDbLine
 10
1049.333333333327
 20
674.6666666665979
 30
0.0000000000000000
 11
1105.010038701807
 21
674.6666666666342
 31
0.0000000000000000
  0
LINE
  5
131
100
AcDbEntity
  8
MAIN0
  6
CONTINUOUS
 62
3
100
AcDbLine
 10
1109.629687334880
 20
674.6666666666372
 30
0.0000000000000000
 11
1125.333333333328
 21
674.6666666666474
 31
0.0000000000000000
  0
LINE
  5
132
100
AcDbEntity
  8
MAIN0
  6
CONTINUOUS
 62
3
100
AcDbLine
 10
1049.333333333339
 20
658.6666666665979
 30
0.0000000000000000
 11
1105.010038701779
 21
658.6666666666342
 31
0.0000000000000000
  0
LINE
  5
133
100
AcDbEntity
  8
MAIN0
  6
CONTINUOUS
 62
3
100
AcDbLine
 10
1109.629687334844
 20
658.6666666666372
 30
0.0000000000000000
 11
1125.333333333339
 21
658.6666666666474
 31
0.0000000000000000
  0
LINE
  5
134
100
AcDbEntity
  8
MAIN0
  6
CONTINUOUS
 62
3
100
AcDbLine
 10
941.3333333333385
 20
658.6666666665273
 30
0.0000000000000000
 11
954.6759896814911
 21
658.6666666665360
 31
0.0000000000000000
  0
LINE
  5
135
100
AcDbEntity
  8
MAIN0
  6
CONTINUOUS
 62
3
100
AcDbLine
 10
959.4528495066783
 20
658.6666666665392
 30
0.0000000000000000
 11
1017.333333333339
 21
658.6666666665769
 31
0.0000000000000000
  0
LINE
  5
136
100
AcDbEntity
  8
MAIN0
  6
CONTINUOUS
 62
3
100
AcDbLine
 10
941.3333333333280
 20
674.6666666665273
 30
0.0000000000000000
 11
954.6759896815165
 21
674.6666666665360
 31
0.0000000000000000
  0
LINE
  5
137
100
AcDbEntity
  8
MAIN0
  6
CONTINUOUS
 62
3
100
AcDbLine
 10
959.4528495066129
 20
674.6666666665391
 30
0.0000000000000000
 11
1017.333333333327
 21
674.6666666665769
 31
0.0000000000000000
  0
POINT
  5
138
100
AcDbEntity
  8
MAIN0
  6
CONTINUOUS
 62
3
100
AcDbPoint
 10
1046.666666666667
 20
666.6666666666597
 30
0.0000000000000000
  0
SPLINE
  5
139
100
AcDbEntity
  8
MAIN0
  6
CONTINUOUS
 62
3
100
AcDbSpline
210
0.0000000000000000
220
0.0000000000000000
230
1.000000000000000
 70
     8
 71
     3
 72
     9
 73
     5
 74
     0
 42
1.000000000000000e-007
 43
1.000000000000000e-007
 12
-0.6324555320342711
 22
-1.264911064066382
 32
0.0000000000000000
 13
0.6324555320330205
 23
-1.264911064068372
 33
0.0000000000000000
 40
0.0000000000000000
 40
0.0000000000000000
 40
0.0000000000000000
 40
0.0000000000000000
 40
6.324555320291316
 40
12.64911064067350
 40
12.64911064067350
 40
12.64911064067350
 40
12.64911064067350
 10
1049.333333333327
 20
674.6666666665979
 30
0.0000000000000000
 10
1048.000000000002
 20
671.9999999999525
 30
0.0000000000000000
 10
1045.333333333334
 20
666.6666666666235
 30
0.0000000000000000
 10
1047.999999999998
 20
661.3333333332859
 30
0.0000000000000000
 10
1049.333333333339
 20
658.6666666665979
 30
0.0000000000000000
  0
SPLINE
  5
13A
100
AcDbEntity
  8
MAIN0
  6
CONTINUOUS
 62
3
100
AcDbSpline
210
0.0000000000000000
220
0.0000000000000000
230
1.000000000000000
 70
     8
 71
     3
 72
     9
 73
     5
 74
     0
 42
1.000000000000000e-007
 43
1.000000000000000e-007
 12
0.6324555320361469
 22
-1.264911064065416
 32
0.0000000000000000
 13
-0.6324555320312015
 23
-1.264911064069338
 33
0.0000000000000000
 40
0.0000000000000000
 40
0.0000000000000000
 40
0.0000000000000000
 40
0.0000000000000000
 40
6.324555320291316
 40
12.64911064067350
 40
12.64911064067350
 40
12.64911064067350
 40
12.64911064067350
 10
1017.333333333328
 20
674.6666666665742
 30
0.0000000000000000
 10
1018.666666666656
 20
671.9999999999308
 30
0.0000000000000000
 10
1021.333333333333
 20
666.6666666666058
 30
0.0000000000000000
 10
1018.666666666677
 20
661.3333333332641
 30
0.0000000000000000
 10
1017.333333333339
 20
658.6666666665742
 30
0.0000000000000000
  0
LINE
  5
13B
100
AcDbEntity
  8
MAIN0
  6
CENTER
 62
3
100
AcDbLine
 10
1043.603259991789
 20
447.8719660206041
 30
0.0000000000000000
 11
1021.654686810247
 21
447.8719660205726
 31
0.0000000000000000
  0
LINE
  5
13C
100
AcDbEntity
  8
MAIN0
  6
CONTINUOUS
 62
3
100
AcDbLine
 10
298.7031971641476
 20
786.7332592124494
 30
0.0000000000000000
 11
290.7248932508159
 21
794.7115631257617
 31
0.0000000000000000
  0
LINE
  5
13D
100
AcDbEntity
  8
MAIN0
  6
CONTINUOUS
 62
3
100
AcDbLine
 10
289.2751067483385
 20
777.3051687966172
 30
0.0000000000000000
 11
281.2968028350064
 21
785.2834727099297
 31
0.0000000000000000
  0
LINE
  5
13E
100
AcDbEntity
  8
MAIN0
  6
CONTINUOUS
 62
3
100
AcDbLine
 10
289.2751067487050
 20
794.7115631257921
 30
0.0000000000000000
 11
281.2968028349710
 21
786.7332592120217
 31
0.0000000000000000
  0
LINE
  5
13F
100
AcDbEntity
  8
MAIN0
  6
CONTINUOUS
 62
3
100
AcDbLine
 10
298.7031971641171
 20
785.2834727095631
 30
0.0000000000000000
 11
290.7248932512432
 21
777.3051687966527
 31
0.0000000000000000
  0
ARC
  5
140
100
AcDbEntity
  8
MAIN0
  6
CONTINUOUS
 62
3
100
AcDbCircle
 10
289.9999999995770
 20
786.0083659611894
 30
0.0000000000000000
 40
8.733333333333334
100
AcDbArc
 50
355.2387981234409
 51
364.7612018741471
  0
ARC
  5
141
100
AcDbEntity
  8
MAIN0
  6
CONTINUOUS
 62
3
100
AcDbCircle
 10
289.9999999995770
 20
786.0083659611894
 30
0.0000000000000000
 40
8.733333333333334
100
AcDbArc
 50
265.2387981259951
 51
274.7612018768213
  0
ARC
  5
142
100
AcDbEntity
  8
MAIN0
  6
CONTINUOUS
 62
3
100
AcDbCircle
 10
289.9999999995770
 20
786.0083659611894
 30
0.0000000000000000
 40
8.733333333333334
100
AcDbArc
 50
85.23879812599388
 51
94.76120187159468
  0
ARC
  5
143
100
AcDbEntity
  8
MAIN0
  6
CONTINUOUS
 62
3
100
AcDbCircle
 10
289.9999999995770
 20
786.0083659611894
 30
0.0000000000000000
 40
8.733333333333334
100
AcDbArc
 50
175.2387981286674
 51
184.7612018741459
  0
ARC
  5
144
100
AcDbEntity
  8
MAIN0
  6
CONTINUOUS
 62
3
100
AcDbCircle
 10
289.9999999995770
 20
786.0083659611894
 30
0.0000000000000000
 40
8.733333333333290
100
AcDbArc
 50
48.70769228990212
 51
85.23879812599385
  0
ARC
  5
145
100
AcDbEntity
  8
MAIN0
  6
CONTINUOUS
 62
3
100
AcDbCircle
 10
289.9999999995770
 20
786.0083659611894
 30
0.0000000000000000
 40
8.733333333333290
100
AcDbArc
 50
232.5927915490115
 51
265.2387981259948
  0
LINE
  5
146
100
AcDbEntity
  8
MAIN0
  6
CENTER
 62
3
100
AcDbLine
 10
300.2699266578711
 20
786.0083659611428
 30
0.0000000000000000
 11
278.3213534763290
 21
786.0083659611113
 31
0.0000000000000000
  0
LINE
  5
147
100
AcDbEntity
  8
MAIN0
  6
CENTER
 62
3
100
AcDbLine
 10
289.9999999997385
 20
676.7569855322596
 30
0.0000000000000000
 11
289.9999999998176
 21
623.3333333333284
 31
0.0000000000000000
  0
LINE
  5
148
100
AcDbEntity
  8
MAIN0
  6
CENTER
 62
3
100
AcDbLine
 10
289.9999999995562
 20
800.0681591713761
 30
0.0000000000000000
 11
289.9999999995961
 21
773.0634303529089
 31
0.0000000000000000
  0
LINE
  5
149
100
AcDbEntity
  8
MAIN0
  6
CONTINUOUS
 62
3
100
AcDbLine
 10
248.6027082377197
 20
568.6666666666641
 30
0.0000000000000000
 11
248.6027082377197
 21
431.3333333333358
 31
0.0000000000000000
  0
LINE
  5
14A
100
AcDbEntity
  8
MAIN0
  6
CONTINUOUS
 62
3
100
AcDbLine
 10
253.8666666534111
 20
457.3333333333333
 30
0.0000000000000000
 11
184.6666666666667
 21
457.3333333333333
 31
0.0000000000000000
  0
LINE
  5
14B
100
AcDbEntity
  8
MAIN0
  6
CONTINUOUS
 62
3
100
AcDbLine
 10
186.6666666666667
 20
457.3333333333333
 30
0.0000000000000000
 11
186.6666666666667
 21
542.6666666666666
 31
0.0000000000000000
  0
LINE
  5
14C
100
AcDbEntity
  8
MAIN0
  6
CONTINUOUS
 62
3
100
AcDbLine
 10
185.4666666189830
 20
461.3333333333333
 30
0.0000000000000000
 11
186.6666666666667
 21
457.3333333333333
 31
0.0000000000000000
  0
LINE
  5
14D
100
AcDbEntity
  8
MAIN0
  6
CONTINUOUS
 62
3
100
AcDbLine
 10
186.6666666666667
 20
457.3333333333333
 30
0.0000000000000000
 11
187.8666667143505
 21
461.3333333333333
 31
0.0000000000000000
  0
LINE
  5
14E
100
AcDbEntity
  8
MAIN0
  6
CONTINUOUS
 62
3
100
AcDbLine
 10
185.4666666189830
 20
538.6666666666666
 30
0.0000000000000000
 11
186.6666666666667
 21
542.6666666666666
 31
0.0000000000000000
  0
LINE
  5
14F
100
AcDbEntity
  8
MAIN0
  6
CONTINUOUS
 62
3
100
AcDbLine
 10
186.6666666666667
 20
542.6666666666666
 30
0.0000000000000000
 11
187.8666667143505
 21
538.6666666666666
 31
0.0000000000000000
  0
MTEXT
  5
150
100
AcDbEntity
  8
MAIN0
  6
CONTINUOUS
 62
3
100
AcDbMText
 10
185.6666666666667
 20
499.9999999999999
 30
0.0000000000000000
 40
6.199999809265137
 41
0.0000000000000000
 71
     8
 72
     1
  1
{\U+220564}
 11
6.123233995736766e-017
 21
1.000000000000000
 31
0.0000000000000000
  7
STANDARD
  0
LINE
  5
151
100
AcDbEntity
  8
MAIN0
  6
CONTINUOUS
 62
3
100
AcDbLine
 10
253.8666666534111
 20
542.6666666666666
 30
0.0000000000000000
 11
184.6666666666667
 21
542.6666666666666
 31
0.0000000000000000
  0
LINE
  5
152
100
AcDbEntity
  8
MAIN0
  6
CONTINUOUS
 62
3
100
AcDbLine
 10
247.8027082257789
 20
568.6666666666666
 30
0.0000000000000000
 11
164.6666666666667
 21
568.6666666666666
 31
0.0000000000000000
  0
LINE
  5
153
100
AcDbEntity
  8
MAIN0
  6
CONTINUOUS
 62
3
100
AcDbLine
 10
166.6666666666667
 20
568.6666666666666
 30
0.0000000000000000
 11
166.6666666666667
 21
431.3333333333333
 31
0.0000000000000000
  0
LINE
  5
154
100
AcDbEntity
  8
MAIN0
  6
CONTINUOUS
 62
3
100
AcDbLine
 10
167.8666667143505
 20
564.6666666666666
 30
0.0000000000000000
 11
166.6666666666667
 21
568.6666666666666
 31
0.0000000000000000
  0
LINE
  5
155
100
AcDbEntity
  8
MAIN0
  6
CONTINUOUS
 62
3
100
AcDbLine
 10
166.6666666666667
 20
568.6666666666666
 30
0.0000000000000000
 11
165.4666666189830
 21
564.6666666666666
 31
0.0000000000000000
  0
LINE
  5
156
100
AcDbEntity
  8
MAIN0
  6
CONTINUOUS
 62
3
100
AcDbLine
 10
167.8666667143505
 20
435.3333333333333
 30
0.0000000000000000
 11
166.6666666666667
 21
431.3333333333333
 31
0.0000000000000000
  0
LINE
  5
157
100
AcDbEntity
  8
MAIN0
  6
CONTINUOUS
 62
3
100
AcDbLine
 10
166.6666666666667
 20
431.3333333333333
 30
0.0000000000000000
 11
165.4666666189830
 21
435.3333333333333
 31
0.0000000000000000
  0
MTEXT
  5
158
100
AcDbEntity
  8
MAIN0
  6
CONTINUOUS
 62
3
100
AcDbMText
 10
165.6666666666667
 20
499.9999999999999
 30
0.0000000000000000
 40
6.199999809265137
 41
0.0000000000000000
 71
     8
 72
     1
  1
{\U+2205103}
 11
6.123233995736766e-017
 21
1.000000000000000
 31
0.0000000000000000
  7
STANDARD
  0
LINE
  5
159
100
AcDbEntity
  8
MAIN0
  6
CONTINUOUS
 62
3
100
AcDbLine
 10
247.8027082257789
 20
431.3333333333333
 30
0.0000000000000000
 11
164.6666666666667
 21
431.3333333333333
 31
0.0000000000000000
  0
LINE
  5
15A
100
AcDbEntity
  8
MAIN0
  6
CONTINUOUS
 62
1
100
AcDbLine
 10
229.8666666427630
 20
570.9086666666678
 30
0.0000000000000000
 11
144.6666666668307
 21
570.9086666667938
 31
0.0000000000000000
  0
LINE
  5
15B
100
AcDbEntity
  8
MAIN0
  6
CONTINUOUS
 62
1
100
AcDbLine
 10
146.6666666668307
 20
570.9086666667909
 30
0.0000000000000000
 11
146.6666666666210
 21
429.0913333334574
 31
0.0000000000000000
  0
LINE
  5
15C
100
AcDbEntity
  8
MAIN0
  6
CONTINUOUS
 62
1
100
AcDbLine
 10
147.8666667145085
 20
566.9086666667890
 30
0.0000000000000000
 11
146.6666666668307
 21
570.9086666667909
 31
0.0000000000000000
  0
LINE
  5
15D
100
AcDbEntity
  8
MAIN0
  6
CONTINUOUS
 62
1
100
AcDbLine
 10
146.6666666668307
 20
570.9086666667909
 30
0.0000000000000000
 11
145.4666666191411
 21
566.9086666667927
 31
0.0000000000000000
  0
LINE
  5
15E
100
AcDbEntity
  8
MAIN0
  6
CONTINUOUS
 62
1
100
AcDbLine
 10
147.8666667143107
 20
433.0913333334557
 30
0.0000000000000000
 11
146.6666666666210
 21
429.0913333334574
 31
0.0000000000000000
  0
LINE
  5
15F
100
AcDbEntity
  8
MAIN0
  6
CONTINUOUS
 62
1
100
AcDbLine
 10
146.6666666666210
 20
429.0913333334574
 30
0.0000000000000000
 11
145.4666666189432
 21
433.0913333334592
 31
0.0000000000000000
  0
MTEXT
  5
160
100
AcDbEntity
  8
MAIN0
  6
CONTINUOUS
 62
1
100
AcDbMText
 10
145.6666666666670
 20
490.0499997289245
 30
0.0000000000000000
 40
6.199999809265137
 41
0.0000000000000000
 71
     8
 72
     1
  1
{\U+2205106.375}
 11
6.123233995736766e-017
 21
1.000000000000000
 31
0.0000000000000000
  7
STANDARD
  0
MTEXT
  5
161
100
AcDbEntity
  8
MAIN0
  6
CONTINUOUS
 62
1
100
AcDbMText
 10
140.0666667620733
 20
516.3000000120549
 30
0.0000000000000000
 40
5.599999904632568
 41
0.0000000000000000
 71
     8
 72
     1
  1
{＋0.004}
 11
6.123233995736766e-017
 21
1.000000000000000
 31
0.0000000000000000
  7
KNJYOKO
  0
MTEXT
  5
162
100
AcDbEntity
  8
MAIN0
  6
CONTINUOUS
 62
1
100
AcDbMText
 10
145.6666666667059
 20
516.3000000120466
 30
0.0000000000000000
 40
5.599999904632568
 41
0.0000000000000000
 71
     8
 72
     1
  1
{－0.006}
 11
6.123233995736766e-017
 21
1.000000000000000
 31
0.0000000000000000
  7
KNJYOKO
  0
LINE
  5
163
100
AcDbEntity
  8
MAIN0
  6
CONTINUOUS
 62
1
100
AcDbLine
 10
229.8666666427630
 20
429.0913333333344
 30
0.0000000000000000
 11
144.6666666666210
 21
429.0913333334604
 31
0.0000000000000000
  0
POINT
  5
164
100
AcDbEntity
  8
MAIN0
  6
CONTINUOUS
 62
3
100
AcDbPoint
 10
230.6666666665050
 20
390.6666666666666
 30
0.0000000000000000
  0
LINE
  5
165
100
AcDbEntity
  8
MAIN0
  6
CONTINUOUS
 62
3
100
AcDbLine
 10
231.8666666545023
 20
666.6666666666666
 30
0.0000000000000000
 11
98.00000000000000
 21
666.6666666666666
 31
0.0000000000000000
  0
LINE
  5
166
100
AcDbEntity
  8
MAIN0
  6
CONTINUOUS
 62
3
100
AcDbLine
 10
100.0000000000000
 20
666.6666666666666
 30
0.0000000000000000
 11
100.0000000000000
 21
333.3333333333334
 31
0.0000000000000000
  0
LINE
  5
167
100
AcDbEntity
  8
MAIN0
  6
CONTINUOUS
 62
3
100
AcDbLine
 10
101.2000000476837
 20
662.6666666666666
 30
0.0000000000000000
 11
100.0000000000000
 21
666.6666666666666
 31
0.0000000000000000
  0
LINE
  5
168
100
AcDbEntity
  8
MAIN0
  6
CONTINUOUS
 62
3
100
AcDbLine
 10
100.0000000000000
 20
666.6666666666666
 30
0.0000000000000000
 11
98.79999995231628
 21
662.6666666666666
 31
0.0000000000000000
  0
LINE
  5
169
100
AcDbEntity
  8
MAIN0
  6
CONTINUOUS
 62
3
100
AcDbLine
 10
101.2000000476837
 20
337.3333333333334
 30
0.0000000000000000
 11
100.0000000000000
 21
333.3333333333334
 31
0.0000000000000000
  0
LINE
  5
16A
100
AcDbEntity
  8
MAIN0
  6
CONTINUOUS
 62
3
100
AcDbLine
 10
100.0000000000000
 20
333.3333333333334
 30
0.0000000000000000
 11
98.79999995231628
 21
337.3333333333334
 31
0.0000000000000000
  0
MTEXT
  5
16B
100
AcDbEntity
  8
MAIN0
  6
CONTINUOUS
 62
3
100
AcDbMText
 10
99.00000000000000
 20
500.0000000000000
 30
0.0000000000000000
 40
6.199999809265137
 41
0.0000000000000000
 71
     8
 72
     1
  1
{\U+2205250}
 11
6.123233995736766e-017
 21
1.000000000000000
 31
0.0000000000000000
  7
STANDARD
  0
LINE
  5
16C
100
AcDbEntity
  8
MAIN0
  6
CONTINUOUS
 62
3
100
AcDbLine
 10
231.8666666545023
 20
333.3333333333333
 30
0.0000000000000000
 11
98.00000000000000
 21
333.3333333333334
 31
0.0000000000000000
  0
LINE
  5
16D
100
AcDbEntity
  8
MAIN0
  6
CONTINUOUS
 62
3
100
AcDbLine
 10
295.9736731527927
 20
796.1071946145363
 30
0.0000000000000000
 11
278.7135165749491
 21
766.9279343271276
 31
0.0000000000000000
  0
LINE
  5
16E
100
AcDbEntity
  8
MAIN0
  6
CONTINUOUS
 62
3
100
AcDbLine
 10
297.5156278134842
 20
796.3569463689091
 30
0.0000000000000000
 11
294.4463135397546
 21
793.5251077429418
 31
0.0000000000000000
  0
LINE
  5
16F
100
AcDbEntity
  8
MAIN0
  6
CONTINUOUS
 62
3
100
AcDbLine
 10
294.4463135397546
 20
793.5251077429418
 30
0.0000000000000000
 11
295.4499582341264
 21
797.5788341078930
 31
0.0000000000000000
  0
LINE
  5
170
100
AcDbEntity
  8
MAIN0
  6
CONTINUOUS
 62
3
100
AcDbLine
 10
284.5500417650278
 20
774.4378978144855
 30
0.0000000000000000
 11
285.5536864593996
 21
778.4916241794367
 31
0.0000000000000000
  0
LINE
  5
171
100
AcDbEntity
  8
MAIN0
  6
CONTINUOUS
 62
3
100
AcDbLine
 10
285.5536864593996
 20
778.4916241794367
 30
0.0000000000000000
 11
282.4843721856699
 21
775.6597855534694
 31
0.0000000000000000
  0
MTEXT
  5
172
100
AcDbEntity
  8
MAIN0
  6
CONTINUOUS
 62
3
100
AcDbMText
 10
276.1038500544238
 20
764.4803210538830
 30
0.0000000000000000
 40
6.199999809265137
 41
0.0000000000000000
 71
     8
 72
     1
  1
{\U+220513.1}
 11
0.5091198710126906
 21
0.8606956238648023
 31
0.0000000000000000
  7
STANDARD
  0
LINE
  5
173
100
AcDbEntity
  8
MAIN0
  6
CONTINUOUS
 62
3
100
AcDbLine
 10
299.2688825975267
 20
786.1675737790716
 30
0.0000000000000000
 11
317.7138197935321
 21
767.7226365831129
 31
0.0000000000000000
  0
LINE
  5
174
100
AcDbEntity
  8
MAIN0
  6
CONTINUOUS
 62
3
100
AcDbLine
 10
326.2935094340713
 20
779.1307533484235
 30
0.0000000000000000
 11
304.7501954717918
 21
757.5874393860893
 31
0.0000000000000000
  0
LINE
  5
175
100
AcDbEntity
  8
MAIN0
  6
CONTINUOUS
 62
3
100
AcDbLine
 10
319.9765615270425
 20
771.1167490990938
 30
0.0000000000000000
 11
316.2996062311574
 21
769.1368501454842
 31
0.0000000000000000
  0
LINE
  5
176
100
AcDbEntity
  8
MAIN0
  6
CONTINUOUS
 62
3
100
AcDbLine
 10
316.2996062311574
 20
769.1368501454842
 30
0.0000000000000000
 11
318.2795051847576
 21
772.8138054413743
 31
0.0000000000000000
  0
LINE
  5
177
100
AcDbEntity
  8
MAIN0
  6
CONTINUOUS
 62
3
100
AcDbLine
 10
304.8916168617486
 20
756.0318044337616
 30
0.0000000000000000
 11
306.8715158153487
 21
759.7087597296517
 31
0.0000000000000000
  0
LINE
  5
178
100
AcDbEntity
  8
MAIN0
  6
CONTINUOUS
 62
3
100
AcDbLine
 10
306.8715158153487
 20
759.7087597296517
 30
0.0000000000000000
 11
303.1945605194637
 21
757.7288607760421
 31
0.0000000000000000
  0
MTEXT
  5
179
100
AcDbEntity
  8
MAIN0
  6
CONTINUOUS
 62
3
100
AcDbMText
 10
321.0846161274343
 20
775.3360736041476
 30
0.0000000000000000
 40
6.199999809265137
 41
0.0000000000000000
 71
     8
 72
     1
  1
{\H0.69x;{10}}
 11
0.7071067811856523
 21
0.7071067811874428
 31
0.0000000000000000
  7
STANDARD
  0
MTEXT
  5
17A
100
AcDbEntity
  8
MAIN0
  6
CONTINUOUS
 62
3
100
AcDbMText
 10
325.8575871269667
 20
788.0286404181215
 30
0.0000000000000000
 40
5.599999904632568
 41
0.0000000000000000
 71
     8
 72
     1
  1
{＋0.15}
 11
0.7071067811856523
 21
0.7071067811874428
 31
0.0000000000000000
  7
KNJYOKO
  0
MTEXT
  5
17B
100
AcDbEntity
  8
MAIN0
  6
CONTINUOUS
 62
3
100
AcDbMText
 10
329.8173850341815
 20
784.0688425109170
 30
0.0000000000000000
 40
5.599999904632568
 41
0.0000000000000000
 71
     8
 72
     1
  1
{＋0.05}
 11
0.7071067811856523
 21
0.7071067811874428
 31
0.0000000000000000
  7
KNJYOKO
  0
LINE
  5
17C
100
AcDbEntity
  8
MAIN0
  6
CONTINUOUS
 62
3
100
AcDbLine
 10
289.8407921817179
 20
776.7394833632393
 30
0.0000000000000000
 11
308.2857293777235
 21
758.2945461672804
 31
0.0000000000000000
  0
LINE
  5
17D
100
AcDbEntity
  8
MAIN0
  6
CONTINUOUS
 62
3
100
AcDbLine
 10
334.1333333451426
 20
424.4333333333333
 30
0.0000000000000000
 11
362.0000000000000
 21
424.4333333333333
 31
0.0000000000000000
  0
LINE
  5
17E
100
AcDbEntity
  8
MAIN0
  6
CONTINUOUS
 62
3
100
AcDbLine
 10
360.0000000000000
 20
424.4333333333333
 30
0.0000000000000000
 11
360.0000000000000
 21
397.7666666666667
 31
0.0000000000000000
  0
LINE
  5
17F
100
AcDbEntity
  8
MAIN0
  6
CONTINUOUS
 62
3
100
AcDbLine
 10
361.2000000476837
 20
420.4333333333333
 30
0.0000000000000000
 11
360.0000000000000
 21
424.4333333333333
 31
0.0000000000000000
  0
LINE
  5
180
100
AcDbEntity
  8
MAIN0
  6
CONTINUOUS
 62
3
100
AcDbLine
 10
360.0000000000000
 20
424.4333333333333
 30
0.0000000000000000
 11
358.7999999523163
 21
420.4333333333333
 31
0.0000000000000000
  0
LINE
  5
181
100
AcDbEntity
  8
MAIN0
  6
CONTINUOUS
 62
3
100
AcDbLine
 10
361.2000000476837
 20
401.7666666666667
 30
0.0000000000000000
 11
360.0000000000000
 21
397.7666666666667
 31
0.0000000000000000
  0
LINE
  5
182
100
AcDbEntity
  8
MAIN0
  6
CONTINUOUS
 62
3
100
AcDbLine
 10
360.0000000000000
 20
397.7666666666667
 30
0.0000000000000000
 11
358.7999999523163
 21
401.7666666666667
 31
0.0000000000000000
  0
MTEXT
  5
183
100
AcDbEntity
  8
MAIN0
  6
CONTINUOUS
 62
3
100
AcDbMText
 10
359.0000000000000
 20
411.1000000000000
 30
0.0000000000000000
 40
6.199999809265137
 41
0.0000000000000000
 71
     8
 72
     1
  1
{\U+220520}
 11
6.123233995736766e-017
 21
1.000000000000000
 31
0.0000000000000000
  7
STANDARD
  0
LINE
  5
184
100
AcDbEntity
  8
MAIN0
  6
CONTINUOUS
 62
3
100
AcDbLine
 10
334.1333333451032
 20
397.7666666666667
 30
0.0000000000000000
 11
362.0000000000000
 21
397.7666666666667
 31
0.0000000000000000
  0
INSERT
  5
18B
100
AcDbEntity
  8
MAIN0
  6
CONTINUOUS
 62
2
100
AcDbBlockReference
  2
M0
 10
0.0000000000000000
 20
0.0000000000000000
 30
0.0000000000000000
 50
0.0000000000000000
  0
INSERT
  5
192
100
AcDbEntity
  8
MAIN0
  6
CONTINUOUS
 62
2
100
AcDbBlockReference
  2
M1
 10
0.0000000000000000
 20
0.0000000000000000
 30
0.0000000000000000
 50
0.0000000000000000
  0
MTEXT
  5
193
100
AcDbEntity
  8
MAIN0
  6
CONTINUOUS
 62
3
100
AcDbMText
 10
678.0000000000000
 20
713.1264902209307
 30
0.0000000000000000
 40
10.00000000000000
 41
0.0000000000000000
 71
     1
 72
     1
  1
{\H0.82x;{A}}
 11
1.000000000000000
 21
0.0000000000000000
 31
0.0000000000000000
  7
STANDARD
  0
MTEXT
  5
194
100
AcDbEntity
  8
MAIN0
  6
CONTINUOUS
 62
3
100
AcDbMText
 10
703.3333333333334
 20
496.6666666666667
 30
0.0000000000000000
 40
10.00000000000000
 41
0.0000000000000000
 71
     1
 72
     1
  1
{\H0.82x;{O}}
 11
1.000000000000000
 21
0.0000000000000000
 31
0.0000000000000000
  7
STANDARD
  0
MTEXT
  5
195
100
AcDbEntity
  8
MAIN0
  6
CONTINUOUS
 62
3
100
AcDbMText
 10
553.3333333333334
 20
393.3333333333334
 30
0.0000000000000000
 40
10.00000000000000
 41
0.0000000000000000
 71
     1
 72
     1
  1
{\H0.82x;{B}}
 11
1.000000000000000
 21
0.0000000000000000
 31
0.0000000000000000
  7
STANDARD
  0
MTEXT
  5
196
100
AcDbEntity
  8
MAIN0
  6
CONTINUOUS
 62
3
100
AcDbMText
 10
226.2556792636947
 20
305.0819638753734
 30
0.0000000000000000
 40
10.00000000000000
 41
0.0000000000000000
 71
     1
 72
     1
  1
{\H0.93x;{断面Ａ－Ｏ－Ｂ}}
 11
1.000000000000000
 21
0.0000000000000000
 31
0.0000000000000000
  7
KNJYOKO
  0
LEADER
  5
197
100
AcDbEntity
  8
MAIN0
  6
CONTINUOUS
 62
3
100
AcDbLeader
  3
MAIN001
 73
     0
 75
     1
 40
6.199999809265137
 41
84.19900207424166
 76
     3
 10
618.0717446698429
 20
556.3311351072773
 30
0.0000000000000000
 10
566.6666666666667
 20
680.0000000000000
 30
0.0000000000000000
 10
562.8136667782467
 20
680.0000000000000
 30
0.0000000000000000
340
198
213
0.0000000000000000
223
-1.000000000000000
233
0.0000000000000000
1001
ACAD
1000
DSTYLE
1002
{
1070
   147
1040
0.0
1070
    77
1070
     1
1070
   173
1070
     1
1070
     6
1000
_OPEN
1070
     7
1000
_OPEN
1002
}
  0
MTEXT
  5
198
102
{ACAD_REACTORS
330
197
102
}
100
AcDbEntity
  8
MAIN0
  6
CONTINUOUS
 62
3
100
AcDbMText
 10
478.6146647040050
 20
687.1999998092651
 30
0.0000000000000000
 40
6.199999809265137
 41
0.0000000000000000
 71
     1
 72
     1
  1
{\H0.94x;{ドライブピン穴 (1ヶ所)\PDRIVE PIN HOLE\P(1 PIECE)}}
 11
1.000000000000000
 21
0.0000000000000000
 31
0.0000000000000000
  7
KNJYOKO
  0
LINE
  5
199
100
AcDbEntity
  8
MAIN0
  6
CONTINUOUS
 62
3
100
AcDbLine
 10
473.3333333333334
 20
633.3333333333333
 30
0.0000000000000000
 11
526.6666666666667
 21
633.3333333333333
 31
0.0000000000000000
  0
LINE
  5
19A
100
AcDbEntity
  8
MAIN0
  6
CENTER
 62
3
100
AcDbLine
 10
500.0000000000055
 20
613.3333333333333
 30
0.0000000000000000
 11
499.9999999999981
 21
640.0000000000000
 31
0.0000000000000000
  0
LINE
  5
19B
100
AcDbEntity
  8
MAIN0
  6
CONTINUOUS
 62
3
100
AcDbLine
 10
487.1333333333357
 20
624.9333333333332
 30
0.0000000000000000
 11
487.1333333333333
 21
633.3333333333333
 31
0.0000000000000000
  0
LINE
  5
19C
100
AcDbEntity
  8
MAIN0
  6
CONTINUOUS
 62
3
100
AcDbLine
 10
512.8666666666691
 20
624.9333333333333
 30
0.0000000000000000
 11
512.8666666666667
 21
633.3333333333334
 31
0.0000000000000000
  0
LINE
  5
19D
100
AcDbEntity
  8
MAIN0
  6
CONTINUOUS
 62
3
100
AcDbLine
 10
487.1333333333356
 20
624.9333333333333
 30
0.0000000000000000
 11
512.8666666666691
 21
624.9333333333333
 31
0.0000000000000000
  0
LINE
  5
19E
100
AcDbEntity
  8
MAIN0
  6
CONTINUOUS
 62
3
100
AcDbLine
 10
500.0000000000769
 20
620.3145311792401
 30
0.0000000000000000
 11
508.0000000010522
 21
624.9333333333332
 31
0.0000000000000000
  0
LINE
  5
19F
100
AcDbEntity
  8
MAIN0
  6
CONTINUOUS
 62
3
100
AcDbLine
 10
491.9999999990847
 20
624.9333333333335
 30
0.0000000000000000
 11
500.0000000000768
 21
620.3145311792403
 31
0.0000000000000000
  0
POINT
  5
1A0
100
AcDbEntity
  8
MAIN0
  6
CONTINUOUS
 62
3
100
AcDbPoint
 10
491.9999999990847
 20
624.9333333333335
 30
0.0000000000000000
  0
POINT
  5
1A1
100
AcDbEntity
  8
MAIN0
  6
CONTINUOUS
 62
3
100
AcDbPoint
 10
508.0000000010522
 20
624.9333333333333
 30
0.0000000000000000
  0
LINE
  5
1A2
100
AcDbEntity
  8
MAIN0
  6
CONTINUOUS
 62
3
100
AcDbLine
 10
224.9520929072887
 20
293.3333333333260
 30
0.0000000000000000
 11
303.1956941522493
 21
293.3333333333260
 31
0.0000000000000000
  0
LINE
  5
1A3
100
AcDbEntity
  8
MAIN0
  6
CONTINUOUS
 62
3
100
AcDbLine
 10
230.6666666666667
 20
440.0000000000000
 30
0.0000000000000000
 11
253.3333333320372
 21
440.0000000000000
 31
0.0000000000000000
  0
LINE
  5
1A4
100
AcDbEntity
  8
MAIN0
  6
CONTINUOUS
 62
3
100
AcDbLine
 10
234.6666666666667
 20
441.2000000476837
 30
0.0000000000000000
 11
230.6666666666667
 21
440.0000000000000
 31
0.0000000000000000
  0
LINE
  5
1A5
100
AcDbEntity
  8
MAIN0
  6
CONTINUOUS
 62
3
100
AcDbLine
 10
230.6666666666667
 20
440.0000000000000
 30
0.0000000000000000
 11
234.6666666666667
 21
438.7999999523163
 31
0.0000000000000000
  0
LINE
  5
1A6
100
AcDbEntity
  8
MAIN0
  6
CONTINUOUS
 62
3
100
AcDbLine
 10
249.3333333320372
 20
441.2000000476837
 30
0.0000000000000000
 11
253.3333333320372
 21
440.0000000000000
 31
0.0000000000000000
  0
LINE
  5
1A7
100
AcDbEntity
  8
MAIN0
  6
CONTINUOUS
 62
3
100
AcDbLine
 10
253.3333333320372
 20
440.0000000000000
 30
0.0000000000000000
 11
249.3333333320372
 21
438.7999999523163
 31
0.0000000000000000
  0
MTEXT
  5
1A8
100
AcDbEntity
  8
MAIN0
  6
CONTINUOUS
 62
3
100
AcDbMText
 10
240.0000000000000
 20
441.0000000000000
 30
0.0000000000000000
 40
6.199999809265137
 41
0.0000000000000000
 71
     8
 72
     1
  1
{\H0.69x;{17}}
 11
1.000000000000000
 21
0.0000000000000000
 31
0.0000000000000000
  7
STANDARD
  0
LINE
  5
1A9
100
AcDbEntity
  8
MAIN0
  6
CONTINUOUS
 62
3
100
AcDbLine
 10
258.6666666666037
 20
480.0000000000000
 30
0.0000000000000000
 11
230.6666666666667
 21
480.0000000000000
 31
0.0000000000000000
  0
LINE
  5
1AA
100
AcDbEntity
  8
MAIN0
  6
CONTINUOUS
 62
3
100
AcDbLine
 10
254.6666666666037
 20
478.7999999523163
 30
0.0000000000000000
 11
258.6666666666037
 21
480.0000000000000
 31
0.0000000000000000
  0
LINE
  5
1AB
100
AcDbEntity
  8
MAIN0
  6
CONTINUOUS
 62
3
100
AcDbLine
 10
258.6666666666037
 20
480.0000000000000
 30
0.0000000000000000
 11
254.6666666666037
 21
481.2000000476837
 31
0.0000000000000000
  0
LINE
  5
1AC
100
AcDbEntity
  8
MAIN0
  6
CONTINUOUS
 62
3
100
AcDbLine
 10
234.6666666666667
 20
478.7999999523163
 30
0.0000000000000000
 11
230.6666666666667
 21
480.0000000000000
 31
0.0000000000000000
  0
LINE
  5
1AD
100
AcDbEntity
  8
MAIN0
  6
CONTINUOUS
 62
3
100
AcDbLine
 10
230.6666666666667
 20
480.0000000000000
 30
0.0000000000000000
 11
234.6666666666667
 21
481.2000000476837
 31
0.0000000000000000
  0
MTEXT
  5
1AE
100
AcDbEntity
  8
MAIN0
  6
CONTINUOUS
 62
3
100
AcDbMText
 10
240.0000000000000
 20
481.0000000000000
 30
0.0000000000000000
 40
6.199999809265137
 41
0.0000000000000000
 71
     8
 72
     1
  1
{\H0.69x;{21}}
 11
1.000000000000000
 21
0.0000000000000000
 31
0.0000000000000000
  7
STANDARD
  0
POINT
  5
1AF
100
AcDbEntity
  8
MAIN0
  6
CONTINUOUS
 62
3
100
AcDbPoint
 10
700.0000000000000
 20
500.0000000000000
 30
0.0000000000000000
  0
LINE
  5
1B0
100
AcDbEntity
  8
MAIN0
  6
CONTINUOUS
 62
3
100
AcDbLine
 10
1024.630136168720
 20
504.0000000000046
 30
0.0000000000000000
 11
1032.608440082980
 21
504.0000000000004
 31
0.0000000000000000
  0
LINE
  5
1B1
100
AcDbEntity
  8
MAIN0
  6
CONTINUOUS
 62
3
100
AcDbLine
 10
1034.058226584606
 20
503.9999999999997
 30
0.0000000000000000
 11
1042.036530498295
 21
503.9999999999955
 31
0.0000000000000000
  0
SPLINE
  5
1B2
100
AcDbEntity
  8
MAIN0
  6
CONTINUOUS
 62
3
100
AcDbSpline
210
0.0000000000000000
220
0.0000000000000000
230
1.000000000000000
 70
     8
 71
     3
 72
    16
 73
    12
 74
     0
 42
1.000000000000000e-007
 43
1.000000000000000e-007
 12
-0.4875242816669712
 22
-1.290578294109949
 32
0.0000000000000000
 13
0.4107054528808725
 23
-1.349925119579019
 33
0.0000000000000000
 40
0.0000000000000000
 40
0.0000000000000000
 40
0.0000000000000000
 40
0.0000000000000000
 40
20.61552812808830
 40
41.23105625617661
 40
57.04244455701851
 40
97.35373329851126
 40
127.3537332985113
 40
157.3537332985113
 40
192.7090723578386
 40
219.6348963935112
 40
254.9902354528385
 40
254.9902354528385
 40
254.9902354528385
 40
254.9902354528385
 10
253.3333333333334
 20
666.6666666666666
 30
0.0000000000000000
 10
249.9831431527229
 20
657.7980156254254
 30
0.0000000000000000
 10
243.2827627915017
 20
640.0607135429428
 30
0.0000000000000000
 10
252.7391909521851
 20
615.1854821181801
 30
0.0000000000000000
 10
264.1302959905707
 20
583.3185828216781
 30
0.0000000000000000
 10
267.3731765843908
 20
544.4753841649833
 30
0.0000000000000000
 10
266.3986544572277
 20
499.9933719749799
 30
0.0000000000000000
 10
267.1760389538326
 20
457.7511593476990
 30
0.0000000000000000
 10
264.8075329560629
 20
416.0427804262345
 30
0.0000000000000000
 10
239.9667187216676
 20
377.2673222819859
 30
0.0000000000000000
 10
248.4931231532941
 20
349.2423534358065
 30
0.0000000000000000
 10
253.3333333333334
 20
333.3333333333334
 30
0.0000000000000000
  0
LINE
  5
1B3
100
AcDbEntity
  8
MAIN0
  6
CONTINUOUS
 62
3
100
AcDbLine
 10
258.6666666666126
 20
536.6666666666666
 30
0.0000000000000000
 11
266.7330196153757
 21
536.6666668566086
 31
0.0000000000000000
  0
LINE
  5
1B4
100
AcDbEntity
  8
MAIN0
  6
HIDDEN
 62
3
100
AcDbLine
 10
266.7330196153756
 20
536.6666668566086
 30
0.0000000000000000
 11
333.3333333332791
 21
536.6666666666666
 31
0.0000000000000000
  0
LINE
  5
1B5
100
AcDbEntity
  8
MAIN0
  6
CONTINUOUS
 62
3
100
AcDbLine
 10
258.6666666666125
 20
463.3333333333333
 30
0.0000000000000000
 11
266.7124785038579
 21
463.3333329948405
 31
0.0000000000000000
  0
LINE
  5
1B6
100
AcDbEntity
  8
MAIN0
  6
HIDDEN
 62
3
100
AcDbLine
 10
266.7124785038579
 20
463.3333329948404
 30
0.0000000000000000
 11
333.3333333332791
 21
463.3333333333333
 31
0.0000000000000000
  0
LINE
  5
1B7
100
AcDbEntity
  8
MAIN0
  6
CENTER
 62
3
100
AcDbLine
 10
213.3333333333334
 20
499.9999999999999
 30
0.0000000000000000
 11
393.3333333333334
 21
499.9999999999999
 31
0.0000000000000000
  0
LINE
  5
1B8
100
AcDbEntity
  8
MAIN0
  6
CONTINUOUS
 62
3
100
AcDbLine
 10
333.3333333330899
 20
335.3333333333304
 30
0.0000000000000000
 11
333.3333333331815
 21
664.6666666666666
 31
0.0000000000000000
  0
LINE
  5
1B9
100
AcDbEntity
  8
MAIN0
  6
CONTINUOUS
 62
3
100
AcDbLine
 10
314.6666666665530
 20
425.2333333452542
 30
0.0000000000000000
 11
314.6666666665105
 21
442.0000000000000
 31
0.0000000000000000
  0
LINE
  5
1BA
100
AcDbEntity
  8
MAIN0
  6
CONTINUOUS
 62
3
100
AcDbLine
 10
314.6666666665155
 20
440.0000000000000
 30
0.0000000000000000
 11
333.3333333330899
 21
440.0000000000000
 31
0.0000000000000000
  0
LINE
  5
1BB
100
AcDbEntity
  8
MAIN0
  6
CONTINUOUS
 62
3
100
AcDbLine
 10
318.6666666665155
 20
441.2000000476837
 30
0.0000000000000000
 11
314.6666666665155
 21
440.0000000000000
 31
0.0000000000000000
  0
LINE
  5
1BC
100
AcDbEntity
  8
MAIN0
  6
CONTINUOUS
 62
3
100
AcDbLine
 10
314.6666666665155
 20
440.0000000000000
 30
0.0000000000000000
 11
318.6666666665155
 21
438.7999999523163
 31
0.0000000000000000
  0
LINE
  5
1BD
100
AcDbEntity
  8
MAIN0
  6
CONTINUOUS
 62
3
100
AcDbLine
 10
329.3333333330899
 20
441.2000000476837
 30
0.0000000000000000
 11
333.3333333330899
 21
440.0000000000000
 31
0.0000000000000000
  0
LINE
  5
1BE
100
AcDbEntity
  8
MAIN0
  6
CONTINUOUS
 62
3
100
AcDbLine
 10
333.3333333330899
 20
440.0000000000000
 30
0.0000000000000000
 11
329.3333333330899
 21
438.7999999523163
 31
0.0000000000000000
  0
MTEXT
  5
1BF
100
AcDbEntity
  8
MAIN0
  6
CONTINUOUS
 62
3
100
AcDbMText
 10
323.9999999998028
 20
441.0000000000000
 30
0.0000000000000000
 40
6.199999809265137
 41
0.0000000000000000
 71
     8
 72
     1
  1
{\H0.69x;{14}}
 11
1.000000000000000
 21
0.0000000000000000
 31
0.0000000000000000
  7
STANDARD
  0
LINE
  5
1C0
100
AcDbEntity
  8
MAIN0
  6
CONTINUOUS
 62
3
100
AcDbLine
 10
333.3333333331802
 20
665.4666666785876
 30
0.0000000000000000
 11
333.3333333330870
 21
728.6666666666666
 31
0.0000000000000000
  0
LINE
  5
1C1
100
AcDbEntity
  8
MAIN0
  6
CONTINUOUS
 62
3
100
AcDbLine
 10
333.3333333330899
 20
726.6666666666666
 30
0.0000000000000000
 11
230.6666666664232
 21
726.6666666666666
 31
0.0000000000000000
  0
LINE
  5
1C2
100
AcDbEntity
  8
MAIN0
  6
CONTINUOUS
 62
3
100
AcDbLine
 10
329.3333333330899
 20
725.4666666189829
 30
0.0000000000000000
 11
333.3333333330899
 21
726.6666666666666
 31
0.0000000000000000
  0
LINE
  5
1C3
100
AcDbEntity
  8
MAIN0
  6
CONTINUOUS
 62
3
100
AcDbLine
 10
333.3333333330899
 20
726.6666666666666
 30
0.0000000000000000
 11
329.3333333330899
 21
727.8666667143503
 31
0.0000000000000000
  0
LINE
  5
1C4
100
AcDbEntity
  8
MAIN0
  6
CONTINUOUS
 62
3
100
AcDbLine
 10
234.6666666664232
 20
725.4666666189829
 30
0.0000000000000000
 11
230.6666666664232
 21
726.6666666666666
 31
0.0000000000000000
  0
LINE
  5
1C5
100
AcDbEntity
  8
MAIN0
  6
CONTINUOUS
 62
3
100
AcDbLine
 10
230.6666666664232
 20
726.6666666666666
 30
0.0000000000000000
 11
234.6666666664232
 21
727.8666667143503
 31
0.0000000000000000
  0
MTEXT
  5
1C6
100
AcDbEntity
  8
MAIN0
  6
CONTINUOUS
 62
3
100
AcDbMText
 10
281.9999999997566
 20
727.6666666666666
 30
0.0000000000000000
 40
6.199999809265137
 41
0.0000000000000000
 71
     8
 72
     1
  1
{\H0.69x;{77}}
 11
1.000000000000000
 21
0.0000000000000000
 31
0.0000000000000000
  7
STANDARD
  0
LINE
  5
1C7
100
AcDbEntity
  8
MAIN0
  6
CONTINUOUS
 62
3
100
AcDbLine
 10
230.6666666664232
 20
665.4666666785845
 30
0.0000000000000000
 11
230.6666666664232
 21
728.6666666666666
 31
0.0000000000000000
  0
LINE
  5
1C8
100
AcDbEntity
  8
MAIN0
  6
CONTINUOUS
 62
3
100
AcDbLine
 10
333.3333333331797
 20
665.4666666785876
 30
0.0000000000000000
 11
333.3333333330855
 21
708.6666666666667
 31
0.0000000000000000
  0
LINE
  5
1C9
100
AcDbEntity
  8
MAIN0
  6
CONTINUOUS
 62
3
100
AcDbLine
 10
333.3333333330899
 20
706.6666666666666
 30
0.0000000000000000
 11
289.9999999997385
 21
706.6666666666666
 31
0.0000000000000000
  0
LINE
  5
1CA
100
AcDbEntity
  8
MAIN0
  6
CONTINUOUS
 62
3
100
AcDbLine
 10
329.3333333330899
 20
705.4666666189829
 30
0.0000000000000000
 11
333.3333333330899
 21
706.6666666666666
 31
0.0000000000000000
  0
LINE
  5
1CB
100
AcDbEntity
  8
MAIN0
  6
CONTINUOUS
 62
3
100
AcDbLine
 10
333.3333333330899
 20
706.6666666666666
 30
0.0000000000000000
 11
329.3333333330899
 21
707.8666667143503
 31
0.0000000000000000
  0
LINE
  5
1CC
100
AcDbEntity
  8
MAIN0
  6
CONTINUOUS
 62
3
100
AcDbLine
 10
293.9999999997385
 20
705.4666666189829
 30
0.0000000000000000
 11
289.9999999997385
 21
706.6666666666666
 31
0.0000000000000000
  0
LINE
  5
1CD
100
AcDbEntity
  8
MAIN0
  6
CONTINUOUS
 62
3
100
AcDbLine
 10
289.9999999997385
 20
706.6666666666666
 30
0.0000000000000000
 11
293.9999999997385
 21
707.8666667143503
 31
0.0000000000000000
  0
MTEXT
  5
1CE
100
AcDbEntity
  8
MAIN0
  6
CONTINUOUS
 62
3
100
AcDbMText
 10
311.6666666664142
 20
707.6666666666666
 30
0.0000000000000000
 40
6.199999809265137
 41
0.0000000000000000
 71
     8
 72
     1
  1
{\H0.62x;{32.5}}
 11
1.000000000000000
 21
0.0000000000000000
 31
0.0000000000000000
  7
STANDARD
  0
LINE
  5
1CF
100
AcDbEntity
  8
MAIN0
  6
CONTINUOUS
 62
3
100
AcDbLine
 10
289.9999999997385
 20
677.5569855447378
 30
0.0000000000000000
 11
289.9999999997385
 21
708.6666666666666
 31
0.0000000000000000
  0
LINE
  5
1D0
100
AcDbEntity
  8
MAIN0
  6
CONTINUOUS
 62
3
100
AcDbLine
 10
289.9999999997385
 20
706.6666666666666
 30
0.0000000000000000
 11
230.6666666664232
 21
706.6666666666666
 31
0.0000000000000000
  0
LINE
  5
1D1
100
AcDbEntity
  8
MAIN0
  6
CONTINUOUS
 62
3
100
AcDbLine
 10
285.9999999997385
 20
705.4666666189829
 30
0.0000000000000000
 11
289.9999999997385
 21
706.6666666666666
 31
0.0000000000000000
  0
LINE
  5
1D2
100
AcDbEntity
  8
MAIN0
  6
CONTINUOUS
 62
3
100
AcDbLine
 10
289.9999999997385
 20
706.6666666666666
 30
0.0000000000000000
 11
285.9999999997385
 21
707.8666667143503
 31
0.0000000000000000
  0
LINE
  5
1D3
100
AcDbEntity
  8
MAIN0
  6
CONTINUOUS
 62
3
100
AcDbLine
 10
234.6666666664232
 20
705.4666666189829
 30
0.0000000000000000
 11
230.6666666664232
 21
706.6666666666666
 31
0.0000000000000000
  0
LINE
  5
1D4
100
AcDbEntity
  8
MAIN0
  6
CONTINUOUS
 62
3
100
AcDbLine
 10
230.6666666664232
 20
706.6666666666666
 30
0.0000000000000000
 11
234.6666666664232
 21
707.8666667143503
 31
0.0000000000000000
  0
MTEXT
  5
1D5
100
AcDbEntity
  8
MAIN0
  6
CONTINUOUS
 62
3
100
AcDbMText
 10
260.3333333330809
 20
707.6666666666666
 30
0.0000000000000000
 40
6.199999809265137
 41
0.0000000000000000
 71
     8
 72
     1
  1
{\H0.62x;{44.5}}
 11
1.000000000000000
 21
0.0000000000000000
 31
0.0000000000000000
  7
STANDARD
  0
LINE
  5
1D6
100
AcDbEntity
  8
MAIN0
  6
CONTINUOUS
 62
3
100
AcDbLine
 10
230.6666666664232
 20
665.4666666785845
 30
0.0000000000000000
 11
230.6666666664232
 21
708.6666666666666
 31
0.0000000000000000
  0
LINE
  5
1D7
100
AcDbEntity
  8
MAIN0
  6
CONTINUOUS
 62
3
100
AcDbLine
 10
380.8000000117551
 20
506.6666666666666
 30
0.0000000000000000
 11
408.6666666666667
 21
506.6666666666666
 31
0.0000000000000000
  0
LINE
  5
1D8
100
AcDbEntity
  8
MAIN0
  6
CONTINUOUS
 62
3
100
AcDbLine
 10
406.6666666666667
 20
509.6666666666666
 30
0.0000000000000000
 11
406.6666666666667
 21
490.3333333333333
 31
0.0000000000000000
  0
LINE
  5
1D9
100
AcDbEntity
  8
MAIN0
  6
CONTINUOUS
 62
3
100
AcDbLine
 10
407.8666667143504
 20
510.6666666666666
 30
0.0000000000000000
 11
406.6666666666667
 21
506.6666666666666
 31
0.0000000000000000
  0
LINE
  5
1DA
100
AcDbEntity
  8
MAIN0
  6
CONTINUOUS
 62
3
100
AcDbLine
 10
406.6666666666667
 20
506.6666666666666
 30
0.0000000000000000
 11
405.4666666189830
 21
510.6666666666666
 31
0.0000000000000000
  0
LINE
  5
1DB
100
AcDbEntity
  8
MAIN0
  6
CONTINUOUS
 62
3
100
AcDbLine
 10
407.8666667143504
 20
489.3333333333333
 30
0.0000000000000000
 11
406.6666666666667
 21
493.3333333333333
 31
0.0000000000000000
  0
LINE
  5
1DC
100
AcDbEntity
  8
MAIN0
  6
CONTINUOUS
 62
3
100
AcDbLine
 10
406.6666666666667
 20
493.3333333333333
 30
0.0000000000000000
 11
405.4666666189830
 21
489.3333333333333
 31
0.0000000000000000
  0
MTEXT
  5
1DD
100
AcDbEntity
  8
MAIN0
  6
CONTINUOUS
 62
3
100
AcDbMText
 10
405.6666666666667
 20
499.9999999999999
 30
0.0000000000000000
 40
6.199999809265137
 41
0.0000000000000000
 71
     8
 72
     1
  1
{\H0.69x;{10}}
 11
6.123233995736766e-017
 21
1.000000000000000
 31
0.0000000000000000
  7
STANDARD
  0
LINE
  5
1DE
100
AcDbEntity
  8
MAIN0
  6
CONTINUOUS
 62
3
100
AcDbLine
 10
380.8000000117749
 20
493.3333333333333
 30
0.0000000000000000
 11
408.6666666666667
 21
493.3333333333333
 31
0.0000000000000000
  0
LINE
  5
1DF
100
AcDbEntity
  8
MAIN0
  6
CONTINUOUS
 62
3
100
AcDbLine
 10
120.0000000000000
 20
457.7833315531413
 30
0.0000000000000000
 11
120.0000000000000
 21
390.6666666666666
 31
0.0000000000000000
  0
LINE
  5
1E0
100
AcDbEntity
  8
MAIN0
  6
CONTINUOUS
 62
3
100
AcDbLine
 10
121.2000000476837
 20
394.6666666666666
 30
0.0000000000000000
 11
120.0000000000000
 21
390.6666666666666
 31
0.0000000000000000
  0
LINE
  5
1E1
100
AcDbEntity
  8
MAIN0
  6
CONTINUOUS
 62
3
100
AcDbLine
 10
120.0000000000000
 20
390.6666666666666
 30
0.0000000000000000
 11
118.7999999523163
 21
394.6666666666666
 31
0.0000000000000000
  0
MTEXT
  5
1E2
100
AcDbEntity
  8
MAIN0
  6
CONTINUOUS
 62
3
100
AcDbMText
 10
119.0000000000000
 20
500.0000000000000
 30
0.0000000000000000
 40
6.199999809265137
 41
0.0000000000000000
 71
     8
 72
     1
  1
{\U+2205164}
 11
6.123233995736766e-017
 21
1.000000000000000
 31
0.0000000000000000
  7
STANDARD
  0
LINE
  5
1E3
100
AcDbEntity
  8
MAIN0
  6
CONTINUOUS
 62
3
100
AcDbLine
 10
229.8666666545841
 20
390.6666666666666
 30
0.0000000000000000
 11
118.0000000000000
 21
390.6666666666666
 31
0.0000000000000000
  0
ARC
  5
1E4
100
AcDbEntity
  8
MAIN0
  6
CONTINUOUS
 62
3
100
AcDbCircle
 10
230.6666666546839
 20
429.0913333333333
 30
0.0000000000000000
 40
83.99999998806295
100
AcDbArc
 50
180.0000000000000
 51
191.2175556800849
  0
LINE
  5
1E5
100
AcDbEntity
  8
MAIN0
  6
CONTINUOUS
 62
3
100
AcDbLine
 10
149.0021933972715
 20
414.8521691122080
 30
0.0000000000000000
 11
147.3153220496271
 21
418.6724394129769
 31
0.0000000000000000
  0
LINE
  5
1E6
100
AcDbEntity
  8
MAIN0
  6
CONTINUOUS
 62
3
100
AcDbLine
 10
147.3153220496271
 20
418.6724394129769
 30
0.0000000000000000
 11
146.6207263135862
 21
414.5544864168981
 31
0.0000000000000000
  0
MTEXT
  5
1E7
100
AcDbEntity
  8
MAIN0
  6
CONTINUOUS
 62
3
100
AcDbMText
 10
145.8309197347601
 20
423.8096629053968
 30
0.0000000000000000
 40
6.199999809265137
 41
0.0000000000000000
 71
     8
 72
     1
  1
{\H0.56x;{7\U+00B007′30″}}
 11
-0.06213729916091997
 21
0.9980676109627976
 31
0.0000000000000000
  7
KNJYOKO
  0
LINE
  5
1E8
100
AcDbEntity
  8
MAIN0
  6
CONTINUOUS
 62
3
100
AcDbLine
 10
229.8728443131703
 20
428.9921057706943
 30
0.0000000000000000
 11
145.3307662254151
 21
418.4243705100761
 31
0.0000000000000000
  0
LINE
  5
1E9
100
AcDbEntity
  8
MAIN0
  6
CONTINUOUS
 62
3
100
AcDbLine
 10
257.8666666546916
 20
536.6666666666666
 30
0.0000000000000000
 11
204.6666666666667
 21
536.6666666666666
 31
0.0000000000000000
  0
LINE
  5
1EA
100
AcDbEntity
  8
MAIN0
  6
CONTINUOUS
 62
3
100
AcDbLine
 10
206.6666666666667
 20
536.6666666666666
 30
0.0000000000000000
 11
206.6666666666667
 21
463.3333333333333
 31
0.0000000000000000
  0
LINE
  5
1EB
100
AcDbEntity
  8
MAIN0
  6
CONTINUOUS
 62
3
100
AcDbLine
 10
207.8666667143504
 20
532.6666666666666
 30
0.0000000000000000
 11
206.6666666666667
 21
536.6666666666666
 31
0.0000000000000000
  0
LINE
  5
1EC
100
AcDbEntity
  8
MAIN0
  6
CONTINUOUS
 62
3
100
AcDbLine
 10
206.6666666666667
 20
536.6666666666666
 30
0.0000000000000000
 11
205.4666666189830
 21
532.6666666666666
 31
0.0000000000000000
  0
LINE
  5
1ED
100
AcDbEntity
  8
MAIN0
  6
CONTINUOUS
 62
3
100
AcDbLine
 10
207.8666667143504
 20
467.3333333333333
 30
0.0000000000000000
 11
206.6666666666667
 21
463.3333333333333
 31
0.0000000000000000
  0
LINE
  5
1EE
100
AcDbEntity
  8
MAIN0
  6
CONTINUOUS
 62
3
100
AcDbLine
 10
206.6666666666667
 20
463.3333333333333
 30
0.0000000000000000
 11
205.4666666189830
 21
467.3333333333333
 31
0.0000000000000000
  0
MTEXT
  5
1EF
100
AcDbEntity
  8
MAIN0
  6
CONTINUOUS
 62
3
100
AcDbMText
 10
205.6666666666667
 20
499.9999999999999
 30
0.0000000000000000
 40
6.199999809265137
 41
0.0000000000000000
 71
     8
 72
     1
  1
{\U+220555}
 11
6.123233995736766e-017
 21
1.000000000000000
 31
0.0000000000000000
  7
STANDARD
  0
LINE
  5
1F0
100
AcDbEntity
  8
MAIN0
  6
CONTINUOUS
 62
3
100
AcDbLine
 10
257.8666666546916
 20
463.3333333333333
 30
0.0000000000000000
 11
204.6666666666667
 21
463.3333333333333
 31
0.0000000000000000
  0
LINE
  5
1F1
100
AcDbEntity
  8
MAIN0
  6
CONTINUOUS
 62
3
100
AcDbLine
 10
286.6666666666667
 20
423.1000000000000
 30
0.0000000000000000
 11
286.6666666666667
 21
399.1000000000000
 31
0.0000000000000000
  0
LINE
  5
1F2
100
AcDbEntity
  8
MAIN0
  6
CONTINUOUS
 62
3
100
AcDbLine
 10
287.8666667143504
 20
424.1000000000000
 30
0.0000000000000000
 11
286.6666666666667
 21
420.1000000000000
 31
0.0000000000000000
  0
LINE
  5
1F3
100
AcDbEntity
  8
MAIN0
  6
CONTINUOUS
 62
3
100
AcDbLine
 10
286.6666666666667
 20
420.1000000000000
 30
0.0000000000000000
 11
285.4666666189830
 21
424.1000000000000
 31
0.0000000000000000
  0
LINE
  5
1F4
100
AcDbEntity
  8
MAIN0
  6
CONTINUOUS
 62
3
100
AcDbLine
 10
287.8666667143504
 20
398.1000000000000
 30
0.0000000000000000
 11
286.6666666666667
 21
402.1000000000000
 31
0.0000000000000000
  0
LINE
  5
1F5
100
AcDbEntity
  8
MAIN0
  6
CONTINUOUS
 62
3
100
AcDbLine
 10
286.6666666666667
 20
402.1000000000000
 30
0.0000000000000000
 11
285.4666666189830
 21
398.1000000000000
 31
0.0000000000000000
  0
MTEXT
  5
1F6
100
AcDbEntity
  8
MAIN0
  6
CONTINUOUS
 62
3
100
AcDbMText
 10
285.6666666666667
 20
411.1000000000000
 30
0.0000000000000000
 40
6.199999809265137
 41
0.0000000000000000
 71
     8
 72
     1
  1
{\U+220513.5}
 11
6.123233995736766e-017
 21
1.000000000000000
 31
0.0000000000000000
  7
STANDARD
  0
LINE
  5
1F7
100
AcDbEntity
  8
MAIN0
  6
CONTINUOUS
 62
3
100
AcDbLine
 10
231.8666666545023
 20
333.3333333333333
 30
0.0000000000000000
 11
204.6666666666667
 21
333.3333333333333
 31
0.0000000000000000
  0
LINE
  5
1F8
100
AcDbEntity
  8
MAIN0
  6
CONTINUOUS
 62
3
100
AcDbLine
 10
206.6666666666667
 20
330.3333333333333
 30
0.0000000000000000
 11
206.6666666666667
 21
349.6666666666666
 31
0.0000000000000000
  0
LINE
  5
1F9
100
AcDbEntity
  8
MAIN0
  6
CONTINUOUS
 62
3
100
AcDbLine
 10
205.4666666189830
 20
329.3333333333333
 30
0.0000000000000000
 11
206.6666666666667
 21
333.3333333333333
 31
0.0000000000000000
  0
LINE
  5
1FA
100
AcDbEntity
  8
MAIN0
  6
CONTINUOUS
 62
3
100
AcDbLine
 10
206.6666666666667
 20
333.3333333333333
 30
0.0000000000000000
 11
207.8666667143504
 21
329.3333333333333
 31
0.0000000000000000
  0
LINE
  5
1FB
100
AcDbEntity
  8
MAIN0
  6
CONTINUOUS
 62
3
100
AcDbLine
 10
205.4666666189830
 20
350.6666666666666
 30
0.0000000000000000
 11
206.6666666666667
 21
346.6666666666666
 31
0.0000000000000000
  0
LINE
  5
1FC
100
AcDbEntity
  8
MAIN0
  6
CONTINUOUS
 62
3
100
AcDbLine
 10
206.6666666666667
 20
346.6666666666666
 30
0.0000000000000000
 11
207.8666667143504
 21
350.6666666666666
 31
0.0000000000000000
  0
MTEXT
  5
1FD
100
AcDbEntity
  8
MAIN0
  6
CONTINUOUS
 62
3
100
AcDbMText
 10
205.6666666666667
 20
340.0000000000000
 30
0.0000000000000000
 40
6.199999809265137
 41
0.0000000000000000
 71
     8
 72
     1
  1
{\H0.69x;{10}}
 11
6.123233995736766e-017
 21
1.000000000000000
 31
0.0000000000000000
  7
STANDARD
  0
LINE
  5
1FE
100
AcDbEntity
  8
MAIN0
  6
CONTINUOUS
 62
3
100
AcDbLine
 10
229.8666666544993
 20
346.6666666666666
 30
0.0000000000000000
 11
204.6666666666667
 21
346.6666666666666
 31
0.0000000000000000
  0
SPLINE
  5
1FF
100
AcDbEntity
  8
MAIN0
  6
CONTINUOUS
 62
3
100
AcDbSpline
210
0.0000000000000000
220
0.0000000000000000
230
1.000000000000000
 70
     8
 71
     3
 72
    15
 73
    11
 74
     0
 42
1.000000000000000e-007
 43
1.000000000000000e-007
 12
0.7826108202200999
 22
-1.068943468572030
 32
0.0000000000000000
 13
0.7826108202200572
 23
1.068943468572030
 33
0.0000000000000000
 40
0.0000000000000000
 40
0.0000000000000000
 40
0.0000000000000000
 40
0.0000000000000000
 40
9.013878188659973
 40
16.91957233908092
 40
24.41957233908092
 40
35.02617405687914
 40
45.63277577467735
 40
53.13277577467735
 40
61.03846992509830
 40
70.05234811375827
 40
70.05234811375827
 40
70.05234811375827
 40
70.05234811375827
 10
270.0000000000000
 20
666.6666666666666
 30
0.0000000000000000
 10
272.3514528675304
 20
663.4548912612427
 30
0.0000000000000000
 10
276.7652663295509
 20
657.4262024802785
 30
0.0000000000000000
 10
281.1641338429330
 20
646.8707328655628
 30
0.0000000000000000
 10
277.9171392460972
 20
635.4427629451825
 30
0.0000000000000000
 10
290.0000000000001
 20
621.5257484914042
 30
0.0000000000000000
 10
302.0828607539029
 20
635.4427629451824
 30
0.0000000000000000
 10
298.8358661570669
 20
646.8707328655628
 30
0.0000000000000000
 10
303.2347336704493
 20
657.4262024802785
 30
0.0000000000000000
 10
307.6485471324697
 20
663.4548912612427
 30
0.0000000000000000
 10
310.0000000000000
 20
666.6666666666666
 30
0.0000000000000000
  0
LINE
  5
200
100
AcDbEntity
  8
MAIN0
  6
CONTINUOUS
 62
3
100
AcDbLine
 10
1041.903197176873
 20
486.6666666666629
 30
0.0000000000000000
 11
1070.551487593159
 21
486.6666666666714
 31
0.0000000000000000
  0
LINE
  5
201
100
AcDbEntity
  8
MAIN0
  6
CONTINUOUS
 62
3
100
AcDbLine
 10
1068.551487593159
 20
486.6666666666708
 30
0.0000000000000000
 11
1068.551487593159
 21
503.9999999999997
 31
0.0000000000000000
  0
LINE
  5
202
100
AcDbEntity
  8
MAIN0
  6
CONTINUOUS
 62
3
100
AcDbLine
 10
1067.351487545476
 20
490.6666666666708
 30
0.0000000000000000
 11
1068.551487593159
 21
486.6666666666708
 31
0.0000000000000000
  0
LINE
  5
203
100
AcDbEntity
  8
MAIN0
  6
CONTINUOUS
 62
3
100
AcDbLine
 10
1068.551487593159
 20
486.6666666666708
 30
0.0000000000000000
 11
1069.751487640843
 21
490.6666666666708
 31
0.0000000000000000
  0
LINE
  5
204
100
AcDbEntity
  8
MAIN0
  6
CONTINUOUS
 62
3
100
AcDbLine
 10
1067.351487545476
 20
499.9999999999997
 30
0.0000000000000000
 11
1068.551487593159
 21
503.9999999999997
 31
0.0000000000000000
  0
LINE
  5
205
100
AcDbEntity
  8
MAIN0
  6
CONTINUOUS
 62
3
100
AcDbLine
 10
1068.551487593159
 20
503.9999999999997
 30
0.0000000000000000
 11
1069.751487640843
 21
499.9999999999997
 31
0.0000000000000000
  0
MTEXT
  5
206
100
AcDbEntity
  8
MAIN0
  6
CONTINUOUS
 62
3
100
AcDbMText
 10
1067.551487593159
 20
495.3333333333352
 30
0.0000000000000000
 40
6.199999809265137
 41
0.0000000000000000
 71
     8
 72
     1
  1
{\H0.69x;{13}}
 11
6.123233995736766e-017
 21
1.000000000000000
 31
0.0000000000000000
  7
STANDARD
  0
LINE
  5
207
100
AcDbEntity
  8
MAIN0
  6
CONTINUOUS
 62
3
100
AcDbLine
 10
1042.836530510216
 20
503.9999999999956
 30
0.0000000000000000
 11
1070.551487593159
 21
504.0000000000000
 31
0.0000000000000000
  0
LINE
  5
208
100
AcDbEntity
  8
MAIN0
  6
CONTINUOUS
 62
3
100
AcDbLine
 10
980.8804772648002
 20
677.6666666665391
 30
0.0000000000000000
 11
980.8804772648002
 21
655.6666666665392
 31
0.0000000000000000
  0
LINE
  5
209
100
AcDbEntity
  8
MAIN0
  6
CONTINUOUS
 62
3
100
AcDbLine
 10
982.0804773124839
 20
678.6666666665391
 30
0.0000000000000000
 11
980.8804772648002
 21
674.6666666665391
 31
0.0000000000000000
  0
LINE
  5
20A
100
AcDbEntity
  8
MAIN0
  6
CONTINUOUS
 62
3
100
AcDbLine
 10
980.8804772648002
 20
674.6666666665391
 30
0.0000000000000000
 11
979.6804772171165
 21
678.6666666665391
 31
0.0000000000000000
  0
LINE
  5
20B
100
AcDbEntity
  8
MAIN0
  6
CONTINUOUS
 62
3
100
AcDbLine
 10
982.0804773124839
 20
654.6666666665392
 30
0.0000000000000000
 11
980.8804772648002
 21
658.6666666665392
 31
0.0000000000000000
  0
LINE
  5
20C
100
AcDbEntity
  8
MAIN0
  6
CONTINUOUS
 62
3
100
AcDbLine
 10
980.8804772648002
 20
658.6666666665392
 30
0.0000000000000000
 11
979.6804772171165
 21
654.6666666665392
 31
0.0000000000000000
  0
MTEXT
  5
20D
100
AcDbEntity
  8
MAIN0
  6
CONTINUOUS
 62
3
100
AcDbMText
 10
979.8804772648002
 20
666.6666666665391
 30
0.0000000000000000
 40
6.199999809265137
 41
0.0000000000000000
 71
     8
 72
     1
  1
{\U+220512}
 11
6.123233995736766e-017
 21
1.000000000000000
 31
0.0000000000000000
  7
STANDARD
  0
LINE
  5
20E
100
AcDbEntity
  8
MAIN0
  6
CONTINUOUS
 62
3
100
AcDbLine
 10
1002.981086527465
 20
666.6666666666930
 30
0.0000000000000000
 11
1002.981086527465
 21
686.6666666666736
 31
0.0000000000000000
  0
LINE
  5
20F
100
AcDbEntity
  8
MAIN0
  6
CONTINUOUS
 62
3
100
AcDbLine
 10
1001.781086479781
 20
670.6666666666930
 30
0.0000000000000000
 11
1002.981086527465
 21
666.6666666666930
 31
0.0000000000000000
  0
LINE
  5
210
100
AcDbEntity
  8
MAIN0
  6
CONTINUOUS
 62
3
100
AcDbLine
 10
1002.981086527465
 20
666.6666666666930
 30
0.0000000000000000
 11
1004.181086575149
 21
670.6666666666930
 31
0.0000000000000000
  0
LINE
  5
211
100
AcDbEntity
  8
MAIN0
  6
CONTINUOUS
 62
3
100
AcDbLine
 10
1001.781086479781
 20
682.6666666666736
 30
0.0000000000000000
 11
1002.981086527465
 21
686.6666666666736
 31
0.0000000000000000
  0
LINE
  5
212
100
AcDbEntity
  8
MAIN0
  6
CONTINUOUS
 62
3
100
AcDbLine
 10
1002.981086527465
 20
686.6666666666736
 30
0.0000000000000000
 11
1004.181086575149
 21
682.6666666666736
 31
0.0000000000000000
  0
MTEXT
  5
213
100
AcDbEntity
  8
MAIN0
  6
CONTINUOUS
 62
3
100
AcDbMText
 10
1001.981086527465
 20
680.1987493804495
 30
0.0000000000000000
 40
6.199999809265137
 41
0.0000000000000000
 71
     8
 72
     1
  1
{\H0.69x;{15}}
 11
6.123233995736766e-017
 21
1.000000000000000
 31
0.0000000000000000
  7
STANDARD
  0
LINE
  5
214
100
AcDbEntity
  8
MAIN0
  6
CONTINUOUS
 62
3
100
AcDbLine
 10
1019.199999988064
 20
686.6666666666736
 30
0.0000000000000000
 11
1000.981086527465
 21
686.6666666666736
 31
0.0000000000000000
  0
LINE
  5
215
100
AcDbEntity
  8
MAIN0
  6
CONTINUOUS
 62
3
100
AcDbLine
 10
1022.767548438509
 20
429.8646951656369
 30
0.0000000000000000
 11
1039.271206647904
 21
457.9918855664349
 31
0.0000000000000000
  0
LINE
  5
216
100
AcDbEntity
  8
MAIN0
  6
CONTINUOUS
 62
3
100
AcDbLine
 10
1025.854399457845
 20
437.4968358539558
 30
0.0000000000000000
 11
1028.913666264248
 21
440.3395259041865
 31
0.0000000000000000
  0
LINE
  5
217
100
AcDbEntity
  8
MAIN0
  6
CONTINUOUS
 62
3
100
AcDbLine
 10
1028.913666264248
 20
440.3395259041865
 30
0.0000000000000000
 11
1027.924383083554
 21
436.2822708095643
 31
0.0000000000000000
  0
LINE
  5
218
100
AcDbEntity
  8
MAIN0
  6
CONTINUOUS
 62
3
100
AcDbLine
 10
1038.742283583436
 20
459.4616612317373
 30
0.0000000000000000
 11
1037.753000402742
 21
455.4044061371151
 31
0.0000000000000000
  0
LINE
  5
219
100
AcDbEntity
  8
MAIN0
  6
CONTINUOUS
 62
3
100
AcDbLine
 10
1037.753000402742
 20
455.4044061371151
 30
0.0000000000000000
 11
1040.812267209146
 21
458.2470961873457
 31
0.0000000000000000
  0
MTEXT
  5
21A
100
AcDbEntity
  8
MAIN0
  6
CONTINUOUS
 62
3
100
AcDbMText
 10
1020.819624553463
 20
428.5208639246974
 30
0.0000000000000000
 40
6.199999809265137
 41
0.0000000000000000
 71
     8
 72
     1
  1
{\U+220513.1}
 11
0.5060687483871065
 21
0.8624931431066032
 31
0.0000000000000000
  7
STANDARD
  0
LINE
  5
21B
100
AcDbEntity
  8
MAIN0
  6
CONTINUOUS
 62
3
100
AcDbLine
 10
207.9999999998686
 20
402.2999999880791
 30
0.0000000000000000
 11
207.9999999998686
 21
371.3333333333334
 31
0.0000000000000000
  0
LINE
  5
21C
100
AcDbEntity
  8
MAIN0
  6
CONTINUOUS
 62
3
100
AcDbLine
 10
207.9999999998686
 20
373.3333333333334
 30
0.0000000000000000
 11
230.6666666664232
 21
373.3333333333334
 31
0.0000000000000000
  0
LINE
  5
21D
100
AcDbEntity
  8
MAIN0
  6
CONTINUOUS
 62
3
100
AcDbLine
 10
211.9999999998686
 20
374.5333333810171
 30
0.0000000000000000
 11
207.9999999998686
 21
373.3333333333334
 31
0.0000000000000000
  0
LINE
  5
21E
100
AcDbEntity
  8
MAIN0
  6
CONTINUOUS
 62
3
100
AcDbLine
 10
207.9999999998686
 20
373.3333333333334
 30
0.0000000000000000
 11
211.9999999998686
 21
372.1333332856497
 31
0.0000000000000000
  0
LINE
  5
21F
100
AcDbEntity
  8
MAIN0
  6
CONTINUOUS
 62
3
100
AcDbLine
 10
226.6666666664232
 20
374.5333333810171
 30
0.0000000000000000
 11
230.6666666664232
 21
373.3333333333334
 31
0.0000000000000000
  0
LINE
  5
220
100
AcDbEntity
  8
MAIN0
  6
CONTINUOUS
 62
3
100
AcDbLine
 10
230.6666666664232
 20
373.3333333333334
 30
0.0000000000000000
 11
226.6666666664232
 21
372.1333332856497
 31
0.0000000000000000
  0
MTEXT
  5
221
100
AcDbEntity
  8
MAIN0
  6
CONTINUOUS
 62
3
100
AcDbMText
 10
219.3333333331459
 20
374.3333333333334
 30
0.0000000000000000
 40
6.199999809265137
 41
0.0000000000000000
 71
     8
 72
     1
  1
{\H0.69x;{17}}
 11
1.000000000000000
 21
0.0000000000000000
 31
0.0000000000000000
  7
STANDARD
  0
LEADER
  5
222
100
AcDbEntity
  8
MAIN0
  6
CONTINUOUS
 62
3
100
AcDbLeader
  3
MAIN001
 73
     0
 75
     1
 40
6.199999809265137
 41
27.13900082015988
 76
     3
 10
219.9174628982161
 20
403.1000000000000
 30
0.0000000000000000
 10
193.3333333333333
 20
373.3333333333334
 30
0.0000000000000000
 10
189.4803334449132
 20
373.3333333333334
 30
0.0000000000000000
340
223
213
0.0000000000000000
223
-1.000000000000000
233
0.0000000000000000
1001
ACAD
1000
DSTYLE
1002
{
1070
   147
1040
0.0
1070
    77
1070
     1
1070
   173
1070
     1
1070
     6
1000
_OPEN
1070
     7
1000
_OPEN
1002
}
  0
MTEXT
  5
223
102
{ACAD_REACTORS
330
222
102
}
100
AcDbEntity
  8
MAIN0
  6
CONTINUOUS
 62
3
100
AcDbMText
 10
162.3413326247534
 20
380.5333331425985
 30
0.0000000000000000
 40
6.199999809265137
 41
0.0000000000000000
 71
     1
 72
     1
  1
{\H0.92x;{4-M12}}
 11
1.000000000000000
 21
0.0000000000000000
 31
0.0000000000000000
  7
STANDARD
  0
LINE
  5
224
100
AcDbEntity
  8
MAIN0
  6
CENTER
 62
3
100
AcDbLine
 10
200.0000000000000
 20
411.1000000000000
 30
0.0000000000000000
 11
276.4666668574016
 21
411.1000000000000
 31
0.0000000000000000
  0
LINE
  5
225
100
AcDbEntity
  8
MAIN0
  6
CENTER
 62
3
100
AcDbLine
 10
288.6666666666667
 20
411.1000000000000
 30
0.0000000000000000
 11
346.6666666666667
 21
411.1000000000000
 31
0.0000000000000000
  0
MTEXT
  5
226
100
AcDbEntity
  8
MAIN0
  6
CONTINUOUS
 62
3
100
AcDbMText
 10
227.0423925824939
 20
289.8535307402532
 30
0.0000000000000000
 40
10.00000000000000
 41
0.0000000000000000
 71
     1
 72
     1
  1
{\H0.88x;{SEC.A-O-B}}
 11
1.000000000000000
 21
0.0000000000000000
 31
0.0000000000000000
  7
STANDARD
  0
MTEXT
  5
227
100
AcDbEntity
  8
MAIN0
  6
CONTINUOUS
 62
3
100
AcDbMText
 10
431.3333333333353
 20
177.1999998091952
 30
0.0000000000000000
 40
6.199999809265137
 41
0.0000000000000000
 71
     1
 72
     1
  1
{\H0.90x;{118}}
 11
1.000000000000000
 21
0.0000000000000000
 31
0.0000000000000000
  7
STANDARD
  0
MTEXT
  5
228
100
AcDbEntity
  8
MAIN0
  6
CONTINUOUS
 62
3
100
AcDbMText
 10
437.3333333333353
 20
168.1999998091952
 30
0.0000000000000000
 40
6.199999809265137
 41
0.0000000000000000
 71
     1
 72
     1
  1
{\H0.88x;{12}}
 11
1.000000000000000
 21
0.0000000000000000
 31
0.0000000000000000
  7
STANDARD
  0
MTEXT
  5
229
100
AcDbEntity
  8
MAIN0
  6
CONTINUOUS
 62
3
100
AcDbMText
 10
431.3333333333353
 20
155.1999998091949
 30
0.0000000000000000
 40
6.199999809265137
 41
0.0000000000000000
 71
     1
 72
     1
  1
{\H0.88x;{15}}
 11
1.000000000000000
 21
0.0000000000000000
 31
0.0000000000000000
  7
STANDARD
  0
MTEXT
  5
22A
100
AcDbEntity
  8
MAIN0
  6
CONTINUOUS
 62
3
100
AcDbMText
 10
437.3333333333353
 20
146.1999998091949
 30
0.0000000000000000
 40
6.199999809265137
 41
0.0000000000000000
 71
     1
 72
     1
  1
{\H0.91x;{1530}}
 11
1.000000000000000
 21
0.0000000000000000
 31
0.0000000000000000
  7
STANDARD
  0
MTEXT
  5
22B
100
AcDbEntity
  8
MAIN0
  6
CONTINUOUS
 62
3
100
AcDbMText
 10
431.3333333333353
 20
127.5333331425283
 30
0.0000000000000000
 40
6.199999809265137
 41
0.0000000000000000
 71
     1
 72
     1
  1
{\H0.91x;{3000}}
 11
1.000000000000000
 21
0.0000000000000000
 31
0.0000000000000000
  7
STANDARD
  0
MTEXT
  5
22C
100
AcDbEntity
  8
MAIN0
  6
CONTINUOUS
 62
3
100
AcDbMText
 10
431.3333333333353
 20
110.1999998091948
 30
0.0000000000000000
 40
6.199999809265137
 41
0.0000000000000000
 71
     1
 72
     1
  1
{\H0.81x;{24.2}}
 11
1.000000000000000
 21
0.0000000000000000
 31
0.0000000000000000
  7
STANDARD
  0
MTEXT
  5
22D
100
AcDbEntity
  8
MAIN0
  6
CONTINUOUS
 62
3
100
AcDbMText
 10
431.3333333333353
 20
93.19999980919482
 30
0.0000000000000000
 40
6.199999809265137
 41
0.0000000000000000
 71
     1
 72
     1
  1
{\H0.84x;{0.188}}
 11
1.000000000000000
 21
0.0000000000000000
 31
0.0000000000000000
  7
STANDARD
  0
LINE
  5
22E
100
AcDbEntity
  8
MAIN0
  6
CONTINUOUS
 62
3
100
AcDbLine
 10
700.0000000000000
 20
499.9999999999999
 30
0.0000000000000000
 11
700.0000000000000
 21
513.3333333333334
 31
0.0000000000000000
  0
POINT
  5
22F
100
AcDbEntity
  8
MAIN0
  6
CONTINUOUS
 62
3
100
AcDbPoint
 10
700.0000000000000
 20
500.0000000000000
 30
0.0000000000000000
  0
ARC
  5
230
100
AcDbEntity
  8
MAIN0
  6
CENTER
 62
3
100
AcDbCircle
 10
700.0000000000001
 20
499.9999999999999
 30
0.0000000000000000
 40
88.89999999999999
100
AcDbArc
 50
287.0827219803435
 51
312.9172780196562
  0
LINE
  5
231
100
AcDbEntity
  8
MAIN0
  6
CENTER
 62
3
100
AcDbLine
 10
734.4500000000001
 20
440.3308496792519
 30
0.0000000000000000
 11
754.4500000000001
 21
405.6898335278743
 31
0.0000000000000000
  0
CIRCLE
  5
232
100
AcDbEntity
  8
MAIN0
  6
CONTINUOUS
 62
3
100
AcDbCircle
 10
744.4500000000001
 20
423.0103416035631
 30
0.0000000000000000
 40
13.33333333333333
  0
CIRCLE
  5
233
100
AcDbEntity
  8
MAIN0
  6
CONTINUOUS
 62
3
100
AcDbCircle
 10
744.4500000000001
 20
423.0103416035631
 30
0.0000000000000000
 40
9.000000000000000
  0
ARC
  5
234
100
AcDbEntity
  8
MAIN0
  6
CENTER
 62
3
100
AcDbCircle
 10
700.0000000000001
 20
499.9999999999999
 30
0.0000000000000000
 40
88.89999999999999
100
AcDbArc
 50
17.08272198034354
 51
42.91727801965624
  0
LINE
  5
235
100
AcDbEntity
  8
MAIN0
  6
CENTER
 62
3
100
AcDbLine
 10
759.6691503207481
 20
534.4499999999998
 30
0.0000000000000000
 11
794.3101664721257
 21
554.4499999999998
 31
0.0000000000000000
  0
CIRCLE
  5
236
100
AcDbEntity
  8
MAIN0
  6
CONTINUOUS
 62
3
100
AcDbCircle
 10
776.9896583964369
 20
544.4499999999998
 30
0.0000000000000000
 40
13.33333333333333
  0
CIRCLE
  5
237
100
AcDbEntity
  8
MAIN0
  6
CONTINUOUS
 62
3
100
AcDbCircle
 10
776.9896583964369
 20
544.4499999999998
 30
0.0000000000000000
 40
9.000000000000000
  0
LINE
  5
238
100
AcDbEntity
  8
MAIN0
  6
CENTER
 62
3
100
AcDbLine
 10
566.6666666666667
 20
366.6666666666666
 30
0.0000000000000000
 11
700.0000000000001
 21
499.9999999999999
 31
0.0000000000000000
  0
ARC
  5
239
100
AcDbEntity
  8
MAIN0
  6
CONTINUOUS
 62
3
100
AcDbCircle
 10
700.0000000000000
 20
500.0000000000000
 30
0.0000000000000000
 40
173.3333333333333
100
AcDbArc
 50
90.00000000000000
 51
120.0000000000000
  0
LINE
  5
23A
100
AcDbEntity
  8
MAIN0
  6
CONTINUOUS
 62
3
100
AcDbLine
 10
696.0000000000000
 20
672.1333332856495
 30
0.0000000000000000
 11
700.0000000000000
 21
673.3333333333333
 31
0.0000000000000000
  0
LINE
  5
23B
100
AcDbEntity
  8
MAIN0
  6
CONTINUOUS
 62
3
100
AcDbLine
 10
700.0000000000000
 20
673.3333333333333
 30
0.0000000000000000
 11
696.0000000000000
 21
674.5333333810170
 31
0.0000000000000000
  0
LINE
  5
23C
100
AcDbEntity
  8
MAIN0
  6
CONTINUOUS
 62
3
100
AcDbLine
 10
617.3974349723129
 20
651.0718394634661
 30
0.0000000000000000
 11
613.3333333333333
 21
650.1110699893027
 31
0.0000000000000000
  0
LINE
  5
23D
100
AcDbEntity
  8
MAIN0
  6
CONTINUOUS
 62
3
100
AcDbLine
 10
613.3333333333333
 20
650.1110699893027
 30
0.0000000000000000
 11
616.1974349246292
 21
653.1503005151393
 31
0.0000000000000000
  0
MTEXT
  5
23E
100
AcDbEntity
  8
MAIN0
  6
CONTINUOUS
 62
3
100
AcDbMText
 10
654.8792131371272
 20
668.3930690497276
 30
0.0000000000000000
 40
6.199999809265137
 41
0.0000000000000000
 71
     8
 72
     1
  1
{\H0.57x;{30\U+00B0}}
 11
0.9659258262890682
 21
0.2588190451025209
 31
0.0000000000000000
  7
STANDARD
  0
LINE
  5
23F
100
AcDbEntity
  8
MAIN0
  6
CONTINUOUS
 62
3
100
AcDbLine
 10
645.1499999940395
 20
595.0029868054769
 30
0.0000000000000000
 11
612.3333333333333
 21
651.8431207968715
 31
0.0000000000000000
  0
ARC
  5
240
100
AcDbEntity
  8
MAIN0
  6
CONTINUOUS
 62
3
100
AcDbCircle
 10
700.0000000000000
 20
500.0000000000003
 30
0.0000000000000000
 40
186.6666666666663
100
AcDbArc
 50
90.00000000000000
 51
150.0000000000000
  0
LINE
  5
241
100
AcDbEntity
  8
MAIN0
  6
CONTINUOUS
 62
3
100
AcDbLine
 10
696.0000000000000
 20
685.4666666189829
 30
0.0000000000000000
 11
700.0000000000000
 21
686.6666666666666
 31
0.0000000000000000
  0
LINE
  5
242
100
AcDbEntity
  8
MAIN0
  6
CONTINUOUS
 62
3
100
AcDbLine
 10
700.0000000000000
 20
686.6666666666666
 30
0.0000000000000000
 11
696.0000000000000
 21
687.8666667143503
 31
0.0000000000000000
  0
LINE
  5
243
100
AcDbEntity
  8
MAIN0
  6
CONTINUOUS
 62
3
100
AcDbLine
 10
541.3811551527417
 20
596.1974349246295
 30
0.0000000000000000
 11
538.3419246269051
 21
593.3333333333336
 31
0.0000000000000000
  0
LINE
  5
244
100
AcDbEntity
  8
MAIN0
  6
CONTINUOUS
 62
3
100
AcDbLine
 10
538.3419246269051
 20
593.3333333333336
 30
0.0000000000000000
 11
539.3026941010685
 21
597.3974349723133
 31
0.0000000000000000
  0
MTEXT
  5
245
100
AcDbEntity
  8
MAIN0
  6
CONTINUOUS
 62
3
100
AcDbMText
 10
606.1666666666669
 20
662.5241007768797
 30
0.0000000000000000
 40
6.199999809265137
 41
0.0000000000000000
 71
     8
 72
     1
  1
{\H0.57x;{60\U+00B0}}
 11
0.8660254037844387
 21
0.4999999999999998
 31
0.0000000000000000
  7
STANDARD
  0
LINE
  5
246
100
AcDbEntity
  8
MAIN0
  6
CONTINUOUS
 62
3
100
AcDbLine
 10
605.4011583829554
 20
554.6166666726278
 30
0.0000000000000000
 11
536.6098738193361
 21
594.3333333333336
 31
0.0000000000000000
  0
LINE
  5
247
100
AcDbEntity
  8
MAIN0
  6
CONTINUOUS
 62
3
100
AcDbLine
 10
512.8666666666667
 20
634.1333333452543
 30
0.0000000000000000
 11
512.8666666666667
 21
648.6666666666666
 31
0.0000000000000000
  0
LINE
  5
248
100
AcDbEntity
  8
MAIN0
  6
CONTINUOUS
 62
3
100
AcDbLine
 10
512.8666666666668
 20
646.6666666666666
 30
0.0000000000000000
 11
487.1333333333333
 21
646.6666666666666
 31
0.0000000000000000
  0
LINE
  5
249
100
AcDbEntity
  8
MAIN0
  6
CONTINUOUS
 62
3
100
AcDbLine
 10
508.8666666666668
 20
645.4666666189829
 30
0.0000000000000000
 11
512.8666666666668
 21
646.6666666666666
 31
0.0000000000000000
  0
LINE
  5
24A
100
AcDbEntity
  8
MAIN0
  6
CONTINUOUS
 62
3
100
AcDbLine
 10
512.8666666666668
 20
646.6666666666666
 30
0.0000000000000000
 11
508.8666666666668
 21
647.8666667143503
 31
0.0000000000000000
  0
LINE
  5
24B
100
AcDbEntity
  8
MAIN0
  6
CONTINUOUS
 62
3
100
AcDbLine
 10
491.1333333333333
 20
645.4666666189829
 30
0.0000000000000000
 11
487.1333333333333
 21
646.6666666666666
 31
0.0000000000000000
  0
LINE
  5
24C
100
AcDbEntity
  8
MAIN0
  6
CONTINUOUS
 62
3
100
AcDbLine
 10
487.1333333333333
 20
646.6666666666666
 30
0.0000000000000000
 11
491.1333333333333
 21
647.8666667143503
 31
0.0000000000000000
  0
MTEXT
  5
24D
100
AcDbEntity
  8
MAIN0
  6
CONTINUOUS
 62
3
100
AcDbMText
 10
493.6499998271465
 20
647.6666666666666
 30
0.0000000000000000
 40
6.199999809265137
 41
0.0000000000000000
 71
     8
 72
     1
  1
{\U+220519.3}
 11
1.000000000000000
 21
0.0000000000000000
 31
0.0000000000000000
  7
STANDARD
  0
MTEXT
  5
24E
100
AcDbEntity
  8
MAIN0
  6
CONTINUOUS
 62
3
100
AcDbMText
 10
510.0000000074506
 20
653.2666665712992
 30
0.0000000000000000
 40
5.599999904632568
 41
0.0000000000000000
 71
     8
 72
     1
  1
{+0.1}
 11
1.000000000000000
 21
0.0000000000000000
 31
0.0000000000000000
  7
STANDARD
  0
MTEXT
  5
24F
100
AcDbEntity
  8
MAIN0
  6
CONTINUOUS
 62
3
100
AcDbMText
 10
507.2499999329448
 20
647.6666666666666
 30
0.0000000000000000
 40
5.599999904632568
 41
0.0000000000000000
 71
     8
 72
     1
  1
{ 0}
 11
1.000000000000000
 21
0.0000000000000000
 31
0.0000000000000000
  7
STANDARD
  0
LINE
  5
250
100
AcDbEntity
  8
MAIN0
  6
CONTINUOUS
 62
3
100
AcDbLine
 10
487.1333333333333
 20
634.1333333452542
 30
0.0000000000000000
 11
487.1333333333333
 21
648.6666666666666
 31
0.0000000000000000
  0
LINE
  5
251
100
AcDbEntity
  8
MAIN0
  6
CONTINUOUS
 62
3
100
AcDbLine
 10
513.6666666785900
 20
624.9333333333333
 30
0.0000000000000000
 11
535.3333333333334
 21
624.9333333333333
 31
0.0000000000000000
  0
LINE
  5
252
100
AcDbEntity
  8
MAIN0
  6
CONTINUOUS
 62
3
100
AcDbLine
 10
533.3333333333334
 20
621.9333333333333
 30
0.0000000000000000
 11
533.3333333333334
 21
645.8250001271565
 31
0.0000000000000000
  0
LINE
  5
253
100
AcDbEntity
  8
MAIN0
  6
CONTINUOUS
 62
3
100
AcDbLine
 10
532.1333332856497
 20
620.9333333333333
 30
0.0000000000000000
 11
533.3333333333334
 21
624.9333333333333
 31
0.0000000000000000
  0
LINE
  5
254
100
AcDbEntity
  8
MAIN0
  6
CONTINUOUS
 62
3
100
AcDbLine
 10
533.3333333333334
 20
624.9333333333333
 30
0.0000000000000000
 11
534.5333333810171
 21
620.9333333333333
 31
0.0000000000000000
  0
LINE
  5
255
100
AcDbEntity
  8
MAIN0
  6
CONTINUOUS
 62
3
100
AcDbLine
 10
532.1333332856497
 20
637.3333333333333
 30
0.0000000000000000
 11
533.3333333333334
 21
633.3333333333333
 31
0.0000000000000000
  0
LINE
  5
256
100
AcDbEntity
  8
MAIN0
  6
CONTINUOUS
 62
3
100
AcDbLine
 10
533.3333333333334
 20
633.3333333333333
 30
0.0000000000000000
 11
534.5333333810171
 21
637.3333333333333
 31
0.0000000000000000
  0
MTEXT
  5
257
100
AcDbEntity
  8
MAIN0
  6
CONTINUOUS
 62
3
100
AcDbMText
 10
532.3333333333334
 20
640.3166664938132
 30
0.0000000000000000
 40
6.199999809265137
 41
0.0000000000000000
 71
     8
 72
     1
  1
{\H0.58x;{6.3}}
 11
6.123233995736766e-017
 21
1.000000000000000
 31
0.0000000000000000
  7
STANDARD
  0
MTEXT
  5
258
100
AcDbEntity
  8
MAIN0
  6
CONTINUOUS
 62
3
100
AcDbMText
 10
526.7333334287008
 20
651.9666666711370
 30
0.0000000000000000
 40
5.599999904632568
 41
0.0000000000000000
 71
     8
 72
     1
  1
{+0.4}
 11
6.123233995736766e-017
 21
1.000000000000000
 31
0.0000000000000000
  7
STANDARD
  0
MTEXT
  5
259
100
AcDbEntity
  8
MAIN0
  6
CONTINUOUS
 62
3
100
AcDbMText
 10
532.3333333333334
 20
649.2166665966312
 30
0.0000000000000000
 40
5.599999904632568
 41
0.0000000000000000
 71
     8
 72
     1
  1
{ 0}
 11
6.123233995736766e-017
 21
1.000000000000000
 31
0.0000000000000000
  7
STANDARD
  0
LINE
  5
25A
100
AcDbEntity
  8
MAIN0
  6
CONTINUOUS
 62
3
100
AcDbLine
 10
527.4666666785877
 20
633.3333333333333
 30
0.0000000000000000
 11
535.3333333333334
 21
633.3333333333333
 31
0.0000000000000000
  0
ARC
  5
25B
100
AcDbEntity
  8
MAIN0
  6
CENTER
 62
3
100
AcDbCircle
 10
700.0000000000000
 20
500.0000000000000
 30
0.0000000000000000
 40
88.89999999999999
100
AcDbArc
 50
107.0827219803437
 51
162.6146366084215
  0
LINE
  5
25C
100
AcDbEntity
  8
MAIN0
  6
CONTINUOUS
 62
3
100
AcDbLine
 10
634.2193274751006
 20
559.8006113862722
 30
0.0000000000000000
 11
734.7153748109864
 21
468.4405683536488
 31
0.0000000000000000
  0
LINE
  5
25D
100
AcDbEntity
  8
MAIN0
  6
CONTINUOUS
 62
3
100
AcDbLine
 10
637.9862951535555
 20
557.9978483336452
 30
0.0000000000000000
 11
634.2193274751006
 21
559.8006113862722
 31
0.0000000000000000
  0
LINE
  5
25E
100
AcDbEntity
  8
MAIN0
  6
CONTINUOUS
 62
3
100
AcDbLine
 10
634.2193274751006
 20
559.8006113862722
 30
0.0000000000000000
 11
636.3718803838133
 21
556.2219920869287
 31
0.0000000000000000
  0
MTEXT
  5
25F
100
AcDbEntity
  8
MAIN0
  6
CONTINUOUS
 62
3
100
AcDbMText
 10
652.2262172887173
 20
544.7821723509223
 30
0.0000000000000000
 40
6.199999809265137
 41
0.0000000000000000
 71
     8
 72
     1
  1
{\U+2205133.4}
 11
0.7399400733959438
 21
-0.6726727939963123
 31
0.0000000000000000
  7
STANDARD
  0
LINE
  5
260
100
AcDbEntity
  8
MAIN0
  6
CONTINUOUS
 62
3
100
AcDbLine
 10
333.3333333330899
 20
460.0000000000000
 30
0.0000000000000000
 11
379.9999999998145
 21
460.0000000000000
 31
0.0000000000000000
  0
LINE
  5
261
100
AcDbEntity
  8
MAIN0
  6
CONTINUOUS
 62
3
100
AcDbLine
 10
337.3333333330899
 20
461.2000000476837
 30
0.0000000000000000
 11
333.3333333330899
 21
460.0000000000000
 31
0.0000000000000000
  0
LINE
  5
262
100
AcDbEntity
  8
MAIN0
  6
CONTINUOUS
 62
3
100
AcDbLine
 10
333.3333333330899
 20
460.0000000000000
 30
0.0000000000000000
 11
337.3333333330899
 21
458.7999999523163
 31
0.0000000000000000
  0
LINE
  5
263
100
AcDbEntity
  8
MAIN0
  6
CONTINUOUS
 62
3
100
AcDbLine
 10
375.9999999998145
 20
461.2000000476837
 30
0.0000000000000000
 11
379.9999999998145
 21
460.0000000000000
 31
0.0000000000000000
  0
LINE
  5
264
100
AcDbEntity
  8
MAIN0
  6
CONTINUOUS
 62
3
100
AcDbLine
 10
379.9999999998145
 20
460.0000000000000
 30
0.0000000000000000
 11
375.9999999998145
 21
458.7999999523163
 31
0.0000000000000000
  0
MTEXT
  5
265
100
AcDbEntity
  8
MAIN0
  6
CONTINUOUS
 62
3
100
AcDbMText
 10
356.6666666664522
 20
461.0000000000000
 30
0.0000000000000000
 40
6.199999809265137
 41
0.0000000000000000
 71
     8
 72
     1
  1
{\H0.69x;{35}}
 11
1.000000000000000
 21
0.0000000000000000
 31
0.0000000000000000
  7
STANDARD
  0
LINE
  5
266
100
AcDbEntity
  8
MAIN0
  6
CONTINUOUS
 62
3
100
AcDbLine
 10
379.9999999998713
 20
479.1999999880791
 30
0.0000000000000000
 11
379.9999999998086
 21
458.0000000000000
 31
0.0000000000000000
  0
LINE
  5
267
100
AcDbEntity
  8
MAIN0
  6
CONTINUOUS
 62
3
100
AcDbLine
 10
734.8742916231457
 20
548.8240082724041
 30
0.0000000000000000
 11
679.4097006225114
 21
471.1735808715159
 31
0.0000000000000000
  0
LINE
  5
268
100
AcDbEntity
  8
MAIN0
  6
CONTINUOUS
 62
3
100
AcDbLine
 10
733.5258190525194
 20
544.8715885273986
 30
0.0000000000000000
 11
734.8742916231458
 21
548.8240082724041
 31
0.0000000000000000
  0
LINE
  5
269
100
AcDbEntity
  8
MAIN0
  6
CONTINUOUS
 62
3
100
AcDbLine
 10
734.8742916231458
 20
548.8240082724041
 30
0.0000000000000000
 11
731.5728586440196
 21
546.2665602477556
 31
0.0000000000000000
  0
MTEXT
  5
26A
100
AcDbEntity
  8
MAIN0
  6
CONTINUOUS
 62
3
100
AcDbMText
 10
728.4655458080725
 20
541.5722291847101
 30
0.0000000000000000
 40
6.199999809265137
 41
0.0000000000000000
 71
     8
 72
     1
  1
{\U+220590}
 11
0.5812381937190964
 21
0.8137334712067350
 31
0.0000000000000000
  7
STANDARD
  0
POINT
  5
26B
100
AcDbEntity
  8
MAIN0
  6
CONTINUOUS
 62
3
100
AcDbPoint
 10
734.8742916231458
 20
548.8240082724041
 30
0.0000000000000000
  0
POINT
  5
26C
100
AcDbEntity
  8
MAIN0
  6
CONTINUOUS
 62
3
100
AcDbPoint
 10
750.3739767889883
 20
570.5235675045836
 30
0.0000000000000000
  0
POINT
  5
26D
100
AcDbEntity
  8
MAIN0
  6
CONTINUOUS
 62
3
100
AcDbPoint
 10
765.8736619548309
 20
592.2231267367632
 30
0.0000000000000000
  0
POINT
  5
26E
100
AcDbEntity
  8
MAIN0
  6
CONTINUOUS
 62
3
100
AcDbPoint
 10
781.3733471206735
 20
613.9226859689429
 30
0.0000000000000000
  0
POINT
  5
26F
100
AcDbEntity
  8
MAIN0
  6
CONTINUOUS
 62
3
100
AcDbPoint
 10
796.8730322865160
 20
635.6222452011225
 30
0.0000000000000000
  0
LINE
  5
270
100
AcDbEntity
  8
MAIN0
  6
CONTINUOUS
 62
3
100
AcDbLine
 10
734.8742916231457
 20
548.8240082724042
 30
0.0000000000000000
 11
750.3739767889883
 21
570.5235675045836
 31
0.0000000000000000
  0
LINE
  5
271
100
AcDbEntity
  8
MAIN0
  6
CONTINUOUS
 62
3
100
AcDbLine
 10
736.2227641937722
 20
552.7764280174097
 30
0.0000000000000000
 11
734.8742916231457
 21
548.8240082724042
 31
0.0000000000000000
  0
LINE
  5
272
100
AcDbEntity
  8
MAIN0
  6
CONTINUOUS
 62
3
100
AcDbLine
 10
734.8742916231457
 20
548.8240082724042
 30
0.0000000000000000
 11
738.1757246022720
 21
551.3814562970526
 31
0.0000000000000000
  0
LINE
  5
273
100
AcDbEntity
  8
MAIN0
  6
CONTINUOUS
 62
3
100
AcDbLine
 10
747.0725438098621
 20
567.9661194799352
 30
0.0000000000000000
 11
750.3739767889883
 21
570.5235675045836
 31
0.0000000000000000
  0
LINE
  5
274
100
AcDbEntity
  8
MAIN0
  6
CONTINUOUS
 62
3
100
AcDbLine
 10
750.3739767889883
 20
570.5235675045836
 30
0.0000000000000000
 11
749.0255042183619
 21
566.5711477595781
 31
0.0000000000000000
  0
MTEXT
  5
275
100
AcDbEntity
  8
MAIN0
  6
CONTINUOUS
 62
3
100
AcDbMText
 10
741.8104007348603
 20
560.2550260822130
 30
0.0000000000000000
 40
6.199999809265137
 41
0.0000000000000000
 71
     8
 72
     1
  1
{\H0.69x;{20}}
 11
0.5812381937190995
 21
0.8137334712067328
 31
0.0000000000000000
  7
STANDARD
  0
LINE
  5
276
100
AcDbEntity
  8
MAIN0
  6
CONTINUOUS
 62
3
100
AcDbLine
 10
750.3739767889883
 20
570.5235675045836
 30
0.0000000000000000
 11
765.8736619548311
 21
592.2231267367632
 31
0.0000000000000000
  0
LINE
  5
277
100
AcDbEntity
  8
MAIN0
  6
CONTINUOUS
 62
3
100
AcDbLine
 10
751.7224493596149
 20
574.4759872495891
 30
0.0000000000000000
 11
750.3739767889883
 21
570.5235675045836
 31
0.0000000000000000
  0
LINE
  5
278
100
AcDbEntity
  8
MAIN0
  6
CONTINUOUS
 62
3
100
AcDbLine
 10
750.3739767889883
 20
570.5235675045836
 30
0.0000000000000000
 11
753.6754097681146
 21
573.0810155292321
 31
0.0000000000000000
  0
LINE
  5
279
100
AcDbEntity
  8
MAIN0
  6
CONTINUOUS
 62
3
100
AcDbLine
 10
762.5722289757048
 20
589.6656787121148
 30
0.0000000000000000
 11
765.8736619548311
 21
592.2231267367632
 31
0.0000000000000000
  0
LINE
  5
27A
100
AcDbEntity
  8
MAIN0
  6
CONTINUOUS
 62
3
100
AcDbLine
 10
765.8736619548311
 20
592.2231267367632
 30
0.0000000000000000
 11
764.5251893842045
 21
588.2707069917577
 31
0.0000000000000000
  0
MTEXT
  5
27B
100
AcDbEntity
  8
MAIN0
  6
CONTINUOUS
 62
3
100
AcDbMText
 10
757.3100859007029
 20
581.9545853143925
 30
0.0000000000000000
 40
6.199999809265137
 41
0.0000000000000000
 71
     8
 72
     1
  1
{\H0.69x;{20}}
 11
0.5812381937190995
 21
0.8137334712067328
 31
0.0000000000000000
  7
STANDARD
  0
LINE
  5
27C
100
AcDbEntity
  8
MAIN0
  6
CONTINUOUS
 62
3
100
AcDbLine
 10
765.8736619548311
 20
592.2231267367632
 30
0.0000000000000000
 11
781.3733471206737
 21
613.9226859689428
 31
0.0000000000000000
  0
LINE
  5
27D
100
AcDbEntity
  8
MAIN0
  6
CONTINUOUS
 62
3
100
AcDbLine
 10
767.2221345254575
 20
596.1755464817687
 30
0.0000000000000000
 11
765.8736619548311
 21
592.2231267367632
 31
0.0000000000000000
  0
LINE
  5
27E
100
AcDbEntity
  8
MAIN0
  6
CONTINUOUS
 62
3
100
AcDbLine
 10
765.8736619548311
 20
592.2231267367632
 30
0.0000000000000000
 11
769.1750949339573
 21
594.7805747614117
 31
0.0000000000000000
  0
LINE
  5
27F
100
AcDbEntity
  8
MAIN0
  6
CONTINUOUS
 62
3
100
AcDbLine
 10
778.0719141415474
 20
611.3652379442943
 30
0.0000000000000000
 11
781.3733471206737
 21
613.9226859689428
 31
0.0000000000000000
  0
LINE
  5
280
100
AcDbEntity
  8
MAIN0
  6
CONTINUOUS
 62
3
100
AcDbLine
 10
781.3733471206737
 20
613.9226859689428
 30
0.0000000000000000
 11
780.0248745500472
 21
609.9702662239373
 31
0.0000000000000000
  0
MTEXT
  5
281
100
AcDbEntity
  8
MAIN0
  6
CONTINUOUS
 62
3
100
AcDbMText
 10
772.8097710665456
 20
603.6541445465721
 30
0.0000000000000000
 40
6.199999809265137
 41
0.0000000000000000
 71
     8
 72
     1
  1
{\H0.69x;{20}}
 11
0.5812381937190995
 21
0.8137334712067328
 31
0.0000000000000000
  7
STANDARD
  0
LINE
  5
282
100
AcDbEntity
  8
MAIN0
  6
CONTINUOUS
 62
3
100
AcDbLine
 10
781.3733471206737
 20
613.9226859689428
 30
0.0000000000000000
 11
796.8730322865163
 21
635.6222452011223
 31
0.0000000000000000
  0
LINE
  5
283
100
AcDbEntity
  8
MAIN0
  6
CONTINUOUS
 62
3
100
AcDbLine
 10
782.7218196913001
 20
617.8751057139483
 30
0.0000000000000000
 11
781.3733471206737
 21
613.9226859689428
 31
0.0000000000000000
  0
LINE
  5
284
100
AcDbEntity
  8
MAIN0
  6
CONTINUOUS
 62
3
100
AcDbLine
 10
781.3733471206737
 20
613.9226859689428
 30
0.0000000000000000
 11
784.6747800997999
 21
616.4801339935913
 31
0.0000000000000000
  0
LINE
  5
285
100
AcDbEntity
  8
MAIN0
  6
CONTINUOUS
 62
3
100
AcDbLine
 10
793.5715993073900
 20
633.0647971764738
 30
0.0000000000000000
 11
796.8730322865163
 21
635.6222452011223
 31
0.0000000000000000
  0
LINE
  5
286
100
AcDbEntity
  8
MAIN0
  6
CONTINUOUS
 62
3
100
AcDbLine
 10
796.8730322865163
 20
635.6222452011223
 30
0.0000000000000000
 11
795.5245597158898
 21
631.6698254561168
 31
0.0000000000000000
  0
MTEXT
  5
287
100
AcDbEntity
  8
MAIN0
  6
CONTINUOUS
 62
3
100
AcDbMText
 10
788.3094562323882
 20
625.3537037787517
 30
0.0000000000000000
 40
6.199999809265137
 41
0.0000000000000000
 71
     8
 72
     1
  1
{\H0.69x;{20}}
 11
0.5812381937190995
 21
0.8137334712067328
 31
0.0000000000000000
  7
STANDARD
  0
LINE
  5
288
100
AcDbEntity
  8
MAIN0
  6
CONTINUOUS
 62
3
100
AcDbLine
 10
700.0000000000000
 20
500.0000000000000
 30
0.0000000000000000
 11
690.5719095841794
 21
490.5719095841793
 31
0.0000000000000000
  0
LINE
  5
289
100
AcDbEntity
  8
MAIN0
  6
CONTINUOUS
 62
3
100
AcDbLine
 10
566.1009812332882
 20
366.1009812332880
 30
0.0000000000000000
 11
557.1644302003175
 21
357.1644302003174
 31
0.0000000000000000
  0
ARC
  5
28A
100
AcDbEntity
  8
MAIN0
  6
CONTINUOUS
 62
3
100
AcDbCircle
 10
700.0000000000000
 20
499.9999999999998
 30
0.0000000000000000
 40
199.9999999999998
100
AcDbArc
 50
225.0000000000000
 51
270.0000000000000
  0
LINE
  5
28B
100
AcDbEntity
  8
MAIN0
  6
CONTINUOUS
 62
3
100
AcDbLine
 10
562.2555990585780
 20
356.5987448090857
 30
0.0000000000000000
 11
558.5786437626905
 21
358.5786437626906
 31
0.0000000000000000
  0
LINE
  5
28C
100
AcDbEntity
  8
MAIN0
  6
CONTINUOUS
 62
3
100
AcDbLine
 10
558.5786437626905
 20
358.5786437626906
 30
0.0000000000000000
 11
560.5585427162954
 21
354.9016884668030
 31
0.0000000000000000
  0
LINE
  5
28D
100
AcDbEntity
  8
MAIN0
  6
CONTINUOUS
 62
3
100
AcDbLine
 10
696.0000000000000
 20
301.2000000476837
 30
0.0000000000000000
 11
700.0000000000000
 21
300.0000000000000
 31
0.0000000000000000
  0
LINE
  5
28E
100
AcDbEntity
  8
MAIN0
  6
CONTINUOUS
 62
3
100
AcDbLine
 10
700.0000000000000
 20
300.0000000000000
 30
0.0000000000000000
 11
696.0000000000000
 21
298.7999999523163
 31
0.0000000000000000
  0
MTEXT
  5
28F
100
AcDbEntity
  8
MAIN0
  6
CONTINUOUS
 62
3
100
AcDbMText
 10
623.8459969593471
 20
316.1479730302540
 30
0.0000000000000000
 40
6.199999809265137
 41
0.0000000000000000
 71
     8
 72
     1
  1
{\H0.57x;{45\U+00B0}}
 11
0.9238795325112865
 21
-0.3826834323650904
 31
0.0000000000000000
  7
STANDARD
  0
LINE
  5
290
100
AcDbEntity
  8
MAIN0
  6
CONTINUOUS
 62
3
100
AcDbLine
 10
700.0000000000000
 20
305.8666666547458
 30
0.0000000000000000
 11
700.0000000000000
 21
298.0000000000000
 31
0.0000000000000000
  0
MTEXT
  5
291
100
AcDbEntity
  8
MAIN0
  6
CONTINUOUS
 62
3
100
AcDbMText
 10
605.0111349855254
 20
570.7751052508007
 30
0.0000000000000000
 40
10.00000000000000
 41
0.0000000000000000
 71
     1
 72
     1
  1
{\H0.63x;{KITAGAWA}}
 11
-0.4226182617406999
 21
-0.9063077870366497
 31
0.0000000000000000
  7
STANDARD
  0
MTEXT
  5
292
100
AcDbEntity
  8
MAIN0
  6
CONTINUOUS
 62
3
100
AcDbMText
 10
590.4320357636293
 20
569.4820127945808
 30
0.0000000000000000
 40
8.000000000000000
 41
0.0000000000000000
 71
     1
 72
     1
  1
{\H0.63x;{IA6-250}}
 11
-0.4226182617406999
 21
-0.9063077870366497
 31
0.0000000000000000
  7
STANDARD
  0
MTEXT
  5
293
100
AcDbEntity
  8
MAIN0
  6
CONTINUOUS
 62
3
100
AcDbMText
 10
574.7055974225731
 20
566.5171775182012
 30
0.0000000000000000
 40
5.000000000000000
 41
0.0000000000000000
 71
     1
 72
     1
  1
{\H0.63x;{JAPAN}}
 11
-0.4226182617406999
 21
-0.9063077870366497
 31
0.0000000000000000
  7
STANDARD
  0
MTEXT
  5
294
100
AcDbEntity
  8
MAIN0
  6
CONTINUOUS
 62
3
100
AcDbMText
 10
733.3333333333334
 20
354.6666666666667
 30
0.0000000000000000
 40
8.000000000000000
 41
0.0000000000000000
 71
     1
 72
     1
  1
{\H0.81x;{4}}
 11
1.000000000000000
 21
0.0000000000000000
 31
0.0000000000000000
  7
STANDARD
  0
MTEXT
  5
295
100
AcDbEntity
  8
MAIN0
  6
CONTINUOUS
 62
3
100
AcDbMText
 10
845.3333333333333
 20
533.3333333333333
 30
0.0000000000000000
 40
8.000000000000000
 41
0.0000000000000000
 71
     1
 72
     1
  1
{\H0.81x;{3}}
 11
6.123233995736766e-017
 21
1.000000000000000
 31
0.0000000000000000
  7
STANDARD
  0
MTEXT
  5
296
100
AcDbEntity
  8
MAIN0
  6
CONTINUOUS
 62
3
100
AcDbMText
 10
666.6666666666667
 20
645.3333333333333
 30
0.0000000000000000
 40
8.000000000000000
 41
0.0000000000000000
 71
     1
 72
     1
  1
{\H0.81x;{2}}
 11
-1.000000000000000
 21
1.224646799147353e-016
 31
0.0000000000000000
  7
STANDARD
  0
MTEXT
  5
297
100
AcDbEntity
  8
MAIN0
  6
CONTINUOUS
 62
3
100
AcDbMText
 10
554.6666666666667
 20
466.6666666666667
 30
0.0000000000000000
 40
8.000000000000000
 41
0.0000000000000000
 71
     1
 72
     1
  1
{\H0.81x;{1}}
 11
-1.836970198721030e-016
 21
-1.000000000000000
 31
0.0000000000000000
  7
STANDARD
  0
LINE
  5
298
100
AcDbEntity
  8
MAIN0
  6
CENTER
 62
3
100
AcDbLine
 10
506.6666666666667
 20
500.0000000000000
 30
0.0000000000000000
 11
893.3333333333333
 21
500.0000000000000
 31
0.0000000000000000
  0
LINE
  5
299
100
AcDbEntity
  8
MAIN0
  6
CONTINUOUS
 62
3
100
AcDbLine
 10
680.0000000000000
 20
334.5376847201219
 30
0.0000000000000000
 11
680.0000000000000
 21
469.2681851423569
 31
0.0000000000000000
  0
LINE
  5
29A
100
AcDbEntity
  8
MAIN0
  6
CONTINUOUS
 62
3
100
AcDbLine
 10
680.0000000000000
 20
530.7318148576433
 30
0.0000000000000000
 11
680.0000000000000
 21
665.4623152798781
 31
0.0000000000000000
  0
LINE
  5
29B
100
AcDbEntity
  8
MAIN0
  6
CONTINUOUS
 62
3
100
AcDbLine
 10
534.5376847201219
 20
519.9999999999998
 30
0.0000000000000000
 11
669.2681851423567
 21
519.9999999999999
 31
0.0000000000000000
  0
LINE
  5
29C
100
AcDbEntity
  8
MAIN0
  6
CONTINUOUS
 62
3
100
AcDbLine
 10
669.2681851423567
 20
480.0000000000000
 30
0.0000000000000000
 11
534.5376847201219
 21
480.0000000000002
 31
0.0000000000000000
  0
ARC
  5
29D
100
AcDbEntity
  8
MAIN0
  6
CONTINUOUS
 62
3
100
AcDbCircle
 10
700.0000000000000
 20
500.0000000000000
 30
0.0000000000000000
 40
113.3333333333333
100
AcDbArc
 50
100.1642486217235
 51
169.8357513782766
  0
ARC
  5
29E
100
AcDbEntity
  8
MAIN0
  6
CONTINUOUS
 62
3
100
AcDbCircle
 10
700.0000000000000
 20
500.0000000000000
 30
0.0000000000000000
 40
140.0000000000000
100
AcDbArc
 50
98.21321070173819
 51
171.7867892982619
  0
ARC
  5
29F
100
AcDbEntity
  8
MAIN0
  6
CONTINUOUS
 62
3
100
AcDbCircle
 10
700.0000000000000
 20
500.0000000000000
 30
0.0000000000000000
 40
140.0000000000000
100
AcDbArc
 50
188.2132107017381
 51
261.7867892982618
  0
ARC
  5
2A0
100
AcDbEntity
  8
MAIN0
  6
CONTINUOUS
 62
3
100
AcDbCircle
 10
700.0000000000000
 20
500.0000000000000
 30
0.0000000000000000
 40
60.00000000000000
100
AcDbArc
 50
199.4712206344906
 51
250.5287793655093
  0
ARC
  5
2A1
100
AcDbEntity
  8
MAIN0
  6
CONTINUOUS
 62
3
100
AcDbCircle
 10
700.0000000000000
 20
500.0000000000000
 30
0.0000000000000000
 40
113.3333333333333
100
AcDbArc
 50
190.1642486217234
 51
259.8357513782765
  0
LINE
  5
2A2
100
AcDbEntity
  8
MAIN0
  6
CENTER
 62
3
100
AcDbLine
 10
700.0000000000000
 20
306.6666666666667
 30
0.0000000000000000
 11
700.0000000000000
 21
700.0000000000000
 31
0.0000000000000000
  0
ARC
  5
2A3
100
AcDbEntity
  8
MAIN0
  6
CONTINUOUS
 62
3
100
AcDbCircle
 10
700.0000000000000
 20
500.0000000000000
 30
0.0000000000000000
 40
86.66666666666666
100
AcDbArc
 50
193.3423637970882
 51
201.4116117602520
  0
ARC
  5
2A4
100
AcDbEntity
  8
MAIN0
  6
CONTINUOUS
 62
3
100
AcDbCircle
 10
700.0000000000000
 20
500.0000000000000
 30
0.0000000000000000
 40
86.66666666666666
100
AcDbArc
 50
218.5883882397481
 51
256.6576362029117
  0
ARC
  5
2A5
100
AcDbEntity
  8
MAIN0
  6
CONTINUOUS
 62
3
100
AcDbCircle
 10
700.0000000000000
 20
500.0000000000000
 30
0.0000000000000000
 40
86.66666666666666
100
AcDbArc
 50
103.3423637970882
 51
111.4116117602519
  0
ARC
  5
2A6
100
AcDbEntity
  8
MAIN0
  6
CONTINUOUS
 62
3
100
AcDbCircle
 10
700.0000000000000
 20
500.0000000000000
 30
0.0000000000000000
 40
86.66666666666666
100
AcDbArc
 50
128.5883882397480
 51
166.6576362029119
  0
CIRCLE
  5
2A7
100
AcDbEntity
  8
MAIN0
  6
CONTINUOUS
 62
3
100
AcDbCircle
 10
700.0000000000000
 20
500.0000000000000
 30
0.0000000000000000
 40
166.6666666666667
  0
LINE
  5
2A8
100
AcDbEntity
  8
MAIN0
  6
CONTINUOUS
 62
3
100
AcDbLine
 10
533.7658946612405
 20
511.9999999999997
 30
0.0000000000000000
 11
538.8043185754710
 21
511.9999999999998
 31
0.0000000000000000
  0
LINE
  5
2A9
100
AcDbEntity
  8
MAIN0
  6
CONTINUOUS
 62
3
100
AcDbLine
 10
648.1376519089282
 20
511.9999999999999
 30
0.0000000000000000
 11
665.3525694395031
 21
511.9999999999999
 31
0.0000000000000000
  0
LINE
  5
2AA
100
AcDbEntity
  8
MAIN0
  6
CONTINUOUS
 62
3
100
AcDbLine
 10
538.8043185731972
 20
488.0000000000002
 30
0.0000000000000000
 11
533.7658946612405
 21
488.0000000000002
 31
0.0000000000000000
  0
LINE
  5
2AB
100
AcDbEntity
  8
MAIN0
  6
CONTINUOUS
 62
3
100
AcDbLine
 10
665.3525694395030
 20
488.0000000000001
 30
0.0000000000000000
 11
648.1376519074590
 21
488.0000000000001
 31
0.0000000000000000
  0
LINE
  5
2AC
100
AcDbEntity
  8
MAIN0
  6
CONTINUOUS
 62
3
100
AcDbLine
 10
688.0000000000000
 20
534.6474305604970
 30
0.0000000000000000
 11
688.0000000000000
 21
551.8691660854221
 31
0.0000000000000000
  0
LINE
  5
2AD
100
AcDbEntity
  8
MAIN0
  6
CONTINUOUS
 62
3
100
AcDbLine
 10
688.0000000000000
 20
661.2024994196405
 30
0.0000000000000000
 11
688.0000000000000
 21
666.2341053387594
 31
0.0000000000000000
  0
LINE
  5
2AE
100
AcDbEntity
  8
MAIN0
  6
CONTINUOUS
 62
3
100
AcDbLine
 10
688.0000000000000
 20
333.7658946612405
 30
0.0000000000000000
 11
688.0000000000000
 21
338.7837991810704
 31
0.0000000000000000
  0
LINE
  5
2AF
100
AcDbEntity
  8
MAIN0
  6
CONTINUOUS
 62
3
100
AcDbLine
 10
688.0000000000000
 20
448.1171325145270
 30
0.0000000000000000
 11
688.0000000000000
 21
465.3525694395030
 31
0.0000000000000000
  0
ARC
  5
2B0
100
AcDbEntity
  8
MAIN0
  6
CONTINUOUS
 62
3
100
AcDbCircle
 10
700.0000000000000
 20
500.0000000000000
 30
0.0000000000000000
 40
60.00000000000000
100
AcDbArc
 50
109.4712206344907
 51
127.9384921220210
  0
ARC
  5
2B1
100
AcDbEntity
  8
MAIN0
  6
CONTINUOUS
 62
3
100
AcDbCircle
 10
700.0000000000000
 20
500.0000000000000
 30
0.0000000000000000
 40
60.00000000000000
100
AcDbArc
 50
139.6365241656162
 51
160.5287793655094
  0
LINE
  5
2B2
100
AcDbEntity
  8
MAIN0
  6
HIDDEN
 62
3
100
AcDbLine
 10
276.3333333330917
 20
663.3333333333333
 30
0.0000000000000000
 11
276.3333333330957
 21
660.6666666666666
 31
0.0000000000000000
  0
LINE
  5
2B3
100
AcDbEntity
  8
MAIN0
  6
HIDDEN
 62
3
100
AcDbLine
 10
276.3333333330917
 20
663.3333333333333
 30
0.0000000000000000
 11
303.6666666664252
 21
663.3333333333333
 31
0.0000000000000000
  0
LINE
  5
2B4
100
AcDbEntity
  8
MAIN0
  6
HIDDEN
 62
3
100
AcDbLine
 10
303.6666666664252
 20
663.3333333333333
 30
0.0000000000000000
 11
303.6666666664291
 21
660.6666666666666
 31
0.0000000000000000
  0
LINE
  5
2B5
100
AcDbEntity
  8
MAIN0
  6
HIDDEN
 62
3
100
AcDbLine
 10
307.3333333330868
 20
666.6666666666666
 30
0.0000000000000000
 11
307.3333333330922
 21
662.9748734629868
 31
0.0000000000000000
  0
LINE
  5
2B6
100
AcDbEntity
  8
MAIN0
  6
HIDDEN
 62
3
100
AcDbLine
 10
289.9999999998018
 20
633.9999999999996
 30
0.0000000000000000
 11
296.6666666664685
 21
633.9999999999996
 31
0.0000000000000000
  0
LINE
  5
2B7
100
AcDbEntity
  8
MAIN0
  6
HIDDEN
 62
3
100
AcDbLine
 10
296.6666666664567
 20
642.0000000000000
 30
0.0000000000000000
 11
296.6666666664685
 21
633.9999999999996
 31
0.0000000000000000
  0
LINE
  5
2B8
100
AcDbEntity
  8
MAIN0
  6
HIDDEN
 62
3
100
AcDbLine
 10
296.6666666664683
 20
634.0000000020661
 30
0.0000000000000000
 11
289.9999999998073
 21
630.1509982074877
 31
0.0000000000000000
  0
LINE
  5
2B9
100
AcDbEntity
  8
MAIN0
  6
HIDDEN
 62
3
100
AcDbLine
 10
290.7248932510306
 20
660.6666666666666
 30
0.0000000000000000
 11
290.7248932511133
 21
641.9999999999999
 31
0.0000000000000000
  0
LINE
  5
2BA
100
AcDbEntity
  8
MAIN0
  6
HIDDEN
 62
3
100
AcDbLine
 10
298.7031971642202
 20
660.6666666666666
 30
0.0000000000000000
 11
298.7031971642616
 21
642.0000000000000
 31
0.0000000000000000
  0
LINE
  5
2BB
100
AcDbEntity
  8
MAIN0
  6
HIDDEN
 62
3
100
AcDbLine
 10
289.2751067484943
 20
660.6666666666645
 30
0.0000000000000000
 11
289.2751067484668
 21
641.9999999999977
 31
0.0000000000000000
  0
LINE
  5
2BC
100
AcDbEntity
  8
MAIN0
  6
HIDDEN
 62
3
100
AcDbLine
 10
281.2968028353046
 20
660.6666666666408
 30
0.0000000000000000
 11
281.2968028353184
 21
641.9999999999742
 31
0.0000000000000000
  0
LINE
  5
2BD
100
AcDbEntity
  8
MAIN0
  6
HIDDEN
 62
3
100
AcDbLine
 10
283.3333333331234
 20
641.9999999999802
 30
0.0000000000000000
 11
283.3333333331352
 21
633.9999999999798
 31
0.0000000000000000
  0
LINE
  5
2BE
100
AcDbEntity
  8
MAIN0
  6
HIDDEN
 62
3
100
AcDbLine
 10
289.9999999998019
 20
633.9999999999996
 30
0.0000000000000000
 11
283.3333333331352
 21
633.9999999999798
 31
0.0000000000000000
  0
LINE
  5
2BF
100
AcDbEntity
  8
MAIN0
  6
HIDDEN
 62
3
100
AcDbLine
 10
283.3333333331353
 20
634.0000000020464
 30
0.0000000000000000
 11
289.9999999998076
 21
630.1509982074877
 31
0.0000000000000000
  0
LINE
  5
2C0
100
AcDbEntity
  8
MAIN0
  6
CONTINUOUS
 62
3
100
AcDbLine
 10
298.7031971642202
 20
660.6666666666667
 30
0.0000000000000000
 11
290.7248932511133
 21
642.0000000000000
 31
0.0000000000000000
  0
LINE
  5
2C1
100
AcDbEntity
  8
MAIN0
  6
CONTINUOUS
 62
3
100
AcDbLine
 10
289.2751067484667
 20
641.9999999999978
 30
0.0000000000000000
 11
281.2968028353045
 21
660.6666666666408
 31
0.0000000000000000
  0
LINE
  5
2C2
100
AcDbEntity
  8
MAIN0
  6
CONTINUOUS
 62
3
100
AcDbLine
 10
281.2968028353184
 20
641.9999999999742
 30
0.0000000000000000
 11
289.2751067484943
 21
660.6666666666645
 31
0.0000000000000000
  0
LINE
  5
2C3
100
AcDbEntity
  8
MAIN0
  6
CONTINUOUS
 62
3
100
AcDbLine
 10
290.7248932510306
 20
660.6666666666666
 30
0.0000000000000000
 11
298.7031971642617
 21
642.0000000000000
 31
0.0000000000000000
  0
LINE
  5
2C4
100
AcDbEntity
  8
MAIN0
  6
HIDDEN
 62
3
100
AcDbLine
 10
281.2968028353184
 20
641.9999999999743
 30
0.0000000000000000
 11
298.7031971642617
 21
642.0000000000000
 31
0.0000000000000000
  0
LINE
  5
2C5
100
AcDbEntity
  8
MAIN0
  6
HIDDEN
 62
3
100
AcDbLine
 10
274.2413035438715
 20
660.6666666666666
 30
0.0000000000000000
 11
305.7586961928604
 21
660.6666666666666
 31
0.0000000000000000
  0
POINT
  5
2C6
100
AcDbEntity
  8
MAIN0
  6
CONTINUOUS
 62
3
100
AcDbPoint
 10
333.2189514163456
 20
656.0000000000000
 30
0.0000000000000000
  0
LINE
  5
2C7
100
AcDbEntity
  8
MAIN0
  6
CONTINUOUS
 62
3
100
AcDbLine
 10
333.3333333331524
 20
560.0000000000814
 30
0.0000000000000000
 11
379.9999999998481
 21
560.0000000000936
 31
0.0000000000000000
  0
POINT
  5
2C8
100
AcDbEntity
  8
MAIN0
  6
CONTINUOUS
 62
3
100
AcDbPoint
 10
297.9999999998481
 20
657.3333333333333
 30
0.0000000000000000
  0
LINE
  5
2C9
100
AcDbEntity
  8
MAIN0
  6
CONTINUOUS
 62
3
100
AcDbLine
 10
379.9999999998481
 20
548.0000000000000
 30
0.0000000000000000
 11
379.9999999998481
 21
580.0000000000000
 31
0.0000000000000000
  0
LINE
  5
2CA
100
AcDbEntity
  8
MAIN0
  6
CONTINUOUS
 62
3
100
AcDbLine
 10
361.3333333331815
 20
585.3333333331533
 30
0.0000000000000000
 11
361.3333333331815
 21
605.3333333333758
 31
0.0000000000000000
  0
LINE
  5
2CB
100
AcDbEntity
  8
MAIN0
  6
CONTINUOUS
 62
3
100
AcDbLine
 10
342.6666666665148
 20
622.6666666664867
 30
0.0000000000000000
 11
342.6666666665148
 21
646.6666666667190
 31
0.0000000000000000
  0
LINE
  5
2CC
100
AcDbEntity
  8
MAIN0
  6
CONTINUOUS
 62
3
100
AcDbLine
 10
372.5333333331441
 20
546.6666666666665
 30
0.0000000000000000
 11
373.3333333331807
 21
548.0523073127849
 31
0.0000000000000000
  0
LINE
  5
2CD
100
AcDbEntity
  8
MAIN0
  6
CONTINUOUS
 62
3
100
AcDbLine
 10
374.1333333332179
 20
546.6666666666667
 30
0.0000000000000000
 11
373.3333333331809
 21
548.0523073127852
 31
0.0000000000000000
  0
LINE
  5
2CE
100
AcDbEntity
  8
MAIN0
  6
CONTINUOUS
 62
3
100
AcDbLine
 10
367.1999999998109
 20
546.6666666666666
 30
0.0000000000000000
 11
367.9999999998474
 21
548.0523073127851
 31
0.0000000000000000
  0
LINE
  5
2CF
100
AcDbEntity
  8
MAIN0
  6
CONTINUOUS
 62
3
100
AcDbLine
 10
368.7999999998845
 20
546.6666666666667
 30
0.0000000000000000
 11
367.9999999998475
 21
548.0523073127853
 31
0.0000000000000000
  0
LINE
  5
2D0
100
AcDbEntity
  8
MAIN0
  6
CONTINUOUS
 62
3
100
AcDbLine
 10
361.8666666664775
 20
546.6666666666666
 30
0.0000000000000000
 11
362.6666666665141
 21
548.0523073127851
 31
0.0000000000000000
  0
LINE
  5
2D1
100
AcDbEntity
  8
MAIN0
  6
CONTINUOUS
 62
3
100
AcDbLine
 10
363.4666666665512
 20
546.6666666666667
 30
0.0000000000000000
 11
362.6666666665142
 21
548.0523073127853
 31
0.0000000000000000
  0
LINE
  5
2D2
100
AcDbEntity
  8
MAIN0
  6
CONTINUOUS
 62
3
100
AcDbLine
 10
356.5333333331442
 20
546.6666666666665
 30
0.0000000000000000
 11
357.3333333331808
 21
548.0523073127849
 31
0.0000000000000000
  0
LINE
  5
2D3
100
AcDbEntity
  8
MAIN0
  6
CONTINUOUS
 62
3
100
AcDbLine
 10
358.1333333332178
 20
546.6666666666667
 30
0.0000000000000000
 11
357.3333333331809
 21
548.0523073127852
 31
0.0000000000000000
  0
LINE
  5
2D4
100
AcDbEntity
  8
MAIN0
  6
CONTINUOUS
 62
3
100
AcDbLine
 10
351.1999999998108
 20
546.6666666666666
 30
0.0000000000000000
 11
351.9999999998474
 21
548.0523073127851
 31
0.0000000000000000
  0
LINE
  5
2D5
100
AcDbEntity
  8
MAIN0
  6
CONTINUOUS
 62
3
100
AcDbLine
 10
352.7999999998845
 20
546.6666666666667
 30
0.0000000000000000
 11
351.9999999998474
 21
548.0523073127853
 31
0.0000000000000000
  0
LINE
  5
2D6
100
AcDbEntity
  8
MAIN0
  6
CONTINUOUS
 62
3
100
AcDbLine
 10
345.8666666664776
 20
546.6666666666665
 30
0.0000000000000000
 11
346.6666666665141
 21
548.0523073127849
 31
0.0000000000000000
  0
LINE
  5
2D7
100
AcDbEntity
  8
MAIN0
  6
CONTINUOUS
 62
3
100
AcDbLine
 10
347.4666666665512
 20
546.6666666666669
 30
0.0000000000000000
 11
346.6666666665143
 21
548.0523073127853
 31
0.0000000000000000
  0
LINE
  5
2D8
100
AcDbEntity
  8
MAIN0
  6
CONTINUOUS
 62
3
100
AcDbLine
 10
340.5333333331441
 20
546.6666666666665
 30
0.0000000000000000
 11
341.3333333331807
 21
548.0523073127851
 31
0.0000000000000000
  0
LINE
  5
2D9
100
AcDbEntity
  8
MAIN0
  6
CONTINUOUS
 62
3
100
AcDbLine
 10
342.1333333332178
 20
546.6666666666667
 30
0.0000000000000000
 11
341.3333333331808
 21
548.0523073127853
 31
0.0000000000000000
  0
LINE
  5
2DA
100
AcDbEntity
  8
MAIN0
  6
CONTINUOUS
 62
3
100
AcDbLine
 10
335.1999999998108
 20
546.6666666666665
 30
0.0000000000000000
 11
335.9999999998474
 21
548.0523073127849
 31
0.0000000000000000
  0
LINE
  5
2DB
100
AcDbEntity
  8
MAIN0
  6
CONTINUOUS
 62
3
100
AcDbLine
 10
336.7999999998846
 20
546.6666666666667
 30
0.0000000000000000
 11
335.9999999998476
 21
548.0523073127853
 31
0.0000000000000000
  0
LINE
  5
2DC
100
AcDbEntity
  8
MAIN0
  6
CONTINUOUS
 62
3
100
AcDbLine
 10
378.6666666665148
 20
546.6666666666666
 30
0.0000000000000000
 11
374.1333333332181
 21
546.6666666666666
 31
0.0000000000000000
  0
LINE
  5
2DD
100
AcDbEntity
  8
MAIN0
  6
CONTINUOUS
 62
3
100
AcDbLine
 10
372.5333333331441
 20
546.6666666666666
 30
0.0000000000000000
 11
368.7999999998847
 21
546.6666666666666
 31
0.0000000000000000
  0
LINE
  5
2DE
100
AcDbEntity
  8
MAIN0
  6
CONTINUOUS
 62
3
100
AcDbLine
 10
367.1999999998108
 20
546.6666666666666
 30
0.0000000000000000
 11
363.4666666665514
 21
546.6666666666666
 31
0.0000000000000000
  0
LINE
  5
2DF
100
AcDbEntity
  8
MAIN0
  6
CONTINUOUS
 62
3
100
AcDbLine
 10
361.8666666664775
 20
546.6666666666666
 30
0.0000000000000000
 11
358.1333333332181
 21
546.6666666666666
 31
0.0000000000000000
  0
LINE
  5
2E0
100
AcDbEntity
  8
MAIN0
  6
CONTINUOUS
 62
3
100
AcDbLine
 10
356.5333333331441
 20
546.6666666666666
 30
0.0000000000000000
 11
352.7999999998847
 21
546.6666666666666
 31
0.0000000000000000
  0
LINE
  5
2E1
100
AcDbEntity
  8
MAIN0
  6
CONTINUOUS
 62
3
100
AcDbLine
 10
351.1999999998108
 20
546.6666666666666
 30
0.0000000000000000
 11
347.4666666665514
 21
546.6666666666666
 31
0.0000000000000000
  0
LINE
  5
2E2
100
AcDbEntity
  8
MAIN0
  6
CONTINUOUS
 62
3
100
AcDbLine
 10
345.8666666664775
 20
546.6666666666666
 30
0.0000000000000000
 11
342.1333333332181
 21
546.6666666666666
 31
0.0000000000000000
  0
LINE
  5
2E3
100
AcDbEntity
  8
MAIN0
  6
CONTINUOUS
 62
3
100
AcDbLine
 10
340.5333333331441
 20
546.6666666666666
 30
0.0000000000000000
 11
336.7999999998847
 21
546.6666666666666
 31
0.0000000000000000
  0
LINE
  5
2E4
100
AcDbEntity
  8
MAIN0
  6
CONTINUOUS
 62
3
100
AcDbLine
 10
335.1999999998108
 20
546.6666666666666
 30
0.0000000000000000
 11
333.3333333331486
 21
546.6666666666666
 31
0.0000000000000000
  0
LINE
  5
2E5
100
AcDbEntity
  8
MAIN0
  6
CONTINUOUS
 62
3
100
AcDbLine
 10
373.8666666662053
 20
581.3333333333334
 30
0.0000000000000000
 11
374.6666666663596
 21
579.9476926870110
 31
0.0000000000000000
  0
LINE
  5
2E6
100
AcDbEntity
  8
MAIN0
  6
CONTINUOUS
 62
3
100
AcDbLine
 10
375.4666666664099
 20
581.3333333333333
 30
0.0000000000000000
 11
374.6666666662042
 21
579.9476926869214
 31
0.0000000000000000
  0
LINE
  5
2E7
100
AcDbEntity
  8
MAIN0
  6
CONTINUOUS
 62
3
100
AcDbLine
 10
370.1333333330765
 20
581.3333333333334
 30
0.0000000000000000
 11
369.3333333328707
 21
579.9476926869214
 31
0.0000000000000000
  0
LINE
  5
2E8
100
AcDbEntity
  8
MAIN0
  6
CONTINUOUS
 62
3
100
AcDbLine
 10
368.5333333328719
 20
581.3333333333333
 30
0.0000000000000000
 11
369.3333333330262
 21
579.9476926870110
 31
0.0000000000000000
  0
LINE
  5
2E9
100
AcDbEntity
  8
MAIN0
  6
CONTINUOUS
 62
3
100
AcDbLine
 10
378.6666666665148
 20
581.3333333333333
 30
0.0000000000000000
 11
379.9999999998481
 21
579.9999999999999
 31
0.0000000000000000
  0
LINE
  5
2EA
100
AcDbEntity
  8
MAIN0
  6
CONTINUOUS
 62
3
100
AcDbLine
 10
361.1584587346291
 20
579.3865573367027
 30
0.0000000000000000
 11
365.3333333320846
 21
581.3333333333334
 31
0.0000000000000000
  0
LINE
  5
2EB
100
AcDbEntity
  8
MAIN0
  6
CONTINUOUS
 62
3
100
AcDbLine
 10
359.3865573362596
 20
581.1584587350723
 30
0.0000000000000000
 11
361.3333333331815
 21
585.3333333331534
 31
0.0000000000000000
  0
ARC
  5
2EC
100
AcDbEntity
  8
MAIN0
  6
CONTINUOUS
 62
3
100
AcDbCircle
 10
360.5949677189751
 20
580.5949677194180
 30
0.0000000000000000
 40
1.333333333333333
100
AcDbArc
 50
154.9999999999999
 51
294.9999999999977
  0
LINE
  5
2ED
100
AcDbEntity
  8
MAIN0
  6
CONTINUOUS
 62
3
100
AcDbLine
 10
378.6666666665148
 20
581.3333333333333
 30
0.0000000000000000
 11
375.4666666664099
 21
581.3333333333333
 31
0.0000000000000000
  0
LINE
  5
2EE
100
AcDbEntity
  8
MAIN0
  6
CONTINUOUS
 62
3
100
AcDbLine
 10
368.5333333328719
 20
581.3333333333333
 30
0.0000000000000000
 11
365.3333333320846
 21
581.3333333333333
 31
0.0000000000000000
  0
LINE
  5
2EF
100
AcDbEntity
  8
MAIN0
  6
CONTINUOUS
 62
3
100
AcDbLine
 10
373.8666666662052
 20
581.3333333333333
 30
0.0000000000000000
 11
370.1333333330766
 21
581.3333333333333
 31
0.0000000000000000
  0
LINE
  5
2F0
100
AcDbEntity
  8
MAIN0
  6
CONTINUOUS
 62
3
100
AcDbLine
 10
360.6666666665148
 20
606.0000000000431
 30
0.0000000000000000
 11
360.6666666665148
 21
617.3333333333333
 31
0.0000000000000000
  0
LINE
  5
2F1
100
AcDbEntity
  8
MAIN0
  6
CONTINUOUS
 62
3
100
AcDbLine
 10
360.6666666665147
 20
606.0000000000432
 30
0.0000000000000000
 11
361.3333333331815
 21
605.3333333333760
 31
0.0000000000000000
  0
LINE
  5
2F2
100
AcDbEntity
  8
MAIN0
  6
CONTINUOUS
 62
3
100
AcDbLine
 10
356.1333333330765
 20
618.6666666666666
 30
0.0000000000000000
 11
355.3333333328708
 21
617.2810260202548
 31
0.0000000000000000
  0
LINE
  5
2F3
100
AcDbEntity
  8
MAIN0
  6
CONTINUOUS
 62
3
100
AcDbLine
 10
354.5333333328720
 20
618.6666666666665
 30
0.0000000000000000
 11
355.3333333330262
 21
617.2810260203444
 31
0.0000000000000000
  0
LINE
  5
2F4
100
AcDbEntity
  8
MAIN0
  6
CONTINUOUS
 62
3
100
AcDbLine
 10
350.7999999997431
 20
618.6666666666666
 30
0.0000000000000000
 11
349.9999999995375
 21
617.2810260202548
 31
0.0000000000000000
  0
LINE
  5
2F5
100
AcDbEntity
  8
MAIN0
  6
CONTINUOUS
 62
3
100
AcDbLine
 10
349.1999999995386
 20
618.6666666666666
 30
0.0000000000000000
 11
349.9999999996928
 21
617.2810260203444
 31
0.0000000000000000
  0
LINE
  5
2F6
100
AcDbEntity
  8
MAIN0
  6
CONTINUOUS
 62
3
100
AcDbLine
 10
342.4917920679624
 20
616.7198906700360
 30
0.0000000000000000
 11
346.6666666654180
 21
618.6666666666667
 31
0.0000000000000000
  0
ARC
  5
2F7
100
AcDbEntity
  8
MAIN0
  6
CONTINUOUS
 62
3
100
AcDbCircle
 10
341.9283010523084
 20
617.9283010527513
 30
0.0000000000000000
 40
1.333333333333333
100
AcDbArc
 50
154.9999999999999
 51
294.9999999999977
  0
LINE
  5
2F8
100
AcDbEntity
  8
MAIN0
  6
CONTINUOUS
 62
3
100
AcDbLine
 10
340.7198906695930
 20
618.4917920684056
 30
0.0000000000000000
 11
342.6666666665149
 21
622.6666666664867
 31
0.0000000000000000
  0
LINE
  5
2F9
100
AcDbEntity
  8
MAIN0
  6
CONTINUOUS
 62
3
100
AcDbLine
 10
359.3333333331815
 20
618.6666666666666
 30
0.0000000000000000
 11
360.6666666665149
 21
617.3333333333333
 31
0.0000000000000000
  0
LINE
  5
2FA
100
AcDbEntity
  8
MAIN0
  6
CONTINUOUS
 62
3
100
AcDbLine
 10
359.3333333331815
 20
618.6666666666666
 30
0.0000000000000000
 11
356.1333333330766
 21
618.6666666666666
 31
0.0000000000000000
  0
LINE
  5
2FB
100
AcDbEntity
  8
MAIN0
  6
CONTINUOUS
 62
3
100
AcDbLine
 10
349.1999999995386
 20
618.6666666666666
 30
0.0000000000000000
 11
346.6666666654179
 21
618.6666666666666
 31
0.0000000000000000
  0
LINE
  5
2FC
100
AcDbEntity
  8
MAIN0
  6
CONTINUOUS
 62
3
100
AcDbLine
 10
354.5333333328719
 20
618.6666666666666
 30
0.0000000000000000
 11
350.7999999997433
 21
618.6666666666666
 31
0.0000000000000000
  0
LINE
  5
2FD
100
AcDbEntity
  8
MAIN0
  6
CONTINUOUS
 62
3
100
AcDbLine
 10
341.9999999998481
 20
647.3333333333860
 30
0.0000000000000000
 11
341.9999999998481
 21
665.3333333333333
 31
0.0000000000000000
  0
LINE
  5
2FE
100
AcDbEntity
  8
MAIN0
  6
CONTINUOUS
 62
3
100
AcDbLine
 10
341.9999999998481
 20
647.3333333333860
 30
0.0000000000000000
 11
342.6666666665146
 21
646.6666666667190
 31
0.0000000000000000
  0
LINE
  5
2FF
100
AcDbEntity
  8
MAIN0
  6
CONTINUOUS
 62
3
100
AcDbLine
 10
340.6666666665149
 20
666.6666666666666
 30
0.0000000000000000
 11
341.9999999998481
 21
665.3333333333334
 31
0.0000000000000000
  0
LINE
  5
300
100
AcDbEntity
  8
MAIN0
  6
CONTINUOUS
 62
3
100
AcDbLine
 10
335.3333333335063
 20
665.2810260209224
 30
0.0000000000000000
 11
336.1333333333268
 21
666.6666666666666
 31
0.0000000000000000
  0
LINE
  5
301
100
AcDbEntity
  8
MAIN0
  6
CONTINUOUS
 62
3
100
AcDbLine
 10
335.3333333335063
 20
665.2810260209226
 30
0.0000000000000000
 11
334.5333333336864
 21
666.6666666666665
 31
0.0000000000000000
  0
LINE
  5
302
100
AcDbEntity
  8
MAIN0
  6
CONTINUOUS
 62
3
100
AcDbLine
 10
340.6666666665148
 20
666.6666666666666
 30
0.0000000000000000
 11
336.1333333333267
 21
666.6666666666666
 31
0.0000000000000000
  0
LINE
  5
303
100
AcDbEntity
  8
MAIN0
  6
CONTINUOUS
 62
3
100
AcDbLine
 10
334.5333333336863
 20
666.6666666666666
 30
0.0000000000000000
 11
331.3333333330899
 21
666.6666666666666
 31
0.0000000000000000
  0
LINE
  5
304
100
AcDbEntity
  8
MAIN0
  6
CONTINUOUS
 62
3
100
AcDbLine
 10
313.2000000003528
 20
666.6666666666665
 30
0.0000000000000000
 11
307.3333333331813
 21
666.6666666666665
 31
0.0000000000000000
  0
LINE
  5
305
100
AcDbEntity
  8
MAIN0
  6
CONTINUOUS
 62
3
100
AcDbLine
 10
378.6666666665148
 20
546.6666666666666
 30
0.0000000000000000
 11
379.9999999998481
 21
548.0000000000000
 31
0.0000000000000000
  0
LINE
  5
306
100
AcDbEntity
  8
MAIN0
  6
CENTER
 62
3
100
AcDbLine
 10
373.3333333331815
 20
542.6666666666666
 30
0.0000000000000000
 11
373.3333333331815
 21
550.6666666666666
 31
0.0000000000000000
  0
LINE
  5
307
100
AcDbEntity
  8
MAIN0
  6
CENTER
 62
3
100
AcDbLine
 10
367.9999999998481
 20
542.6666666666666
 30
0.0000000000000000
 11
367.9999999998481
 21
550.6666666666666
 31
0.0000000000000000
  0
LINE
  5
308
100
AcDbEntity
  8
MAIN0
  6
CENTER
 62
3
100
AcDbLine
 10
362.6666666665148
 20
542.6666666666666
 30
0.0000000000000000
 11
362.6666666665148
 21
550.6666666666666
 31
0.0000000000000000
  0
LINE
  5
309
100
AcDbEntity
  8
MAIN0
  6
CENTER
 62
3
100
AcDbLine
 10
357.3333333331815
 20
542.6666666666666
 30
0.0000000000000000
 11
357.3333333331815
 21
550.6666666666666
 31
0.0000000000000000
  0
LINE
  5
30A
100
AcDbEntity
  8
MAIN0
  6
CENTER
 62
3
100
AcDbLine
 10
351.9999999998481
 20
542.6666666666666
 30
0.0000000000000000
 11
351.9999999998481
 21
550.6666666666666
 31
0.0000000000000000
  0
LINE
  5
30B
100
AcDbEntity
  8
MAIN0
  6
CENTER
 62
3
100
AcDbLine
 10
346.6666666665148
 20
542.6666666666666
 30
0.0000000000000000
 11
346.6666666665148
 21
550.6666666666666
 31
0.0000000000000000
  0
LINE
  5
30C
100
AcDbEntity
  8
MAIN0
  6
CENTER
 62
3
100
AcDbLine
 10
341.3333333331815
 20
542.6666666666666
 30
0.0000000000000000
 11
341.3333333331815
 21
550.6666666666666
 31
0.0000000000000000
  0
LINE
  5
30D
100
AcDbEntity
  8
MAIN0
  6
CENTER
 62
3
100
AcDbLine
 10
335.9999999998481
 20
542.6666666666666
 30
0.0000000000000000
 11
335.9999999998481
 21
550.6666666666666
 31
0.0000000000000000
  0
LINE
  5
30E
100
AcDbEntity
  8
MAIN0
  6
CENTER
 62
3
100
AcDbLine
 10
374.6666666665148
 20
577.3333333333333
 30
0.0000000000000000
 11
374.6666666665148
 21
585.3333333333333
 31
0.0000000000000000
  0
LINE
  5
30F
100
AcDbEntity
  8
MAIN0
  6
CENTER
 62
3
100
AcDbLine
 10
369.3333333331815
 20
577.3333333333333
 30
0.0000000000000000
 11
369.3333333331815
 21
585.3333333333333
 31
0.0000000000000000
  0
LINE
  5
310
100
AcDbEntity
  8
MAIN0
  6
CENTER
 62
3
100
AcDbLine
 10
355.3333333331815
 20
614.6666666666666
 30
0.0000000000000000
 11
355.3333333331815
 21
622.6666666666666
 31
0.0000000000000000
  0
LINE
  5
311
100
AcDbEntity
  8
MAIN0
  6
CENTER
 62
3
100
AcDbLine
 10
349.9999999998481
 20
614.6666666666666
 30
0.0000000000000000
 11
349.9999999998481
 21
622.6666666666666
 31
0.0000000000000000
  0
LINE
  5
312
100
AcDbEntity
  8
MAIN0
  6
CENTER
 62
3
100
AcDbLine
 10
335.3333333331815
 20
662.6666666666666
 30
0.0000000000000000
 11
335.3333333331815
 21
670.6666666666666
 31
0.0000000000000000
  0
POINT
  5
313
100
AcDbEntity
  8
MAIN0
  6
CONTINUOUS
 62
3
100
AcDbPoint
 10
378.6666666665148
 20
581.3333333333333
 30
0.0000000000000000
  0
POINT
  5
314
100
AcDbEntity
  8
MAIN0
  6
CONTINUOUS
 62
3
100
AcDbPoint
 10
378.6666666665148
 20
546.6666666666666
 30
0.0000000000000000
  0
POINT
  5
315
100
AcDbEntity
  8
MAIN0
  6
CONTINUOUS
 62
3
100
AcDbPoint
 10
356.1333333330766
 20
618.6666666666666
 30
0.0000000000000000
  0
POINT
  5
316
100
AcDbEntity
  8
MAIN0
  6
CONTINUOUS
 62
3
100
AcDbPoint
 10
340.6666666665148
 20
666.6666666666666
 30
0.0000000000000000
  0
LINE
  5
317
100
AcDbEntity
  8
MAIN0
  6
CONTINUOUS
 62
3
100
AcDbLine
 10
361.3333333331815
 20
606.1333333452967
 30
0.0000000000000000
 11
361.3333333331815
 21
642.0000000000000
 31
0.0000000000000000
  0
LINE
  5
318
100
AcDbEntity
  8
MAIN0
  6
CONTINUOUS
 62
3
100
AcDbLine
 10
361.3333333331815
 20
640.0000000000000
 30
0.0000000000000000
 11
342.6666666665148
 21
640.0000000000000
 31
0.0000000000000000
  0
LINE
  5
319
100
AcDbEntity
  8
MAIN0
  6
CONTINUOUS
 62
3
100
AcDbLine
 10
357.3333333331815
 20
638.7999999523163
 30
0.0000000000000000
 11
361.3333333331815
 21
640.0000000000000
 31
0.0000000000000000
  0
LINE
  5
31A
100
AcDbEntity
  8
MAIN0
  6
CONTINUOUS
 62
3
100
AcDbLine
 10
361.3333333331815
 20
640.0000000000000
 30
0.0000000000000000
 11
357.3333333331815
 21
641.2000000476837
 31
0.0000000000000000
  0
LINE
  5
31B
100
AcDbEntity
  8
MAIN0
  6
CONTINUOUS
 62
3
100
AcDbLine
 10
346.6666666665148
 20
638.7999999523163
 30
0.0000000000000000
 11
342.6666666665148
 21
640.0000000000000
 31
0.0000000000000000
  0
LINE
  5
31C
100
AcDbEntity
  8
MAIN0
  6
CONTINUOUS
 62
3
100
AcDbLine
 10
342.6666666665148
 20
640.0000000000000
 30
0.0000000000000000
 11
346.6666666665148
 21
641.2000000476837
 31
0.0000000000000000
  0
MTEXT
  5
31D
100
AcDbEntity
  8
MAIN0
  6
CONTINUOUS
 62
3
100
AcDbMText
 10
351.9999999998481
 20
641.0000000000000
 30
0.0000000000000000
 40
6.199999809265137
 41
0.0000000000000000
 71
     8
 72
     1
  1
{\H0.69x;{14}}
 11
1.000000000000000
 21
0.0000000000000000
 31
0.0000000000000000
  7
STANDARD
  0
LINE
  5
31E
100
AcDbEntity
  8
MAIN0
  6
CONTINUOUS
 62
3
100
AcDbLine
 10
361.3333333331815
 20
600.0000000000000
 30
0.0000000000000000
 11
379.9999999998481
 21
600.0000000000000
 31
0.0000000000000000
  0
LINE
  5
31F
100
AcDbEntity
  8
MAIN0
  6
CONTINUOUS
 62
3
100
AcDbLine
 10
365.3333333331815
 20
601.2000000476837
 30
0.0000000000000000
 11
361.3333333331815
 21
600.0000000000000
 31
0.0000000000000000
  0
LINE
  5
320
100
AcDbEntity
  8
MAIN0
  6
CONTINUOUS
 62
3
100
AcDbLine
 10
361.3333333331815
 20
600.0000000000000
 30
0.0000000000000000
 11
365.3333333331815
 21
598.7999999523163
 31
0.0000000000000000
  0
LINE
  5
321
100
AcDbEntity
  8
MAIN0
  6
CONTINUOUS
 62
3
100
AcDbLine
 10
375.9999999998481
 20
601.2000000476837
 30
0.0000000000000000
 11
379.9999999998481
 21
600.0000000000000
 31
0.0000000000000000
  0
LINE
  5
322
100
AcDbEntity
  8
MAIN0
  6
CONTINUOUS
 62
3
100
AcDbLine
 10
379.9999999998481
 20
600.0000000000000
 30
0.0000000000000000
 11
375.9999999998481
 21
598.7999999523163
 31
0.0000000000000000
  0
MTEXT
  5
323
100
AcDbEntity
  8
MAIN0
  6
CONTINUOUS
 62
3
100
AcDbMText
 10
370.6666666665148
 20
601.0000000000000
 30
0.0000000000000000
 40
6.199999809265137
 41
0.0000000000000000
 71
     8
 72
     1
  1
{\H0.69x;{14}}
 11
1.000000000000000
 21
0.0000000000000000
 31
0.0000000000000000
  7
STANDARD
  0
LINE
  5
324
100
AcDbEntity
  8
MAIN0
  6
CONTINUOUS
 62
3
100
AcDbLine
 10
379.9999999998481
 20
580.8000000119209
 30
0.0000000000000000
 11
379.9999999998481
 21
602.0000000000000
 31
0.0000000000000000
  0
LINE
  5
325
100
AcDbEntity
  8
MAIN0
  6
CONTINUOUS
 62
3
100
AcDbLine
 10
546.8043185732907
 20
479.9999999999113
 30
0.0000000000000000
 11
533.4709852410617
 21
493.3333333321325
 31
0.0000000000000000
  0
ARC
  5
326
100
AcDbEntity
  8
MAIN0
  6
CONTINUOUS
 62
3
100
AcDbCircle
 10
440.3760516159397
 20
499.9999999988575
 30
0.0000000000000000
 40
93.33333333333333
100
AcDbArc
 50
355.9039562418118
 51
364.0960437581884
  0
LINE
  5
327
100
AcDbEntity
  8
MAIN0
  6
CONTINUOUS
 62
3
100
AcDbLine
 10
546.8043185755275
 20
520.0000000000679
 30
0.0000000000000000
 11
533.4709852410618
 21
506.6666666655828
 31
0.0000000000000000
  0
ARC
  5
328
100
AcDbEntity
  8
MAIN0
  6
CONTINUOUS
 62
3
100
AcDbCircle
 10
440.3760516159397
 20
499.9999999988575
 30
0.0000000000000000
 40
113.3333333333333
100
AcDbArc
 50
349.8357513788209
 51
370.1642486223422
  0
ARC
  5
329
100
AcDbEntity
  8
MAIN0
  6
CONTINUOUS
 62
3
100
AcDbCircle
 10
440.3760516159397
 20
499.9999999988575
 30
0.0000000000000000
 40
137.3333333333333
100
AcDbArc
 50
351.6261753634569
 51
368.3738246374981
  0
ARC
  5
32A
100
AcDbEntity
  8
MAIN0
  6
CONTINUOUS
 62
3
100
AcDbCircle
 10
440.3760516159397
 20
499.9999999988575
 30
0.0000000000000000
 40
141.3333333333333
100
AcDbArc
 50
351.8647998973460
 51
368.1352001035813
  0
ARC
  5
32B
100
AcDbEntity
  8
MAIN0
  6
CONTINUOUS
 62
3
100
AcDbCircle
 10
440.3760516159397
 20
499.9999999988575
 30
0.0000000000000000
 40
154.6666666666667
100
AcDbArc
 50
352.5702583895960
 51
367.4297416112500
  0
ARC
  5
32C
100
AcDbEntity
  8
MAIN0
  6
CONTINUOUS
 62
3
100
AcDbCircle
 10
440.3760516159397
 20
499.9999999988575
 30
0.0000000000000000
 40
174.6666666666667
100
AcDbArc
 50
353.4249932024975
 51
366.5750067982502
  0
ARC
  5
32D
100
AcDbEntity
  8
MAIN0
  6
CONTINUOUS
 62
3
100
AcDbCircle
 10
440.3760516159397
 20
499.9999999988575
 30
0.0000000000000000
 40
178.6666666666667
100
AcDbArc
 50
353.5728226095135
 51
366.4271773912172
  0
LINE
  5
32E
100
AcDbEntity
  8
MAIN0
  6
CONTINUOUS
 62
3
100
AcDbLine
 10
653.4709852411467
 20
493.3333333337020
 30
0.0000000000000000
 11
640.1376519074983
 21
480.0000000000176
 31
0.0000000000000000
  0
ARC
  5
32F
100
AcDbEntity
  8
MAIN0
  6
CONTINUOUS
 62
3
100
AcDbCircle
 10
746.5659188662471
 20
500.0000000007288
 30
0.0000000000000000
 40
93.33333333333333
100
AcDbArc
 50
175.9039562416258
 51
184.0960437583739
  0
LINE
  5
330
100
AcDbEntity
  8
MAIN0
  6
CONTINUOUS
 62
3
100
AcDbLine
 10
653.4709852411464
 20
506.6666666677562
 30
0.0000000000000000
 11
640.1376519090052
 21
519.9999999999612
 31
0.0000000000000000
  0
LINE
  5
331
100
AcDbEntity
  8
MAIN0
  6
CONTINUOUS
 62
3
100
AcDbLine
 10
546.8043185755275
 20
520.0000000000680
 30
0.0000000000000000
 11
640.1376519090053
 21
519.9999999999612
 31
0.0000000000000000
  0
LINE
  5
332
100
AcDbEntity
  8
MAIN0
  6
CONTINUOUS
 62
3
100
AcDbLine
 10
546.8043185732907
 20
479.9999999999116
 30
0.0000000000000000
 11
640.1376519074986
 21
480.0000000000179
 31
0.0000000000000000
  0
LINE
  5
333
100
AcDbEntity
  8
MAIN0
  6
CONTINUOUS
 62
3
100
AcDbLine
 10
693.3333333322441
 20
453.4504658467457
 30
0.0000000000000000
 11
680.0000000000390
 21
440.1171325146042
 31
0.0000000000000000
  0
LINE
  5
334
100
AcDbEntity
  8
MAIN0
  6
CONTINUOUS
 62
3
100
AcDbLine
 10
679.9999999999321
 20
346.7837991811267
 30
0.0000000000000000
 11
693.3333333344172
 21
333.4504658466610
 31
0.0000000000000000
  0
LINE
  5
335
100
AcDbEntity
  8
MAIN0
  6
CONTINUOUS
 62
3
100
AcDbLine
 10
679.9999999999321
 20
346.7837991811266
 30
0.0000000000000000
 11
680.0000000000390
 21
440.1171325146040
 31
0.0000000000000000
  0
LINE
  5
336
100
AcDbEntity
  8
MAIN0
  6
CONTINUOUS
 62
3
100
AcDbLine
 10
679.9999999999330
 20
653.2024994195688
 30
0.0000000000000000
 11
680.0000000000393
 21
559.8691660853611
 31
0.0000000000000000
  0
LINE
  5
337
100
AcDbEntity
  8
MAIN0
  6
CONTINUOUS
 62
3
100
AcDbLine
 10
679.9999999999328
 20
653.2024994195685
 30
0.0000000000000000
 11
693.3333333321541
 21
666.5358327517977
 31
0.0000000000000000
  0
LINE
  5
338
100
AcDbEntity
  8
MAIN0
  6
CONTINUOUS
 62
3
100
AcDbLine
 10
693.3333333337237
 20
546.5358327517129
 30
0.0000000000000000
 11
680.0000000000392
 21
559.8691660853611
 31
0.0000000000000000
  0
POINT
  5
339
100
AcDbEntity
  8
MAIN0
  6
CONTINUOUS
 62
3
100
AcDbPoint
 10
700.0000000000000
 20
500.0000000000000
 30
0.0000000000000000
  0
LINE
  5
33A
100
AcDbEntity
  8
MAIN0
  6
HIDDEN
 62
3
100
AcDbLine
 10
314.6666666665353
 20
399.1000000000000
 30
0.0000000000000000
 11
329.0666666665353
 21
399.1000000000000
 31
0.0000000000000000
  0
LINE
  5
33B
100
AcDbEntity
  8
MAIN0
  6
HIDDEN
 62
3
100
AcDbLine
 10
329.0666666665353
 20
399.0999999999999
 30
0.0000000000000000
 11
330.6666666665353
 21
401.8712812921101
 31
0.0000000000000000
  0
LINE
  5
33C
100
AcDbEntity
  8
MAIN0
  6
HIDDEN
 62
3
100
AcDbLine
 10
330.6666666665353
 20
401.8712812921102
 30
0.0000000000000000
 11
330.6666666665353
 21
420.3287187078898
 31
0.0000000000000000
  0
LINE
  5
33D
100
AcDbEntity
  8
MAIN0
  6
HIDDEN
 62
3
100
AcDbLine
 10
330.6666666665352
 20
420.3287187078897
 30
0.0000000000000000
 11
329.0666666665352
 21
423.0999999999999
 31
0.0000000000000000
  0
LINE
  5
33E
100
AcDbEntity
  8
MAIN0
  6
HIDDEN
 62
3
100
AcDbLine
 10
329.0666666665353
 20
423.1000000000000
 30
0.0000000000000000
 11
314.6666666665353
 21
423.1000000000000
 31
0.0000000000000000
  0
LINE
  5
33F
100
AcDbEntity
  8
MAIN0
  6
HIDDEN
 62
3
100
AcDbLine
 10
329.0666666665353
 20
399.1000000000000
 30
0.0000000000000000
 11
329.0666666665353
 21
423.1000000000000
 31
0.0000000000000000
  0
LINE
  5
340
100
AcDbEntity
  8
MAIN0
  6
HIDDEN
 62
3
100
AcDbLine
 10
207.9999999998686
 20
403.1000000000000
 30
0.0000000000000000
 11
207.9999999998686
 21
419.1000000000000
 31
0.0000000000000000
  0
LINE
  5
341
100
AcDbEntity
  8
MAIN0
  6
HIDDEN
 62
3
100
AcDbLine
 10
255.9999999998686
 20
404.3629540000000
 30
0.0000000000000000
 11
207.9999999998686
 21
404.3629540000000
 31
0.0000000000000000
  0
LINE
  5
342
100
AcDbEntity
  8
MAIN0
  6
HIDDEN
 62
3
100
AcDbLine
 10
255.9999999998686
 20
417.8370460000000
 30
0.0000000000000000
 11
207.9999999998686
 21
417.8370460000000
 31
0.0000000000000000
  0
LINE
  5
343
100
AcDbEntity
  8
MAIN0
  6
HIDDEN
 62
3
100
AcDbLine
 10
255.9999999998686
 20
403.1000000000000
 30
0.0000000000000000
 11
255.9999999998686
 21
419.1000000000000
 31
0.0000000000000000
  0
LINE
  5
344
100
AcDbEntity
  8
MAIN0
  6
HIDDEN
 62
3
100
AcDbLine
 10
207.9999999998686
 20
419.1000000000000
 30
0.0000000000000000
 11
276.4666668574016
 21
419.1000000000000
 31
0.0000000000000000
  0
LINE
  5
345
100
AcDbEntity
  8
MAIN0
  6
HIDDEN
 62
3
100
AcDbLine
 10
288.6666666666667
 20
419.1000000000000
 30
0.0000000000000000
 11
314.6666666665353
 21
419.1000000000000
 31
0.0000000000000000
  0
LINE
  5
346
100
AcDbEntity
  8
MAIN0
  6
HIDDEN
 62
3
100
AcDbLine
 10
207.9999999998686
 20
403.1000000000000
 30
0.0000000000000000
 11
276.4666668574016
 21
403.1000000000000
 31
0.0000000000000000
  0
LINE
  5
347
100
AcDbEntity
  8
MAIN0
  6
HIDDEN
 62
3
100
AcDbLine
 10
288.6666666666667
 20
403.1000000000000
 30
0.0000000000000000
 11
314.6666666665353
 21
403.1000000000000
 31
0.0000000000000000
  0
MTEXT
  5
348
100
AcDbEntity
  8
MAIN0
  6
CONTINUOUS
 62
3
100
AcDbMText
 10
337.3333333333353
 20
122.8666664759056
 30
0.0000000000000000
 40
6.199999809265137
 41
0.0000000000000000
 71
     1
 72
     1
  1
{\H0.94x;{許容最高回転速度　}}
 11
1.000000000000000
 21
0.0000000000000000
 31
0.0000000000000000
  7
KNJYOKO
  0
LINE
  5
349
100
AcDbEntity
  8
MAIN0
  6
CONTINUOUS
 62
3
100
AcDbLine
 10
720.0000000000000
 20
334.5376847201219
 30
0.0000000000000000
 11
720.0000000000000
 21
469.2681851423569
 31
0.0000000000000000
  0
LINE
  5
34A
100
AcDbEntity
  8
MAIN0
  6
CONTINUOUS
 62
3
100
AcDbLine
 10
720.0000000000000
 20
530.7318148576433
 30
0.0000000000000000
 11
720.0000000000000
 21
665.4623152798781
 31
0.0000000000000000
  0
LINE
  5
34B
100
AcDbEntity
  8
MAIN0
  6
CONTINUOUS
 62
3
100
AcDbLine
 10
865.4623152798781
 20
519.9999999999998
 30
0.0000000000000000
 11
730.7318148576433
 21
519.9999999999999
 31
0.0000000000000000
  0
LINE
  5
34C
100
AcDbEntity
  8
MAIN0
  6
CONTINUOUS
 62
3
100
AcDbLine
 10
730.7318148576433
 20
480.0000000000000
 30
0.0000000000000000
 11
865.4623152798781
 21
480.0000000000002
 31
0.0000000000000000
  0
ARC
  5
34D
100
AcDbEntity
  8
MAIN0
  6
CONTINUOUS
 62
3
100
AcDbCircle
 10
700.0000000000000
 20
500.0000000000000
 30
0.0000000000000000
 40
113.3333333333333
100
AcDbArc
 50
10.16424862172339
 51
79.83575137827653
  0
ARC
  5
34E
100
AcDbEntity
  8
MAIN0
  6
CONTINUOUS
 62
3
100
AcDbCircle
 10
700.0000000000000
 20
500.0000000000000
 30
0.0000000000000000
 40
140.0000000000000
100
AcDbArc
 50
8.213210701738113
 51
81.78678929826182
  0
ARC
  5
34F
100
AcDbEntity
  8
MAIN0
  6
CONTINUOUS
 62
3
100
AcDbCircle
 10
700.0000000000000
 20
500.0000000000000
 30
0.0000000000000000
 40
140.0000000000000
100
AcDbArc
 50
278.2132107017382
 51
351.7867892982619
  0
ARC
  5
350
100
AcDbEntity
  8
MAIN0
  6
CONTINUOUS
 62
3
100
AcDbCircle
 10
700.0000000000000
 20
500.0000000000000
 30
0.0000000000000000
 40
60.00000000000000
100
AcDbArc
 50
289.4712206344907
 51
340.5287793655094
  0
ARC
  5
351
100
AcDbEntity
  8
MAIN0
  6
CONTINUOUS
 62
3
100
AcDbCircle
 10
700.0000000000000
 20
500.0000000000000
 30
0.0000000000000000
 40
60.00000000000000
100
AcDbArc
 50
19.47122063449059
 51
70.52877936550931
  0
ARC
  5
352
100
AcDbEntity
  8
MAIN0
  6
CONTINUOUS
 62
3
100
AcDbCircle
 10
700.0000000000000
 20
500.0000000000000
 30
0.0000000000000000
 40
113.3333333333333
100
AcDbArc
 50
280.1642486217235
 51
349.8357513782766
  0
ARC
  5
353
100
AcDbEntity
  8
MAIN0
  6
CONTINUOUS
 62
3
100
AcDbCircle
 10
700.0000000000000
 20
500.0000000000000
 30
0.0000000000000000
 40
86.66666666666666
100
AcDbArc
 50
308.5883882397479
 51
346.6576362029118
  0
ARC
  5
354
100
AcDbEntity
  8
MAIN0
  6
CONTINUOUS
 62
3
100
AcDbCircle
 10
700.0000000000000
 20
500.0000000000000
 30
0.0000000000000000
 40
86.66666666666666
100
AcDbArc
 50
283.3423637970882
 51
291.4116117602520
  0
ARC
  5
355
100
AcDbEntity
  8
MAIN0
  6
CONTINUOUS
 62
3
100
AcDbCircle
 10
700.0000000000000
 20
500.0000000000000
 30
0.0000000000000000
 40
86.66666666666666
100
AcDbArc
 50
38.58838823974785
 51
76.65763620291179
  0
ARC
  5
356
100
AcDbEntity
  8
MAIN0
  6
CONTINUOUS
 62
3
100
AcDbCircle
 10
700.0000000000000
 20
500.0000000000000
 30
0.0000000000000000
 40
86.66666666666666
100
AcDbArc
 50
13.34236379708811
 51
21.41161176025172
  0
LINE
  5
357
100
AcDbEntity
  8
MAIN0
  6
CONTINUOUS
 62
3
100
AcDbLine
 10
866.2341053387595
 20
511.9999999999997
 30
0.0000000000000000
 11
861.1956814245290
 21
511.9999999999997
 31
0.0000000000000000
  0
LINE
  5
358
100
AcDbEntity
  8
MAIN0
  6
CONTINUOUS
 62
3
100
AcDbLine
 10
751.8623480910718
 20
511.9999999999999
 30
0.0000000000000000
 11
734.6474305604970
 21
511.9999999999999
 31
0.0000000000000000
  0
LINE
  5
359
100
AcDbEntity
  8
MAIN0
  6
CONTINUOUS
 62
3
100
AcDbLine
 10
861.1956814268028
 20
488.0000000000002
 30
0.0000000000000000
 11
866.2341053387595
 21
488.0000000000002
 31
0.0000000000000000
  0
LINE
  5
35A
100
AcDbEntity
  8
MAIN0
  6
CONTINUOUS
 62
3
100
AcDbLine
 10
734.6474305604970
 20
488.0000000000000
 30
0.0000000000000000
 11
751.8623480925410
 21
488.0000000000001
 31
0.0000000000000000
  0
LINE
  5
35B
100
AcDbEntity
  8
MAIN0
  6
CONTINUOUS
 62
3
100
AcDbLine
 10
712.0000000000000
 20
534.6474305604970
 30
0.0000000000000000
 11
712.0000000000000
 21
551.8691660854221
 31
0.0000000000000000
  0
LINE
  5
35C
100
AcDbEntity
  8
MAIN0
  6
CONTINUOUS
 62
3
100
AcDbLine
 10
712.0000000000000
 20
661.2024994196405
 30
0.0000000000000000
 11
712.0000000000000
 21
666.2341053387594
 31
0.0000000000000000
  0
LINE
  5
35D
100
AcDbEntity
  8
MAIN0
  6
CONTINUOUS
 62
3
100
AcDbLine
 10
712.0000000000000
 20
333.7658946612405
 30
0.0000000000000000
 11
712.0000000000000
 21
338.7837991810704
 31
0.0000000000000000
  0
LINE
  5
35E
100
AcDbEntity
  8
MAIN0
  6
CONTINUOUS
 62
3
100
AcDbLine
 10
712.0000000000000
 20
448.1171325145270
 30
0.0000000000000000
 11
712.0000000000000
 21
465.3525694395030
 31
0.0000000000000000
  0
CIRCLE
  5
35F
100
AcDbEntity
  8
MAIN0
  6
CONTINUOUS
 62
3
100
AcDbCircle
 10
700.0000000000000
 20
500.0000000000000
 30
0.0000000000000000
 40
36.66666666666666
  0
LINE
  5
360
100
AcDbEntity
  8
MAIN0
  6
CONTINUOUS
 62
3
100
AcDbLine
 10
853.1956814267093
 20
479.9999999999113
 30
0.0000000000000000
 11
866.5290147589383
 21
493.3333333321325
 31
0.0000000000000000
  0
ARC
  5
361
100
AcDbEntity
  8
MAIN0
  6
CONTINUOUS
 62
3
100
AcDbCircle
 10
959.6239483840603
 20
499.9999999988575
 30
0.0000000000000000
 40
93.33333333333333
100
AcDbArc
 50
175.9039562418116
 51
184.0960437581882
  0
LINE
  5
362
100
AcDbEntity
  8
MAIN0
  6
CONTINUOUS
 62
3
100
AcDbLine
 10
853.1956814244725
 20
520.0000000000679
 30
0.0000000000000000
 11
866.5290147589382
 21
506.6666666655828
 31
0.0000000000000000
  0
ARC
  5
363
100
AcDbEntity
  8
MAIN0
  6
CONTINUOUS
 62
3
100
AcDbCircle
 10
959.6239483840603
 20
499.9999999988575
 30
0.0000000000000000
 40
113.3333333333333
100
AcDbArc
 50
169.8357513776578
 51
190.1642486211791
  0
ARC
  5
364
100
AcDbEntity
  8
MAIN0
  6
CONTINUOUS
 62
3
100
AcDbCircle
 10
959.6239483840603
 20
499.9999999988575
 30
0.0000000000000000
 40
137.3333333333333
100
AcDbArc
 50
171.6261753625019
 51
188.3738246365431
  0
ARC
  5
365
100
AcDbEntity
  8
MAIN0
  6
CONTINUOUS
 62
3
100
AcDbCircle
 10
959.6239483840603
 20
499.9999999988575
 30
0.0000000000000000
 40
141.3333333333333
100
AcDbArc
 50
171.8647998964187
 51
188.1352001026540
  0
ARC
  5
366
100
AcDbEntity
  8
MAIN0
  6
CONTINUOUS
 62
3
100
AcDbCircle
 10
959.6239483840603
 20
499.9999999988575
 30
0.0000000000000000
 40
154.6666666666667
100
AcDbArc
 50
172.5702583887501
 51
187.4297416104041
  0
ARC
  5
367
100
AcDbEntity
  8
MAIN0
  6
CONTINUOUS
 62
3
100
AcDbCircle
 10
959.6239483840603
 20
499.9999999988575
 30
0.0000000000000000
 40
174.6666666666667
100
AcDbArc
 50
173.4249932017498
 51
186.5750067975025
  0
ARC
  5
368
100
AcDbEntity
  8
MAIN0
  6
CONTINUOUS
 62
3
100
AcDbCircle
 10
959.6239483840603
 20
499.9999999988575
 30
0.0000000000000000
 40
178.6666666666667
100
AcDbArc
 50
173.5728226087828
 51
186.4271773904865
  0
LINE
  5
369
100
AcDbEntity
  8
MAIN0
  6
CONTINUOUS
 62
3
100
AcDbLine
 10
746.5290147588534
 20
493.3333333337020
 30
0.0000000000000000
 11
759.8623480925018
 21
480.0000000000176
 31
0.0000000000000000
  0
ARC
  5
36A
100
AcDbEntity
  8
MAIN0
  6
CONTINUOUS
 62
3
100
AcDbCircle
 10
653.4340811337529
 20
500.0000000007288
 30
0.0000000000000000
 40
93.33333333333333
100
AcDbArc
 50
355.9039562416261
 51
364.0960437583742
  0
LINE
  5
36B
100
AcDbEntity
  8
MAIN0
  6
CONTINUOUS
 62
3
100
AcDbLine
 10
746.5290147588536
 20
506.6666666677562
 30
0.0000000000000000
 11
759.8623480909948
 21
519.9999999999612
 31
0.0000000000000000
  0
LINE
  5
36C
100
AcDbEntity
  8
MAIN0
  6
CONTINUOUS
 62
3
100
AcDbLine
 10
853.1956814244725
 20
520.0000000000680
 30
0.0000000000000000
 11
759.8623480909947
 21
519.9999999999612
 31
0.0000000000000000
  0
LINE
  5
36D
100
AcDbEntity
  8
MAIN0
  6
CONTINUOUS
 62
3
100
AcDbLine
 10
853.1956814267093
 20
479.9999999999116
 30
0.0000000000000000
 11
759.8623480925014
 21
480.0000000000179
 31
0.0000000000000000
  0
LINE
  5
36E
100
AcDbEntity
  8
MAIN0
  6
CONTINUOUS
 62
3
100
AcDbLine
 10
706.6666666677559
 20
453.4504658467457
 30
0.0000000000000000
 11
719.9999999999610
 21
440.1171325146042
 31
0.0000000000000000
  0
LINE
  5
36F
100
AcDbEntity
  8
MAIN0
  6
CONTINUOUS
 62
3
100
AcDbLine
 10
720.0000000000679
 20
346.7837991811267
 30
0.0000000000000000
 11
706.6666666655827
 21
333.4504658466610
 31
0.0000000000000000
  0
LINE
  5
370
100
AcDbEntity
  8
MAIN0
  6
CONTINUOUS
 62
3
100
AcDbLine
 10
720.0000000000678
 20
346.7837991811266
 30
0.0000000000000000
 11
719.9999999999610
 21
440.1171325146040
 31
0.0000000000000000
  0
LINE
  5
371
100
AcDbEntity
  8
MAIN0
  6
CONTINUOUS
 62
3
100
AcDbLine
 10
720.0000000000670
 20
653.2024994195688
 30
0.0000000000000000
 11
719.9999999999607
 21
559.8691660853611
 31
0.0000000000000000
  0
LINE
  5
372
100
AcDbEntity
  8
MAIN0
  6
CONTINUOUS
 62
3
100
AcDbLine
 10
720.0000000000672
 20
653.2024994195685
 30
0.0000000000000000
 11
706.6666666678459
 21
666.5358327517977
 31
0.0000000000000000
  0
LINE
  5
373
100
AcDbEntity
  8
MAIN0
  6
CONTINUOUS
 62
3
100
AcDbLine
 10
706.6666666662763
 20
546.5358327517129
 30
0.0000000000000000
 11
719.9999999999608
 21
559.8691660853611
 31
0.0000000000000000
  0
POINT
  5
374
100
AcDbEntity
  8
MAIN0
  6
CONTINUOUS
 62
3
100
AcDbPoint
 10
700.0000000000000
 20
500.0000000000000
 30
0.0000000000000000
  0
ARC
  5
375
100
AcDbEntity
  8
MAIN0
  6
CONTINUOUS
 62
3
100
AcDbCircle
 10
700.0000000011211
 20
759.6307663769198
 30
0.0000000000000000
 40
93.33333333333333
100
AcDbArc
 50
265.9039562418119
 51
274.0960437581881
  0
ARC
  5
376
100
AcDbEntity
  8
MAIN0
  6
CONTINUOUS
 62
3
100
AcDbCircle
 10
700.0000000011211
 20
759.6307663769198
 30
0.0000000000000000
 40
113.3333333333333
100
AcDbArc
 50
259.8357513788209
 51
280.1642486211791
  0
ARC
  5
377
100
AcDbEntity
  8
MAIN0
  6
CONTINUOUS
 62
3
100
AcDbCircle
 10
700.0000000011211
 20
759.6307663769198
 30
0.0000000000000000
 40
137.3333333333333
100
AcDbArc
 50
261.6261753634569
 51
278.3738246365431
  0
ARC
  5
378
100
AcDbEntity
  8
MAIN0
  6
CONTINUOUS
 62
3
100
AcDbCircle
 10
700.0000000011211
 20
759.6307663769198
 30
0.0000000000000000
 40
141.3333333333333
100
AcDbArc
 50
261.8647998973461
 51
278.1352001026540
  0
ARC
  5
379
100
AcDbEntity
  8
MAIN0
  6
CONTINUOUS
 62
3
100
AcDbCircle
 10
700.0000000011211
 20
759.6307663769198
 30
0.0000000000000000
 40
154.6666666666667
100
AcDbArc
 50
262.5702583895960
 51
277.4297416104041
  0
ARC
  5
37A
100
AcDbEntity
  8
MAIN0
  6
CONTINUOUS
 62
3
100
AcDbCircle
 10
700.0000000011211
 20
759.6307663769198
 30
0.0000000000000000
 40
174.6666666666667
100
AcDbArc
 50
263.4249932024975
 51
276.5750067975025
  0
ARC
  5
37B
100
AcDbEntity
  8
MAIN0
  6
CONTINUOUS
 62
3
100
AcDbCircle
 10
700.0000000011211
 20
759.6307663769198
 30
0.0000000000000000
 40
178.6666666666667
100
AcDbArc
 50
263.5728226095134
 51
276.4271773904865
  0
ARC
  5
37C
100
AcDbEntity
  8
MAIN0
  6
CONTINUOUS
 62
3
100
AcDbCircle
 10
699.9999999992497
 20
453.4408991266125
 30
0.0000000000000000
 40
93.33333333333333
100
AcDbArc
 50
85.90395624162611
 51
94.09604375837390
  0
ARC
  5
37D
100
AcDbEntity
  8
MAIN0
  6
CONTINUOUS
 62
3
100
AcDbCircle
 10
700.0000000007287
 20
546.5453994718459
 30
0.0000000000000000
 40
93.33333333333333
100
AcDbArc
 50
265.9039562416258
 51
274.0960437583742
  0
ARC
  5
37E
100
AcDbEntity
  8
MAIN0
  6
CONTINUOUS
 62
3
100
AcDbCircle
 10
699.9999999988573
 20
240.3555322215386
 30
0.0000000000000000
 40
178.6666666666667
100
AcDbArc
 50
83.57282260878274
 51
96.42717739121716
  0
ARC
  5
37F
100
AcDbEntity
  8
MAIN0
  6
CONTINUOUS
 62
3
100
AcDbCircle
 10
699.9999999988573
 20
240.3555322215386
 30
0.0000000000000000
 40
174.6666666666667
100
AcDbArc
 50
83.42499320174984
 51
96.57500679825017
  0
ARC
  5
380
100
AcDbEntity
  8
MAIN0
  6
CONTINUOUS
 62
3
100
AcDbCircle
 10
699.9999999988573
 20
240.3555322215386
 30
0.0000000000000000
 40
154.6666666666667
100
AcDbArc
 50
82.57025838875003
 51
97.42974161124997
  0
ARC
  5
381
100
AcDbEntity
  8
MAIN0
  6
CONTINUOUS
 62
3
100
AcDbCircle
 10
699.9999999988573
 20
240.3555322215386
 30
0.0000000000000000
 40
141.3333333333333
100
AcDbArc
 50
81.86479989641875
 51
98.13520010358127
  0
ARC
  5
382
100
AcDbEntity
  8
MAIN0
  6
CONTINUOUS
 62
3
100
AcDbCircle
 10
699.9999999988573
 20
240.3555322215386
 30
0.0000000000000000
 40
137.3333333333333
100
AcDbArc
 50
81.62617536250195
 51
98.37382463749806
  0
ARC
  5
383
100
AcDbEntity
  8
MAIN0
  6
CONTINUOUS
 62
3
100
AcDbCircle
 10
699.9999999988573
 20
240.3555322215386
 30
0.0000000000000000
 40
113.3333333333333
100
AcDbArc
 50
79.83575137765777
 51
100.1642486223422
  0
ARC
  5
384
100
AcDbEntity
  8
MAIN0
  6
CONTINUOUS
 62
3
100
AcDbCircle
 10
699.9999999988573
 20
240.3555322215386
 30
0.0000000000000000
 40
93.33333333333333
100
AcDbArc
 50
85.90395624181150
 51
94.09604375818852
  0
LINE
  5
385
100
AcDbEntity
  8
MAIN0
  6
CONTINUOUS
 62
3
100
AcDbLine
 10
232.0000000008849
 20
610.6666666666647
 30
0.0000000000000000
 11
232.0000000007312
 21
575.9999999999980
 31
0.0000000000000000
  0
LINE
  5
386
100
AcDbEntity
  8
MAIN0
  6
CONTINUOUS
 62
3
100
AcDbLine
 10
232.0000000008851
 20
610.6666666666647
 30
0.0000000000000000
 11
254.3088987546470
 21
610.6666666666647
 31
0.0000000000000000
  0
LINE
  5
387
100
AcDbEntity
  8
MAIN0
  6
CONTINUOUS
 62
3
100
AcDbLine
 10
263.7166229691586
 20
575.9999999999980
 30
0.0000000000000000
 11
232.0000000007312
 21
575.9999999999980
 31
0.0000000000000000
  0
INSERT
  5
39A
100
AcDbEntity
  8
MAIN0
  6
CONTINUOUS
 62
3
100
AcDbBlockReference
  2
M2
 10
0.0000000000000000
 20
0.0000000000000000
 30
0.0000000000000000
 50
0.0000000000000000
  0
MTEXT
  5
39B
100
AcDbEntity
  8
MAIN0
  6
CONTINUOUS
 62
3
100
AcDbMText
 10
586.6666666666666
 20
166.1999998092646
 30
0.0000000000000000
 40
6.199999809265137
 41
0.0000000000000000
 71
     1
 72
     1
  1
{\H0.94x;{チャック取付ボルトは、ミリネジを付属していますので}}
 11
1.000000000000000
 21
0.0000000000000000
 31
0.0000000000000000
  7
KNJYOKO
  0
MTEXT
  5
39C
100
AcDbEntity
  8
MAIN0
  6
CONTINUOUS
 62
3
100
AcDbMText
 10
586.6666666666666
 20
156.1999998092647
 30
0.0000000000000000
 40
6.199999809265137
 41
0.0000000000000000
 71
     1
 72
     1
  1
{\H0.94x;{旋盤に合わせて使用して下さい。}}
 11
1.000000000000000
 21
0.0000000000000000
 31
0.0000000000000000
  7
KNJYOKO
  0
INSERT
  5
3AE
100
AcDbEntity
  8
MAIN0
  6
CONTINUOUS
 62
3
100
AcDbBlockReference
  2
M3
 10
0.0000000000000000
 20
0.0000000000000000
 30
0.0000000000000000
 50
0.0000000000000000
  0
LINE
  5
3AF
100
AcDbEntity
  8
MAIN0
  6
CONTINUOUS
 62
3
100
AcDbLine
 10
617.3333333330660
 20
133.3333333333334
 30
0.0000000000000000
 11
617.3333333330660
 21
115.3333333333334
 31
0.0000000000000000
  0
MTEXT
  5
3B0
100
AcDbEntity
  8
MAIN0
  6
CONTINUOUS
 62
3
100
AcDbMText
 10
330.2227670909006
 20
66.06784003869416
 30
0.0000000000000000
 40
6.199999809265137
 41
0.0000000000000000
 71
     1
 72
     1
  1
{\H0.91x;{ABOVE SPECS: AT MAX. HANDLE TORQUE． }}
 11
1.000000000000000
 21
0.0000000000000000
 31
0.0000000000000000
  7
KNJYOKO
  0
MTEXT
  5
3B1
100
AcDbEntity
  8
MAIN0
  6
CONTINUOUS
 62
3
100
AcDbMText
 10
586.6666666666666
 20
99.33333333333275
 30
0.0000000000000000
 40
6.000000000000000
 41
0.0000000000000000
 71
     1
 72
     1
  1
{\H0.63x;{SINCE THE CHUCK MOUNTING BOLTS ATTACHED ARE METRIC SCREWS}}
 11
1.000000000000000
 21
0.0000000000000000
 31
0.0000000000000000
  7
STANDARD
  0
MTEXT
  5
3B2
100
AcDbEntity
  8
MAIN0
  6
CONTINUOUS
 62
3
100
AcDbMText
 10
586.6666666666666
 20
89.33333333333292
 30
0.0000000000000000
 40
6.000000000000000
 41
0.0000000000000000
 71
     1
 72
     1
  1
{\H0.62x;{THEY SHOULD BE USED ACCORDING TO LATHE.}}
 11
1.000000000000000
 21
0.0000000000000000
 31
0.0000000000000000
  7
STANDARD
  0
POINT
  5
3B3
100
AcDbEntity
  8
MAIN0
  6
CONTINUOUS
 62
3
100
AcDbPoint
 10
431.3333333333353
 20
86.99999999992969
 30
0.0000000000000000
  0
MTEXT
  5
3B4
100
AcDbEntity
  8
MAIN0
  6
CONTINUOUS
 62
3
100
AcDbMText
 10
337.1759485617538
 20
96.08261824775389
 30
0.0000000000000000
 40
4.000000000000000
 41
0.0000000000000000
 71
     1
 72
     1
  1
{\H0.94x;{MOMENT OF INERTIA}}
 11
1.000000000000000
 21
0.0000000000000000
 31
0.0000000000000000
  7
STANDARD
  0
MTEXT
  5
3B5
100
AcDbEntity
  8
MAIN0
  6
CONTINUOUS
 62
3
100
AcDbMText
 10
586.6666666666666
 20
176.1999998092646
 30
0.0000000000000000
 40
6.199999809265137
 41
0.0000000000000000
 71
     1
 72
     1
  1
{\H0.94x;{バランスは本体外周にて５ｇ以内を目標とする}}
 11
1.000000000000000
 21
0.0000000000000000
 31
0.0000000000000000
  7
KNJYOKO
  0
MTEXT
  5
3B6
100
AcDbEntity
  8
MAIN0
  6
CONTINUOUS
 62
3
100
AcDbMText
 10
586.6666666666666
 20
109.3333333333328
 30
0.0000000000000000
 40
6.000000000000000
 41
0.0000000000000000
 71
     1
 72
     1
  1
{\H0.62x;{BALANCE SHOULD BE WITHIN 5g AT THE PERIPHERY OF THE BODY.}}
 11
1.000000000000000
 21
0.0000000000000000
 31
0.0000000000000000
  7
STANDARD
  0
MTEXT
  5
3B7
100
AcDbEntity
  8
MAIN0
  6
CONTINUOUS
 62
3
100
AcDbMText
 10
457.3333333333353
 20
124.9333318073843
 30
0.0000000000000000
 40
5.599998474121094
 41
0.0000000000000000
 71
     1
 72
     1
  1
{\H0.57x;{　ｍｉｎ}}
 11
1.000000000000000
 21
0.0000000000000000
 31
0.0000000000000000
  7
KNJYOKO
  0
MTEXT
  5
3B8
100
AcDbEntity
  8
MAIN0
  6
CONTINUOUS
 62
3
100
AcDbMText
 10
477.6426698299752
 20
126.2724209131737
 30
0.0000000000000000
 40
4.000000000000000
 41
0.0000000000000000
 71
     1
 72
     1
  1
{\H0.88x;{-1}}
 11
1.000000000000000
 21
0.0000000000000000
 31
0.0000000000000000
  7
STANDARD
  0
POINT
  5
3B9
100
AcDbEntity
  8
MAIN0
  6
CONTINUOUS
 62
3
100
AcDbPoint
 10
334.2640977590650
 20
69.99999999992377
 30
0.0000000000000000
  0
MTEXT
  5
3BA
100
AcDbEntity
  8
MAIN0
  6
CONTINUOUS
 62
3
100
AcDbMText
 10
334.2640977590650
 20
76.20000076286323
 30
0.0000000000000000
 40
6.200000762939453
 41
0.0000000000000000
 71
     1
 72
     1
  1
{\H0.95x;{○上記仕様は許容最大ハンドルトルク時の場合}}
 11
1.000000000000000
 21
0.0000000000000000
 31
0.0000000000000000
  7
KNJYOKO
  0
LINE
  5
3BB
100
AcDbEntity
  8
MAIN0
  6
CONTINUOUS
 62
3
100
AcDbLine
 10
333.3333333333353
 20
179.9999999999960
 30
0.0000000000000000
 11
487.3333333333353
 21
180.0000000000417
 31
0.0000000000000000
  0
LINE
  5
3BC
100
AcDbEntity
  8
MAIN0
  6
CONTINUOUS
 62
3
100
AcDbLine
 10
333.3333333333356
 20
159.9999999999827
 30
0.0000000000000000
 11
487.3333333333354
 21
160.0000000000190
 31
0.0000000000000000
  0
LINE
  5
3BD
100
AcDbEntity
  8
MAIN0
  6
CONTINUOUS
 62
3
100
AcDbLine
 10
333.3333333333353
 20
133.3333333333103
 30
0.0000000000000000
 11
487.3333333333352
 21
133.3333333333427
 31
0.0000000000000000
  0
LINE
  5
3BE
100
AcDbEntity
  8
MAIN0
  6
CONTINUOUS
 62
3
100
AcDbLine
 10
333.3333333333353
 20
113.3333333333064
 30
0.0000000000000000
 11
487.3333333333354
 21
113.3333333333359
 31
0.0000000000000000
  0
LINE
  5
3BF
100
AcDbEntity
  8
MAIN0
  6
CONTINUOUS
 62
3
100
AcDbLine
 10
333.3333333333353
 20
99.99999999996908
 30
0.0000000000000000
 11
487.3333333333355
 21
99.99999999999591
 31
0.0000000000000000
  0
LINE
  5
3C0
100
AcDbEntity
  8
MAIN0
  6
CONTINUOUS
 62
3
100
AcDbLine
 10
333.3333333333355
 20
79.99999999992315
 30
0.0000000000000000
 11
487.3333333333355
 21
79.99999999992326
 31
0.0000000000000000
  0
LINE
  5
3C1
100
AcDbEntity
  8
MAIN0
  6
CONTINUOUS
 62
3
100
AcDbLine
 10
333.3333333333353
 20
79.99999999992315
 30
0.0000000000000000
 11
333.3333333333353
 21
200.0000000000000
 31
0.0000000000000000
  0
LINE
  5
3C2
100
AcDbEntity
  8
MAIN0
  6
CONTINUOUS
 62
3
100
AcDbLine
 10
427.3333333333353
 20
79.99999999992315
 30
0.0000000000000000
 11
427.3333333333353
 21
180.0000000000242
 31
0.0000000000000000
  0
LINE
  5
3C3
100
AcDbEntity
  8
MAIN0
  6
CONTINUOUS
 62
3
100
AcDbLine
 10
487.3333333333353
 20
79.99999999992332
 30
0.0000000000000000
 11
487.3333333333353
 21
200.0000000000485
 31
0.0000000000000000
  0
POINT
  5
3C4
100
AcDbEntity
  8
MAIN0
  6
CONTINUOUS
 62
3
100
AcDbPoint
 10
437.3333333333353
 20
161.9999999999301
 30
0.0000000000000000
  0
POINT
  5
3C5
100
AcDbEntity
  8
MAIN0
  6
CONTINUOUS
 62
3
100
AcDbPoint
 10
437.3333333333353
 20
139.9999999999297
 30
0.0000000000000000
  0
POINT
  5
3C6
100
AcDbEntity
  8
MAIN0
  6
CONTINUOUS
 62
3
100
AcDbPoint
 10
431.3333333333353
 20
170.9999999999301
 30
0.0000000000000000
  0
POINT
  5
3C7
100
AcDbEntity
  8
MAIN0
  6
CONTINUOUS
 62
3
100
AcDbPoint
 10
431.3333333333353
 20
148.9999999999297
 30
0.0000000000000000
  0
POINT
  5
3C8
100
AcDbEntity
  8
MAIN0
  6
CONTINUOUS
 62
3
100
AcDbPoint
 10
431.3333333333353
 20
121.3333333332632
 30
0.0000000000000000
  0
POINT
  5
3C9
100
AcDbEntity
  8
MAIN0
  6
CONTINUOUS
 62
3
100
AcDbPoint
 10
431.3333333333353
 20
103.9999999999297
 30
0.0000000000000000
  0
POINT
  5
3CA
100
AcDbEntity
  8
MAIN0
  6
CONTINUOUS
 62
3
100
AcDbPoint
 10
431.3333333333353
 20
90.99999999992969
 30
0.0000000000000000
  0
POINT
  5
3CB
100
AcDbEntity
  8
MAIN0
  6
CONTINUOUS
 62
3
100
AcDbPoint
 10
437.3333333333353
 20
81.99999999992969
 30
0.0000000000000000
  0
MTEXT
  5
3CC
100
AcDbEntity
  8
MAIN0
  6
CONTINUOUS
 62
3
100
AcDbMText
 10
337.3333333333353
 20
168.2000007629232
 30
0.0000000000000000
 40
6.200000762939453
 41
0.0000000000000000
 71
     1
 72
     1
  1
{\H0.94x;{許容最大ハンドルトルク}}
 11
1.000000000000000
 21
0.0000000000000000
 31
0.0000000000000000
  7
KNJYOKO
  0
MTEXT
  5
3CD
100
AcDbEntity
  8
MAIN0
  6
CONTINUOUS
 62
3
100
AcDbMText
 10
337.3333333333353
 20
148.2000007629173
 30
0.0000000000000000
 40
6.200000762939453
 41
0.0000000000000000
 71
     1
 72
     1
  1
{\H0.94x;{最大静的把握力\P(ジョー1ヶの締付力)}}
 11
1.000000000000000
 21
0.0000000000000000
 31
0.0000000000000000
  7
KNJYOKO
  0
MTEXT
  5
3CE
100
AcDbEntity
  8
MAIN0
  6
CONTINUOUS
 62
3
100
AcDbMText
 10
337.3333333333353
 20
107.6000007629093
 30
0.0000000000000000
 40
6.200000762939453
 41
0.0000000000000000
 71
     1
 72
     1
  1
{\H0.90x;{質量}}
 11
1.000000000000000
 21
0.0000000000000000
 31
0.0000000000000000
  7
KNJYOKO
  0
MTEXT
  5
3CF
100
AcDbEntity
  8
MAIN0
  6
CONTINUOUS
 62
3
100
AcDbMText
 10
336.9071195012134
 20
89.34896320663893
 30
0.0000000000000000
 40
5.599999904632568
 41
0.0000000000000000
 71
     1
 72
     1
  1
{\H0.93x;{慣性モーメント}}
 11
1.000000000000000
 21
0.0000000000000000
 31
0.0000000000000000
  7
KNJYOKO
  0
POINT
  5
3D0
100
AcDbEntity
  8
MAIN0
  6
CONTINUOUS
 62
3
100
AcDbPoint
 10
382.2100879273638
 20
181.4345699760618
 30
0.0000000000000000
  0
MTEXT
  5
3D1
100
AcDbEntity
  8
MAIN0
  6
CONTINUOUS
 62
3
100
AcDbMText
 10
382.2100879273638
 20
192.0345703575315
 30
0.0000000000000000
 40
10.60000038146973
 41
0.0000000000000000
 71
     1
 72
     1
  1
{\H0.93x;{仕　　　様}}
 11
1.000000000000000
 21
0.0000000000000000
 31
0.0000000000000000
  7
KNJYOKO
  0
MTEXT
  5
3D2
100
AcDbEntity
  8
MAIN0
  6
CONTINUOUS
 62
3
100
AcDbMText
 10
457.3333333333353
 20
174.5999984740512
 30
0.0000000000000000
 40
5.599998474121094
 41
0.0000000000000000
 71
     1
 72
     1
  1
{\H0.58x;{　　　Ｎ・ｍ}}
 11
1.000000000000000
 21
0.0000000000000000
 31
0.0000000000000000
  7
KNJYOKO
  0
MTEXT
  5
3D3
100
AcDbEntity
  8
MAIN0
  6
CONTINUOUS
 62
3
100
AcDbMText
 10
431.3333333333353
 20
166.5999984740512
 30
0.0000000000000000
 40
5.599998474121094
 41
0.0000000000000000
 71
     1
 72
     1
  1
{\H0.48x;{（}}
 11
1.000000000000000
 21
0.0000000000000000
 31
0.0000000000000000
  7
KNJYOKO
  0
MTEXT
  5
3D4
100
AcDbEntity
  8
MAIN0
  6
CONTINUOUS
 62
3
100
AcDbMText
 10
455.3333333333353
 20
166.5999984740512
 30
0.0000000000000000
 40
5.599998474121094
 41
0.0000000000000000
 71
     1
 72
     1
  1
{\H0.58x;{　ｋｇｆ・ｍ）}}
 11
1.000000000000000
 21
0.0000000000000000
 31
0.0000000000000000
  7
KNJYOKO
  0
MTEXT
  5
3D5
100
AcDbEntity
  8
MAIN0
  6
CONTINUOUS
 62
3
100
AcDbMText
 10
457.3333333333353
 20
107.5999984740508
 30
0.0000000000000000
 40
5.599998474121094
 41
0.0000000000000000
 71
     1
 72
     1
  1
{\H0.58x;{　　　　ｋｇ}}
 11
1.000000000000000
 21
0.0000000000000000
 31
0.0000000000000000
  7
KNJYOKO
  0
MTEXT
  5
3D6
100
AcDbEntity
  8
MAIN0
  6
CONTINUOUS
 62
3
100
AcDbMText
 10
459.6654789153330
 20
87.14202302251323
 30
0.0000000000000000
 40
5.599998474121094
 41
0.0000000000000000
 71
     7
 72
     1
  1
{　kg・m}
 11
1.000000000000000
 21
0.0000000000000000
 31
0.0000000000000000
  7
KNJYOKO
  0
MTEXT
  5
3D7
100
AcDbEntity
  8
MAIN0
  6
CONTINUOUS
 62
3
100
AcDbMText
 10
479.2654783431284
 20
89.94202225957378
 30
0.0000000000000000
 40
2.799999237060547
 41
0.0000000000000000
 71
     7
 72
     1
  1
{2}
 11
1.000000000000000
 21
0.0000000000000000
 31
0.0000000000000000
  7
STANDARD
  0
MTEXT
  5
3D8
100
AcDbEntity
  8
MAIN0
  6
CONTINUOUS
 62
3
100
AcDbMText
 10
457.3333333333353
 20
152.5999984740508
 30
0.0000000000000000
 40
5.599998474121094
 41
0.0000000000000000
 71
     1
 72
     1
  1
{\H0.58x;{　　　　ｋＮ}}
 11
1.000000000000000
 21
0.0000000000000000
 31
0.0000000000000000
  7
KNJYOKO
  0
MTEXT
  5
3D9
100
AcDbEntity
  8
MAIN0
  6
CONTINUOUS
 62
3
100
AcDbMText
 10
431.3333333333353
 20
144.5999984740508
 30
0.0000000000000000
 40
5.599998474121094
 41
0.0000000000000000
 71
     1
 72
     1
  1
{\H0.48x;{（}}
 11
1.000000000000000
 21
0.0000000000000000
 31
0.0000000000000000
  7
KNJYOKO
  0
MTEXT
  5
3DA
100
AcDbEntity
  8
MAIN0
  6
CONTINUOUS
 62
3
100
AcDbMText
 10
455.3333333333353
 20
144.5999984740508
 30
0.0000000000000000
 40
5.599998474121094
 41
0.0000000000000000
 71
     1
 72
     1
  1
{\H0.58x;{　　　ｋｇｆ）}}
 11
1.000000000000000
 21
0.0000000000000000
 31
0.0000000000000000
  7
KNJYOKO
  0
LINE
  5
3DB
100
AcDbEntity
  8
MAIN0
  6
CONTINUOUS
 62
3
100
AcDbLine
 10
333.3333333333334
 20
200.0000000000000
 30
0.0000000000000000
 11
487.3333333333333
 21
200.0000000000485
 31
0.0000000000000000
  0
MTEXT
  5
3DC
100
AcDbEntity
  8
MAIN0
  6
CONTINUOUS
 62
3
100
AcDbMText
 10
374.0873209675456
 20
198.2157628410039
 30
0.0000000000000000
 40
6.199999809265137
 41
0.0000000000000000
 71
     1
 72
     1
  1
{\H0.93x;{SPECIFICATIONS}}
 11
1.000000000000000
 21
0.0000000000000000
 31
0.0000000000000000
  7
STANDARD
  0
MTEXT
  5
3DD
100
AcDbEntity
  8
MAIN0
  6
CONTINUOUS
 62
3
100
AcDbMText
 10
337.3333333333353
 20
177.9999999999837
 30
0.0000000000000000
 40
4.000000000000000
 41
0.0000000000000000
 71
     1
 72
     1
  1
{\H0.94x;{MAX.PERMISSIBLE\P      HANDLE TORQUE}}
 11
1.000000000000000
 21
0.0000000000000000
 31
0.0000000000000000
  7
STANDARD
  0
MTEXT
  5
3DE
100
AcDbEntity
  8
MAIN0
  6
CONTINUOUS
 62
3
100
AcDbMText
 10
337.3333333333353
 20
158.6666666666445
 30
0.0000000000000000
 40
4.000000000000000
 41
0.0000000000000000
 71
     1
 72
     1
  1
{\H0.94x;{MAX STATIC GRIPPING FORCE\P(GRIPPING FORCE PER JAW)}}
 11
1.000000000000000
 21
0.0000000000000000
 31
0.0000000000000000
  7
STANDARD
  0
MTEXT
  5
3DF
100
AcDbEntity
  8
MAIN0
  6
CONTINUOUS
 62
3
100
AcDbMText
 10
337.3333333333353
 20
129.3333333333071
 30
0.0000000000000000
 40
4.000000000000000
 41
0.0000000000000000
 71
     1
 72
     1
  1
{\H0.94x;{MAX PERMISSIBLE SPEED}}
 11
1.000000000000000
 21
0.0000000000000000
 31
0.0000000000000000
  7
STANDARD
  0
MTEXT
  5
3E0
100
AcDbEntity
  8
MAIN0
  6
CONTINUOUS
 62
3
100
AcDbMText
 10
337.3333333333353
 20
112.7333333333031
 30
0.0000000000000000
 40
4.000000000000000
 41
0.0000000000000000
 71
     1
 72
     1
  1
{\H0.91x;{MASS}}
 11
1.000000000000000
 21
0.0000000000000000
 31
0.0000000000000000
  7
STANDARD
  0
LINE
  5
3E1
100
AcDbEntity
  8
WAKU0
  6
CONTINUOUS
 62
3
100
AcDbLine
 10
824.0000000000000
 20
102.0000000000000
 30
0.0000000000000000
 11
1164.000000000000
 21
102.0000000000000
 31
0.0000000000000000
  0
LINE
  5
3E2
100
AcDbEntity
  8
WAKU0
  6
CONTINUOUS
 62
3
100
AcDbLine
 10
824.0000000000000
 20
102.0000000000000
 30
0.0000000000000000
 11
824.0000000000000
 21
24.00000000000000
 31
0.0000000000000000
  0
LINE
  5
3E3
100
AcDbEntity
  8
WAKU0
  6
CONTINUOUS
 62
3
100
AcDbLine
 10
968.0000000000000
 20
102.0000000000000
 30
0.0000000000000000
 11
968.0000000000000
 21
24.00000000000000
 31
0.0000000000000000
  0
LINE
  5
3E4
100
AcDbEntity
  8
WAKU0
  6
CONTINUOUS
 62
3
100
AcDbLine
 10
1008.000000000000
 20
102.0000000000000
 30
0.0000000000000000
 11
1008.000000000000
 21
24.00000000000000
 31
0.0000000000000000
  0
LINE
  5
3E5
100
AcDbEntity
  8
WAKU0
  6
CONTINUOUS
 62
3
100
AcDbLine
 10
1032.000000000000
 20
102.0000000000000
 30
0.0000000000000000
 11
1032.000000000000
 21
24.00000000000000
 31
0.0000000000000000
  0
LINE
  5
3E6
100
AcDbEntity
  8
WAKU0
  6
CONTINUOUS
 62
3
100
AcDbLine
 10
1032.000000000000
 20
74.00000000000000
 30
0.0000000000000000
 11
1164.000000000000
 21
74.00000000000000
 31
0.0000000000000000
  0
LINE
  5
3E7
100
AcDbEntity
  8
WAKU0
  6
CONTINUOUS
 62
3
100
AcDbLine
 10
1008.000000000000
 20
46.00000000000000
 30
0.0000000000000000
 11
1164.000000000000
 21
46.00000000000000
 31
0.0000000000000000
  0
LINE
  5
3E8
100
AcDbEntity
  8
WAKU0
  6
CONTINUOUS
 62
3
100
AcDbLine
 10
1094.000000000000
 20
102.0000000000000
 30
0.0000000000000000
 11
1094.000000000000
 21
88.00000000000000
 31
0.0000000000000000
  0
LINE
  5
3E9
100
AcDbEntity
  8
WAKU0
  6
CONTINUOUS
 62
3
100
AcDbLine
 10
1118.000000000000
 20
102.0000000000000
 30
0.0000000000000000
 11
1118.000000000000
 21
88.00000000000000
 31
0.0000000000000000
  0
LINE
  5
3EA
100
AcDbEntity
  8
WAKU0
  6
CONTINUOUS
 62
3
100
AcDbLine
 10
968.0000000000000
 20
63.00000000000000
 30
0.0000000000000000
 11
1008.000000000000
 21
63.00000000000000
 31
0.0000000000000000
  0
LINE
  5
3EB
100
AcDbEntity
  8
WAKU0
  6
CONTINUOUS
 62
3
100
AcDbLine
 10
1008.000000000000
 20
88.00000000000000
 30
0.0000000000000000
 11
1164.000000000000
 21
88.00000000000000
 31
0.0000000000000000
  0
LINE
  5
3EC
100
AcDbEntity
  8
WAKU0
  6
CONTINUOUS
 62
3
100
AcDbLine
 10
824.0000000000000
 20
74.00000000000000
 30
0.0000000000000000
 11
968.0000000000000
 21
74.00000000000000
 31
0.0000000000000000
  0
LINE
  5
3ED
100
AcDbEntity
  8
WAKU0
  6
CONTINUOUS
 62
3
100
AcDbLine
 10
824.0000000000000
 20
46.00000000000000
 30
0.0000000000000000
 11
968.0000000000000
 21
46.00000000000000
 31
0.0000000000000000
  0
LINE
  5
3EE
100
AcDbEntity
  8
WAKU0
  6
CONTINUOUS
 62
3
100
AcDbLine
 10
920.0000000000000
 20
74.00000000000000
 30
0.0000000000000000
 11
920.0000000000000
 21
24.00000000000000
 31
0.0000000000000000
  0
LINE
  5
3EF
100
AcDbEntity
  8
WAKU0
  6
CONTINUOUS
 62
3
100
AcDbLine
 10
872.0000000000000
 20
74.00000000000000
 30
0.0000000000000000
 11
872.0000000000000
 21
46.00000000000000
 31
0.0000000000000000
  0
LINE
  5
3F0
100
AcDbEntity
  8
WAKU0
  6
CONTINUOUS
 62
3
100
AcDbLine
 10
944.0000000000000
 20
52.00000000000000
 30
0.0000000000000000
 11
944.0000000000000
 21
46.00000000000000
 31
0.0000000000000000
  0
LINE
  5
3F1
100
AcDbEntity
  8
WAKU0
  6
CONTINUOUS
 62
3
100
AcDbLine
 10
896.0000000000000
 20
52.00000000000000
 30
0.0000000000000000
 11
896.0000000000000
 21
46.00000000000000
 31
0.0000000000000000
  0
LINE
  5
3F2
100
AcDbEntity
  8
WAKU0
  6
CONTINUOUS
 62
3
100
AcDbLine
 10
848.0000000000000
 20
52.00000000000000
 30
0.0000000000000000
 11
848.0000000000000
 21
46.00000000000000
 31
0.0000000000000000
  0
LINE
  5
3F3
100
AcDbEntity
  8
WAKU0
  6
CONTINUOUS
 62
3
100
AcDbLine
 10
860.0000000000000
 20
102.0000000000000
 30
0.0000000000000000
 11
860.0000000000000
 21
74.00000000000000
 31
0.0000000000000000
  0
LINE
  5
3F4
100
AcDbEntity
  8
WAKU0
  6
CONTINUOUS
 62
3
100
AcDbLine
 10
824.0000000000000
 20
90.00000000000000
 30
0.0000000000000000
 11
968.0000000000000
 21
90.00000000000000
 31
0.0000000000000000
  0
LINE
  5
3F5
100
AcDbEntity
  8
WAKU0
  6
HIDDEN
 62
3
100
AcDbLine
 10
1065.000000000000
 20
46.00000000000000
 30
0.0000000000000000
 11
1065.000000000000
 21
24.00000000000000
 31
0.0000000000000000
  0
LINE
  5
3F6
100
AcDbEntity
  8
WAKU0
  6
HIDDEN
 62
3
100
AcDbLine
 10
1089.800000000000
 20
46.00000000000000
 30
0.0000000000000000
 11
1089.800000000000
 21
24.00000000000000
 31
0.0000000000000000
  0
MTEXT
  5
3F7
100
AcDbEntity
  8
WAKU0
  6
CONTINUOUS
 62
3
100
AcDbMText
 10
1032.964000046253
 20
98.09999990463257
 30
0.0000000000000000
 40
6.199999809265137
 41
0.0000000000000000
 71
     1
 72
     1
  1
{\H0.93x;{IA6-250-0}}
 11
1.000000000000000
 21
0.0000000000000000
 31
0.0000000000000000
  7
STANDARD
  0
MTEXT
  5
3F8
100
AcDbEntity
  8
WAKU0
  6
CONTINUOUS
 62
3
100
AcDbMText
 10
1032.719999969006
 20
87.00000000000000
 30
0.0000000000000000
 40
6.000000000000000
 41
0.0000000000000000
 71
     1
 72
     1
  1
{\H0.59x;{四爪単動チャック　２５０\P４－ＪＡＷ　ＩＮＤＥＰＥＮＤＥＮＴ　ＣＨＵＣＫ　２５０}}
 11
1.000000000000000
 21
0.0000000000000000
 31
0.0000000000000000
  7
KNJYOKO
  0
MTEXT
  5
3F9
100
AcDbEntity
  8
WAKU0
  6
CONTINUOUS
 62
3
100
AcDbMText
 10
1032.800000011921
 20
68.46666653951009
 30
0.0000000000000000
 40
6.199999809265137
 41
0.0000000000000000
 71
     1
 72
     1
  1
{\H0.71x;{ＩＡ６－２５０－０　ガイケイ\PＩＡ６－２５０－０　ＯＵＴＳＩＤＥ　ＶＩＥＷ}}
 11
1.000000000000000
 21
0.0000000000000000
 31
0.0000000000000000
  7
KNJYOKO
  0
MTEXT
  5
3FA
100
AcDbEntity
  8
WAKU0
  6
CONTINUOUS
 62
3
100
AcDbMText
 10
980.0099997520447
 20
78.59999990463257
 30
0.0000000000000000
 40
6.199999809265137
 41
0.0000000000000000
 71
     1
 72
     1
  1
{\H0.90x;{2:3}}
 11
1.000000000000000
 21
0.0000000000000000
 31
0.0000000000000000
  7
STANDARD
  0
MTEXT
  5
3FB
100
AcDbEntity
  8
WAKU0
  6
CONTINUOUS
 62
3
100
AcDbMText
 10
1092.800000309944
 20
40.30000019073486
 30
0.0000000000000000
 40
10.60000038146973
 41
0.0000000000000000
 71
     1
 72
     1
  1
{\H0.90x;{6067}}
 11
1.000000000000000
 21
0.0000000000000000
 31
0.0000000000000000
  7
STANDARD
  0
MTEXT
  5
3FC
100
AcDbEntity
  8
WAKU0
  6
CONTINUOUS
 62
3
100
AcDbMText
 10
1068.600000166893
 20
40.30000019073486
 30
0.0000000000000000
 40
10.60000038146973
 41
0.0000000000000000
 71
     1
 72
     1
  1
{\H0.87x;{29}}
 11
1.000000000000000
 21
0.0000000000000000
 31
0.0000000000000000
  7
STANDARD
  0
MTEXT
  5
3FD
100
AcDbEntity
  8
WAKU0
  6
CONTINUOUS
 62
3
100
AcDbMText
 10
1035.000000238419
 20
40.30000019073486
 30
0.0000000000000000
 40
10.60000038146973
 41
0.0000000000000000
 71
     1
 72
     1
  1
{\H0.89x;{61T}}
 11
1.000000000000000
 21
0.0000000000000000
 31
0.0000000000000000
  7
STANDARD
  0
MTEXT
  5
3FE
100
AcDbEntity
  8
WAKU0
  6
CONTINUOUS
 62
3
100
AcDbMText
 10
1144.000000095367
 20
40.30000019073486
 30
0.0000000000000000
 40
10.60000038146973
 41
0.0000000000000000
 71
     1
 72
     1
  1
{\H0.81x;{0}}
 11
1.000000000000000
 21
0.0000000000000000
 31
0.0000000000000000
  7
STANDARD
  0
MTEXT
  5
3FF
100
AcDbEntity
  8
WAKU0
  6
CONTINUOUS
 62
3
100
AcDbMText
 10
1144.000000163913
 20
89.69999980926514
 30
0.0000000000000000
 40
10.60000038146973
 41
0.0000000000000000
 71
     7
 72
     1
  1
{\H0.81x;{ }}
 11
1.000000000000000
 21
0.0000000000000000
 31
0.0000000000000000
  7
STANDARD
  0
MTEXT
  5
400
100
AcDbEntity
  8
WAKU0
  6
CONTINUOUS
 62
3
100
AcDbMText
 10
922.7700005769730
 20
66.00000000000000
 30
0.0000000000000000
 40
6.000000000000000
 41
0.0000000000000000
 71
     7
 72
     1
  1
{\H0.93x;{DRAWN BY}}
 11
1.000000000000000
 21
0.0000000000000000
 31
0.0000000000000000
  7
STANDARD
  0
MTEXT
  5
401
100
AcDbEntity
  8
WAKU0
  6
CONTINUOUS
 62
3
100
AcDbMText
 10
882.4299995899200
 20
65.90000009536743
 30
0.0000000000000000
 40
6.199999809265137
 41
0.0000000000000000
 71
     7
 72
     1
  1
{\H0.92x;{CHIEF}}
 11
1.000000000000000
 21
0.0000000000000000
 31
0.0000000000000000
  7
STANDARD
  0
MTEXT
  5
402
100
AcDbEntity
  8
WAKU0
  6
CONTINUOUS
 62
3
100
AcDbMText
 10
828.8499994277954
 20
65.90000009536743
 30
0.0000000000000000
 40
6.199999809265137
 41
0.0000000000000000
 71
     7
 72
     1
  1
{\H0.92x;{MANAGER}}
 11
1.000000000000000
 21
0.0000000000000000
 31
0.0000000000000000
  7
STANDARD
  0
MTEXT
  5
403
100
AcDbEntity
  8
WAKU0
  6
CONTINUOUS
 62
3
100
AcDbMText
 10
826.1700004339218
 20
93.00000000000000
 30
0.0000000000000000
 40
6.000000000000000
 41
0.0000000000000000
 71
     7
 72
     1
  1
{\H0.92x;{CAREER}}
 11
1.000000000000000
 21
0.0000000000000000
 31
0.0000000000000000
  7
STANDARD
  0
MTEXT
  5
404
100
AcDbEntity
  8
WAKU0
  6
CONTINUOUS
 62
3
100
AcDbMText
 10
933.2199996709824
 20
37.90000009536743
 30
0.0000000000000000
 40
6.199999809265137
 41
0.0000000000000000
 71
     7
 72
     1
  1
{\H0.91x;{DATE}}
 11
1.000000000000000
 21
0.0000000000000000
 31
0.0000000000000000
  7
STANDARD
  0
MTEXT
  5
405
100
AcDbEntity
  8
WAKU0
  6
CONTINUOUS
 62
3
100
AcDbMText
 10
971.8000004291534
 20
53.00000000000000
 30
0.0000000000000000
 40
6.000000000000000
 41
0.0000000000000000
 71
     7
 72
     1
  1
{\H0.63x;{3RD ANGLE}}
 11
1.000000000000000
 21
0.0000000000000000
 31
0.0000000000000000
  7
STANDARD
  0
MTEXT
  5
406
100
AcDbEntity
  8
WAKU0
  6
CONTINUOUS
 62
3
100
AcDbMText
 10
974.4299995899200
 20
91.90000009536743
 30
0.0000000000000000
 40
6.199999809265137
 41
0.0000000000000000
 71
     7
 72
     1
  1
{\H0.92x;{SCALE}}
 11
1.000000000000000
 21
0.0000000000000000
 31
0.0000000000000000
  7
STANDARD
  0
MTEXT
  5
407
100
AcDbEntity
  8
WAKU0
  6
CONTINUOUS
 62
3
100
AcDbMText
 10
1155.400000095367
 20
92.00000000000000
 30
0.0000000000000000
 40
6.000000000000000
 41
0.0000000000000000
 71
     7
 72
     1
  1
{\H0.63x;{kg}}
 11
1.000000000000000
 21
0.0000000000000000
 31
0.0000000000000000
  7
STANDARD
  0
MTEXT
  5
408
100
AcDbEntity
  8
WAKU0
  6
CONTINUOUS
 62
3
100
AcDbMText
 10
1095.200000286102
 20
92.00000000000000
 30
0.0000000000000000
 40
6.000000000000000
 41
0.0000000000000000
 71
     7
 72
     1
  1
{\H0.63x;{WEIGHT}}
 11
1.000000000000000
 21
0.0000000000000000
 31
0.0000000000000000
  7
STANDARD
  0
MTEXT
  5
409
100
AcDbEntity
  8
WAKU0
  6
CONTINUOUS
 62
3
100
AcDbMText
 10
1012.009999752045
 20
36.26666673024496
 30
0.0000000000000000
 40
6.199999809265137
 41
0.0000000000000000
 71
     7
 72
     1
  1
{\H0.90x;{DRW\PNO.}}
 11
1.000000000000000
 21
0.0000000000000000
 31
0.0000000000000000
  7
STANDARD
  0
MTEXT
  5
40A
100
AcDbEntity
  8
WAKU0
  6
CONTINUOUS
 62
3
100
AcDbMText
 10
1009.219999670982
 20
63.90000009536743
 30
0.0000000000000000
 40
6.199999809265137
 41
0.0000000000000000
 71
     7
 72
     1
  1
{\H0.91x;{NAME}}
 11
1.000000000000000
 21
0.0000000000000000
 31
0.0000000000000000
  7
STANDARD
  0
MTEXT
  5
40B
100
AcDbEntity
  8
WAKU0
  6
CONTINUOUS
 62
3
100
AcDbMText
 10
1009.219999670982
 20
91.90000009536743
 30
0.0000000000000000
 40
6.199999809265137
 41
0.0000000000000000
 71
     7
 72
     1
  1
{\H0.91x;{TYPE}}
 11
1.000000000000000
 21
0.0000000000000000
 31
0.0000000000000000
  7
STANDARD
  0
LINE
  5
40C
100
AcDbEntity
  8
WAKU0
  6
HIDDEN
 62
3
100
AcDbLine
 10
1158.319912948777
 20
27.69999980926514
 30
0.0000000000000000
 11
1137.880087241958
 21
27.69999980926514
 31
0.0000000000000000
  0
LINE
  5
40D
100
AcDbEntity
  8
WAKU0
  6
HIDDEN
 62
3
100
AcDbLine
 10
1158.319912948777
 20
27.69999980926500
 30
0.0000000000000000
 11
1148.100000095370
 21
45.40140812029802
 31
0.0000000000000000
  0
LINE
  5
40E
100
AcDbEntity
  8
WAKU0
  6
HIDDEN
 62
3
100
AcDbLine
 10
1148.100000095370
 20
45.40140812029803
 30
0.0000000000000000
 11
1137.880087241958
 21
27.69999980926497
 31
0.0000000000000000
  0
POINT
  5
40F
100
AcDbEntity
  8
WAKU0
  6
CONTINUOUS
 62
3
100
AcDbPoint
 10
884.0000000000000
 20
102.0000000000000
 30
0.0000000000000000
  0
MTEXT
  5
410
100
AcDbEntity
  8
WAKU0
  6
CONTINUOUS
 62
3
100
AcDbMText
 10
838.0000019229746
 20
41.26943043396429
 30
0.0000000000000000
 40
6.280188083648682
 41
0.0000000000000000
 71
     1
 72
     1
  1
{\H0.83x;{Ｋｉｔａｇａｗａ\PＣｏｒｐｏｒａｔｉｏｎ}}
 11
1.000000000000000
 21
0.0000000000000000
 31
0.0000000000000000
  7
KNJYOKO
  0
INSERT
  5
460
100
AcDbEntity
  8
WAKU0
  6
CONTINUOUS
 62
3
100
AcDbBlockReference
  2
M4
 10
0.0000000000000000
 20
0.0000000000000000
 30
0.0000000000000000
 50
0.0000000000000000
  0
LINE
  5
461
100
AcDbEntity
  8
WAKU0
  6
CONTINUOUS
 62
3
100
AcDbLine
 10
1004.942775550760
 20
31.56082842525625
 30
0.0000000000000000
 11
1004.942775550760
 21
43.56082842525629
 31
0.0000000000000000
  0
LINE
  5
462
100
AcDbEntity
  8
WAKU0
  6
CONTINUOUS
 62
3
100
AcDbLine
 10
991.8673882456450
 20
34.56082842525622
 30
0.0000000000000000
 11
991.8673882456450
 21
40.56082842525649
 31
0.0000000000000000
  0
LINE
  5
463
100
AcDbEntity
  8
WAKU0
  6
CENTER
 62
12
100
AcDbLine
 10
970.8643611029991
 20
37.56082842525626
 30
0.0000000000000000
 11
1006.553157792939
 21
37.56082842525626
 31
0.0000000000000000
  0
LINE
  5
464
100
AcDbEntity
  8
WAKU0
  6
CENTER
 62
12
100
AcDbLine
 10
978.8949131715972
 20
29.11843325836897
 30
0.0000000000000000
 11
978.8949131715972
 21
45.79730204299887
 31
0.0000000000000000
  0
LINE
  5
465
100
AcDbEntity
  8
WAKU0
  6
CONTINUOUS
 62
3
100
AcDbLine
 10
991.8673882456451
 20
40.56082842525595
 30
0.0000000000000000
 11
1004.942775550760
 21
43.56082842525589
 31
0.0000000000000000
  0
LINE
  5
466
100
AcDbEntity
  8
WAKU0
  6
CONTINUOUS
 62
3
100
AcDbLine
 10
991.8673882456451
 20
34.56082842525623
 30
0.0000000000000000
 11
1004.942775550760
 21
31.56082842525624
 31
0.0000000000000000
  0
CIRCLE
  5
467
100
AcDbEntity
  8
WAKU0
  6
CONTINUOUS
 62
3
100
AcDbCircle
 10
978.8949131715972
 20
37.56082842525627
 30
0.0000000000000000
 40
2.999999999999943
  0
CIRCLE
  5
468
100
AcDbEntity
  8
WAKU0
  6
CONTINUOUS
 62
3
100
AcDbCircle
 10
978.8949131715972
 20
37.56082842525627
 30
0.0000000000000000
 40
5.999999999999957
  0
ENDSEC
  0
SECTION
  2
OBJECTS
  0
DICTIONARY
  5
496
100
AcDbDictionary
  3
ACAD_GROUP
350
497
  3
ACAD_MLINESTYLE
350
498
  0
DICTIONARY
  5
497
102
{ACAD_REACTORS
330
496
102
}
100
AcDbDictionary
  0
DICTIONARY
  5
498
102
{ACAD_REACTORS
330
496
102
}
100
AcDbDictionary
  3
STANDARD
350
499
  0
MLINESTYLE
  5
499
102
{ACAD_REACTORS
330
498
102
}
100
AcDbMlineStyle
  2
STANDARD
 70
     0
  3

 62
   256
 51
90.00
 52
90.00
 71
     2
 49
0.50
 62
   256
  6
BYLAYER
 49
-0.50
 62
   256
  6
BYLAYER
  0
ENDSEC
  0
EOF
