  0
SECTION
  2
HEADER
  9
$ACADVER
  1
AC1014
  9
$DWGCODEPAGE
  3
ANSI_932
  9
$LTSCALE
 40
20.0
  9
$FILLMODE
 70
     1
  9
$CLAYER
  8
0
  9
$PDMODE
 70
     0
  9
$SPLFRAME
 70
     0
  9
$SPLINETYPE
 70
     6
  9
$SPLINESEGS
 70
     8
  9
$DIMASZ
 40
2.000000
  9
$DIMEXE
 40
2.000000
  9
$DIMEXO
 40
0.800000
  9
$DIMTAD
 70
     1
  9
$DIMTIH
 70
     0
  9
$DIMTOH
 70
     0
  9
$DIMTVP
 40
0.500000
  9
$DIMTXT
 40
3.100000
  9
$EXTMIN
 10
0.000000
 20
0.000000
 30
0.000000
  9
$EXTMAX
 10
420.000000
 20
594.000000
 30
0.000000
  9
$MEASUREMENT
 70
  1
  9
$LIMMIN
 10
0.000000
 20
0.000000
  9
$LIMMAX
 10
420.000000
 20
594.000000
  9
$HANDLING
 70
     1
  9
$HANDSEED
  5
55B
  9
$DIMBLK
  1
_OPEN
  9
$DIMDEC
 70
     3
  9
$DIMAUNIT
 70
     1
  9
$DIMZIN
 70
     8
  9
$DIMTOFL
 70
     1
  0
ENDSEC
  0
SECTION
  2
CLASSES
  0
ENDSEC
  0
SECTION
  2
TABLES
  0
TABLE
  2
VPORT
  5
529
100
AcDbSymbolTable
 70
     1
  0
VPORT
  5
52A
100
AcDbSymbolTableRecord
100
AcDbViewportTableRecord
  2
*ACTIVE
 70
     0
 12
594.000000
 22
420.000000
 40
840.000000
 41
1.414286
  0
ENDTAB
  0
TABLE
  2
LTYPE
  5
52B
100
AcDbSymbolTable
 70
     4
  0
LTYPE
  5
52C
100
AcDbSymbolTableRecord
100
AcDbLinetypeTableRecord
  2
BYBLOCK
 70
     0
  3

 72
    65
 73
     0
 40
0.0
  0
LTYPE
  5
52D
100
AcDbSymbolTableRecord
100
AcDbLinetypeTableRecord
  2
BYLAYER
 70
     0
  3

 72
    65
 73
     0
 40
0.0
  0
LTYPE
  5
52E
100
AcDbSymbolTableRecord
100
AcDbLinetypeTableRecord
  2
CONTINUOUS
 70
     0
  3
Solid line (NEC CAE2D for Win R14.2 : 2025.07.09)
 72
    65
 73
     0
 40
0.0
  0
LTYPE
  5
52F
100
AcDbSymbolTableRecord
100
AcDbLinetypeTableRecord
  2
HIDDEN
 70
     0
  3
__ __ __ __ __ __ __ __ __ __ __ __ __ __
 72
    65
 73
     2
 40
0.375
 49
0.25
 74
     0
 49
-0.125
 74
     0
  0
LTYPE
  5
530
100
AcDbSymbolTableRecord
100
AcDbLinetypeTableRecord
  2
CENTER
 70
     0
  3
____ _ ____ _ ____ _ ____ _ ____ _ ____
 72
    65
 73
     4
 40
2.0
 49
1.25
 74
     0
 49
-0.25
 74
     0
 49
0.25
 74
     0
 49
-0.25
 74
     0
  0
LTYPE
  5
531
100
AcDbSymbolTableRecord
100
AcDbLinetypeTableRecord
  2
PHANTOM
 70
     0
  3
______  __  __  ______  __  __  ______ 
 72
    65
 73
     6
 40
2.5
 49
1.25
 74
     0
 49
-0.25
 74
     0
 49
0.25
 74
     0
 49
-0.25
 74
     0
 49
0.25
 74
     0
 49
-0.25
 74
     0
  0
ENDTAB
  0
TABLE
  2
LAYER
  5
532
100
AcDbSymbolTable
 70
     9
  0
LAYER
  5
533
100
AcDbSymbolTableRecord
100
AcDbLayerTableRecord
  2
0
 70
     0
 62
     7
  6
CONTINUOUS
  0
LAYER
  5
534
100
AcDbSymbolTableRecord
100
AcDbLayerTableRecord
  2
MAIN0
 70
     0
 62
     7
  6
CONTINUOUS
  0
LAYER
  5
535
100
AcDbSymbolTableRecord
100
AcDbLayerTableRecord
  2
MAIN1
 70
     0
 62
     7
  6
CONTINUOUS
  0
LAYER
  5
536
100
AcDbSymbolTableRecord
100
AcDbLayerTableRecord
  2
MAIN2
 70
     0
 62
     7
  6
CONTINUOUS
  0
LAYER
  5
537
100
AcDbSymbolTableRecord
100
AcDbLayerTableRecord
  2
MAIN3
 70
     0
 62
     7
  6
CONTINUOUS
  0
LAYER
  5
538
100
AcDbSymbolTableRecord
100
AcDbLayerTableRecord
  2
MAIN4
 70
     0
 62
     7
  6
CONTINUOUS
  0
LAYER
  5
539
100
AcDbSymbolTableRecord
100
AcDbLayerTableRecord
  2
MAIN1023
 70
     0
 62
    16
  6
CONTINUOUS
  0
LAYER
  5
53A
100
AcDbSymbolTableRecord
100
AcDbLayerTableRecord
  2
WAKU0
 70
     0
 62
     7
  6
CONTINUOUS
  0
LAYER
  5
53B
100
AcDbSymbolTableRecord
100
AcDbLayerTableRecord
  2
WAKU1023
 70
     0
 62
    16
  6
CONTINUOUS
  0
ENDTAB
  0
TABLE
  2
STYLE
  5
53C
100
AcDbSymbolTable
 70
     4
  0
STYLE
  5
53D
100
AcDbSymbolTableRecord
100
AcDbTextStyleTableRecord
  2
STANDARD
 70
    64
 40
0.0
 41
1.0
 50
0.0
 71
     0
 42
6.200000762939453
  3
TXT
  4

  0
STYLE
  5
53E
100
AcDbSymbolTableRecord
100
AcDbTextStyleTableRecord
  2
ANKTATE
 70
    68
 40
0.0
 41
1.0
 50
0.0
 71
     0
 42
6.200000762939453
  3
TXT
  4

  0
STYLE
  5
53F
100
AcDbSymbolTableRecord
100
AcDbTextStyleTableRecord
  2
KNJYOKO
 70
    64
 40
0.0
 41
1.0
 50
0.0
 71
     0
 42
6.200000762939453
  3
TXT
  4
BIGFONT
  0
STYLE
  5
540
100
AcDbSymbolTableRecord
100
AcDbTextStyleTableRecord
  2
KNJTATE
 70
    68
 40
0.0
 41
1.0
 50
0.0
 71
     0
 42
6.200000762939453
  3
TXT
  4
BIGFONT
  0
ENDTAB
  0
TABLE
  2
VIEW
  5
541
100
AcDbSymbolTable
 70
     0
  0
ENDTAB
  0
TABLE
  2
UCS
  5
542
100
AcDbSymbolTable
 70
     0
  0
ENDTAB
  0
TABLE
  2
APPID
  5
543
100
AcDbSymbolTable
 70
     1
  0
APPID
  5
544
100
AcDbSymbolTableRecord
100
AcDbRegAppTableRecord
  2
ACAD
 70
     0
  0
ENDTAB
  0
TABLE
  2
DIMSTYLE
  5
545
100
AcDbSymbolTable
 70
     1
  0
DIMSTYLE
105
546
100
AcDbSymbolTableRecord
100
AcDbDimStyleTableRecord
  2
STANDARD
 70
     0
 41
2.000000
 44
2.000000
 42
0.800000
145
0.661290
140
3.100000
144
1.000000
146
0.903226
340
53D
  0
DIMSTYLE
105
547
100
AcDbSymbolTableRecord
100
AcDbDimStyleTableRecord
  2
MAIN001
 70
     0
 41
4.000000
 44
4.000000
 42
1.600000
145
0.580645
140
6.200000
144
1.000000
146
0.903226
 77
     1
 73
     0
 74
     0
271
     3
275
     1
 78
     8
172
     1
340
53D
  0
DIMSTYLE
105
548
100
AcDbSymbolTableRecord
100
AcDbDimStyleTableRecord
  2
WAKU002
 70
     0
 41
4.000000
 44
4.000000
 42
1.600000
145
0.580645
140
6.200000
144
0.500000
146
0.903226
 77
     1
 73
     0
 74
     0
271
     3
275
     1
 78
     8
172
     1
340
53D
  0
ENDTAB
  0
TABLE
  2
BLOCK_RECORD
  5
549
100
AcDbSymbolTable
 70
    19
  0
BLOCK_RECORD
  5
54A
100
AcDbSymbolTableRecord
100
AcDbBlockTableRecord
  2
*MODEL_SPACE
  0
BLOCK_RECORD
  5
54B
100
AcDbSymbolTableRecord
100
AcDbBlockTableRecord
  2
*PAPER_SPACE
  0
BLOCK_RECORD
  5
1
100
AcDbSymbolTableRecord
100
AcDbBlockTableRecord
  2
_NONE
  0
BLOCK_RECORD
  5
4
100
AcDbSymbolTableRecord
100
AcDbBlockTableRecord
  2
_CLOSED
  0
BLOCK_RECORD
  5
B
100
AcDbSymbolTableRecord
100
AcDbBlockTableRecord
  2
_DOT
  0
BLOCK_RECORD
  5
13
100
AcDbSymbolTableRecord
100
AcDbBlockTableRecord
  2
_OPEN
  0
BLOCK_RECORD
  5
19
100
AcDbSymbolTableRecord
100
AcDbBlockTableRecord
  2
_ORIGIN
  0
BLOCK_RECORD
  5
1E
100
AcDbSymbolTableRecord
100
AcDbBlockTableRecord
  2
_OPEN30
  0
BLOCK_RECORD
  5
24
100
AcDbSymbolTableRecord
100
AcDbBlockTableRecord
  2
_BOXFILLED
  0
BLOCK_RECORD
  5
29
100
AcDbSymbolTableRecord
100
AcDbBlockTableRecord
  2
_BOXBLANK
  0
BLOCK_RECORD
  5
31
100
AcDbSymbolTableRecord
100
AcDbBlockTableRecord
  2
_OBLIQUE
  0
BLOCK_RECORD
  5
35
100
AcDbSymbolTableRecord
100
AcDbBlockTableRecord
  2
_OPEN90
  0
BLOCK_RECORD
  5
3B
100
AcDbSymbolTableRecord
100
AcDbBlockTableRecord
  2
_CLOSEDBLANK
  0
BLOCK_RECORD
  5
41
100
AcDbSymbolTableRecord
100
AcDbBlockTableRecord
  2
_DOTBLANK
  0
BLOCK_RECORD
  5
54C
100
AcDbSymbolTableRecord
100
AcDbBlockTableRecord
  2
M0
  0
BLOCK_RECORD
  5
54D
100
AcDbSymbolTableRecord
100
AcDbBlockTableRecord
  2
M1
  0
BLOCK_RECORD
  5
54E
100
AcDbSymbolTableRecord
100
AcDbBlockTableRecord
  2
M2
  0
BLOCK_RECORD
  5
54F
100
AcDbSymbolTableRecord
100
AcDbBlockTableRecord
  2
M3
  0
BLOCK_RECORD
  5
550
100
AcDbSymbolTableRecord
100
AcDbBlockTableRecord
  2
M4
  0
BLOCK_RECORD
  5
551
100
AcDbSymbolTableRecord
100
AcDbBlockTableRecord
  2
M5
  0
BLOCK_RECORD
  5
552
100
AcDbSymbolTableRecord
100
AcDbBlockTableRecord
  2
M6
  0
ENDTAB
  0
ENDSEC
  0
SECTION
  2
BLOCKS
  0
BLOCK
  5
553
100
AcDbEntity
  8
0
100
AcDbBlockBegin
  2
*MODEL_SPACE
 70
     0
 10
0.0
 20
0.0
 30
0.0
  3
*MODEL_SPACE
  1

  0
ENDBLK
  5
554
100
AcDbEntity
  8
0
100
AcDbBlockEnd
  0
BLOCK
  5
555
100
AcDbEntity
  8
0
100
AcDbBlockBegin
  2
*PAPER_SPACE
 70
     0
 10
0.0
 20
0.0
 30
0.0
  3
*PAPER_SPACE
  1

  0
ENDBLK
  5
556
100
AcDbEntity
  8
0
100
AcDbBlockEnd
  0
BLOCK
  5
2
100
AcDbEntity
  8
0
100
AcDbBlockBegin
  2
_NONE
 70
     0
 10
0.0
 20
0.0
 30
0.0
  3
_NONE
  1

  0
ENDBLK
  5
3
100
AcDbEntity
  8
0
100
AcDbBlockEnd
  0
BLOCK
  5
5
100
AcDbEntity
  8
0
100
AcDbBlockBegin
  2
_CLOSED
 70
     0
 10
0.0
 20
0.0
 30
0.0
  3
_CLOSED
  1

  0
LINE
  5
6
100
AcDbEntity
  8
0
  6
BYBLOCK
 62
     0
100
AcDbLine
 10
-1.0
 20
0.166667
 30
0.0
 11
0.0
 21
0.0
 31
0.0
  0
LINE
  5
7
100
AcDbEntity
  8
0
  6
BYBLOCK
 62
     0
100
AcDbLine
 10
0.0
 20
0.0
 30
0.0
 11
-1.0
 21
-0.166667
 31
0.0
  0
LINE
  5
8
100
AcDbEntity
  8
0
  6
BYBLOCK
 62
     0
100
AcDbLine
 10
-1.0
 20
0.166667
 30
0.0
 11
-1.0
 21
-0.166667
 31
0.0
  0
LINE
  5
9
100
AcDbEntity
  8
0
  6
BYBLOCK
 62
     0
100
AcDbLine
 10
0.0
 20
0.0
 30
0.0
 11
-1.0
 21
0.0
 31
0.0
  0
ENDBLK
  5
A
100
AcDbEntity
  8
0
100
AcDbBlockEnd
  0
BLOCK
  5
C
100
AcDbEntity
  8
0
100
AcDbBlockBegin
  2
_DOT
 70
     0
 10
0.0
 20
0.0
 30
0.0
  3
_DOT
  1

  0
POLYLINE
  5
D
100
AcDbEntity
  8
0
  6
BYBLOCK
 62
     0
100
AcDb2dPolyline
 66
     1
 10
0.0
 20
0.0
 30
0.0
 70
     1
 40
0.5
 41
0.5
  0
VERTEX
  5
E
100
AcDbEntity
  8
0
  6
BYBLOCK
 62
     0
100
AcDbVertex
100
AcDb2dVertex
 10
-0.25
 20
0.0
 30
0.0
 42
1.0
  0
VERTEX
  5
F
100
AcDbEntity
  8
0
  6
BYBLOCK
 62
     0
100
AcDbVertex
100
AcDb2dVertex
 10
0.25
 20
0.0
 30
0.0
 42
1.0
  0
SEQEND
  5
10
100
AcDbEntity
  8
0
  6
BYBLOCK
 62
     0
  0
LINE
  5
11
100
AcDbEntity
  8
0
  6
BYBLOCK
 62
     0
100
AcDbLine
 10
-0.5
 20
0.0
 30
0.0
 11
-1.0
 21
0.0
 31
0.0
  0
ENDBLK
  5
12
100
AcDbEntity
  8
0
100
AcDbBlockEnd
  0
BLOCK
  5
14
100
AcDbEntity
  8
0
100
AcDbBlockBegin
  2
_OPEN
 70
     0
 10
0.0
 20
0.0
 30
0.0
  3
_OPEN
  1

  0
LINE
  5
15
100
AcDbEntity
  8
0
  6
BYBLOCK
 62
     0
100
AcDbLine
 10
-1.0
 20
0.166667
 30
0.0
 11
0.0
 21
0.0
 31
0.0
  0
LINE
  5
16
100
AcDbEntity
  8
0
  6
BYBLOCK
 62
     0
100
AcDbLine
 10
0.0
 20
0.0
 30
0.0
 11
-1.0
 21
-0.166667
 31
0.0
  0
LINE
  5
17
100
AcDbEntity
  8
0
  6
BYBLOCK
 62
     0
100
AcDbLine
 10
0.0
 20
0.0
 30
0.0
 11
-1.0
 21
0.0
 31
0.0
  0
ENDBLK
  5
18
100
AcDbEntity
  8
0
100
AcDbBlockEnd
  0
BLOCK
  5
1A
100
AcDbEntity
  8
0
100
AcDbBlockBegin
  2
_ORIGIN
 70
     0
 10
0.0
 20
0.0
 30
0.0
  3
_ORIGIN
  1

  0
CIRCLE
  5
1B
100
AcDbEntity
  8
0
  6
BYBLOCK
 62
     0
100
AcDbCircle
 10
0.0
 20
0.0
 30
0.0
 40
0.5
  0
LINE
  5
1C
100
AcDbEntity
  8
0
  6
BYBLOCK
 62
     0
100
AcDbLine
 10
0.0
 20
0.0
 30
0.0
 11
-1.0
 21
0.0
 31
0.0
  0
ENDBLK
  5
1D
100
AcDbEntity
  8
0
100
AcDbBlockEnd
  0
BLOCK
  5
1F
100
AcDbEntity
  8
0
100
AcDbBlockBegin
  2
_OPEN30
 70
     0
 10
0.0
 20
0.0
 30
0.0
  3
_OPEN30
  1

  0
LINE
  5
20
100
AcDbEntity
  8
0
  6
BYBLOCK
 62
     0
100
AcDbLine
 10
-1.0
 20
0.267949
 30
0.0
 11
0.0
 21
0.0
 31
0.0
  0
LINE
  5
21
100
AcDbEntity
  8
0
  6
BYBLOCK
 62
     0
100
AcDbLine
 10
0.0
 20
0.0
 30
0.0
 11
-1.0
 21
-0.267949
 31
0.0
  0
LINE
  5
22
100
AcDbEntity
  8
0
  6
BYBLOCK
 62
     0
100
AcDbLine
 10
0.0
 20
0.0
 30
0.0
 11
-1.0
 21
0.0
 31
0.0
  0
ENDBLK
  5
23
100
AcDbEntity
  8
0
100
AcDbBlockEnd
  0
BLOCK
  5
25
100
AcDbEntity
  8
0
100
AcDbBlockBegin
  2
_BOXFILLED
 70
     0
 10
0.0
 20
0.0
 30
0.0
  3
_BOXFILLED
  1

  0
SOLID
  5
26
100
AcDbEntity
  8
0
  6
BYBLOCK
 62
     0
100
AcDbTrace
 10
-0.5
 20
0.5
 30
0.0
 11
0.5
 21
0.5
 31
0.0
 12
-0.5
 22
-0.5
 32
0.0
 13
0.5
 23
-0.5
 33
0.0
  0
LINE
  5
27
100
AcDbEntity
  8
0
  6
BYBLOCK
 62
     0
100
AcDbLine
 10
-0.5
 20
0.0
 30
0.0
 11
-1.0
 21
0.0
 31
0.0
  0
ENDBLK
  5
28
100
AcDbEntity
  8
0
100
AcDbBlockEnd
  0
BLOCK
  5
2A
100
AcDbEntity
  8
0
100
AcDbBlockBegin
  2
_BOXBLANK
 70
     0
 10
0.0
 20
0.0
 30
0.0
  3
_BOXBLANK
  1

  0
LINE
  5
2B
100
AcDbEntity
  8
0
  6
BYBLOCK
 62
     0
100
AcDbLine
 10
-0.5
 20
-0.5
 30
0.0
 11
0.5
 21
-0.5
 31
0.0
  0
LINE
  5
2C
100
AcDbEntity
  8
0
  6
BYBLOCK
 62
     0
100
AcDbLine
 10
0.5
 20
-0.5
 30
0.0
 11
0.5
 21
0.5
 31
0.0
  0
LINE
  5
2D
100
AcDbEntity
  8
0
  6
BYBLOCK
 62
     0
100
AcDbLine
 10
0.5
 20
0.5
 30
0.0
 11
-0.5
 21
0.5
 31
0.0
  0
LINE
  5
2E
100
AcDbEntity
  8
0
  6
BYBLOCK
 62
     0
100
AcDbLine
 10
-0.5
 20
0.5
 30
0.0
 11
-0.5
 21
-0.5
 31
0.0
  0
LINE
  5
2F
100
AcDbEntity
  8
0
  6
BYBLOCK
 62
     0
100
AcDbLine
 10
-0.5
 20
0.0
 30
0.0
 11
-1.0
 21
0.0
 31
0.0
  0
ENDBLK
  5
30
100
AcDbEntity
  8
0
100
AcDbBlockEnd
  0
BLOCK
  5
32
100
AcDbEntity
  8
0
100
AcDbBlockBegin
  2
_OBLIQUE
 70
     0
 10
0.0
 20
0.0
 30
0.0
  3
_OBLIQUE
  1

  0
LINE
  5
33
100
AcDbEntity
  8
0
  6
BYBLOCK
 62
     0
100
AcDbLine
 10
-0.5
 20
-0.5
 30
0.0
 11
0.5
 21
0.5
 31
0.0
  0
ENDBLK
  5
34
100
AcDbEntity
  8
0
100
AcDbBlockEnd
  0
BLOCK
  5
36
100
AcDbEntity
  8
0
100
AcDbBlockBegin
  2
_OPEN90
 70
     0
 10
0.0
 20
0.0
 30
0.0
  3
_OPEN90
  1

  0
LINE
  5
37
100
AcDbEntity
  8
0
  6
BYBLOCK
 62
     0
100
AcDbLine
 10
-0.5
 20
0.5
 30
0.0
 11
0.0
 21
0.0
 31
0.0
  0
LINE
  5
38
100
AcDbEntity
  8
0
  6
BYBLOCK
 62
     0
100
AcDbLine
 10
0.0
 20
0.0
 30
0.0
 11
-0.5
 21
-0.5
 31
0.0
  0
LINE
  5
39
100
AcDbEntity
  8
0
  6
BYBLOCK
 62
     0
100
AcDbLine
 10
0.0
 20
0.0
 30
0.0
 11
-1.0
 21
0.0
 31
0.0
  0
ENDBLK
  5
3A
100
AcDbEntity
  8
0
100
AcDbBlockEnd
  0
BLOCK
  5
3C
100
AcDbEntity
  8
0
100
AcDbBlockBegin
  2
_CLOSEDBLANK
 70
     0
 10
0.0
 20
0.0
 30
0.0
  3
_CLOSEDBLANK
  1

  0
LINE
  5
3D
100
AcDbEntity
  8
0
  6
BYBLOCK
 62
     0
100
AcDbLine
 10
-1.0
 20
0.1666666666666666
 30
0.0
 11
0.0
 21
0.0
 31
0.0
  0
LINE
  5
3E
100
AcDbEntity
  8
0
  6
BYBLOCK
 62
     0
100
AcDbLine
 10
0.0
 20
0.0
 30
0.0
 11
-1.0
 21
-0.1666666666666666
 31
0.0
  0
LINE
  5
3F
100
AcDbEntity
  8
0
  6
BYBLOCK
 62
     0
100
AcDbLine
 10
-1.0
 20
0.1666666666666666
 30
0.0
 11
-1.0
 21
-0.1666666666666666
 31
0.0
  0
ENDBLK
  5
40
100
AcDbEntity
  8
0
100
AcDbBlockEnd
  0
BLOCK
  5
42
100
AcDbEntity
  8
0
100
AcDbBlockBegin
  2
_DOTBLANK
 70
     0
 10
0.0
 20
0.0
 30
0.0
  3
_DOTBLANK
  1

  0
CIRCLE
  5
43
100
AcDbEntity
  8
0
  6
BYBLOCK
 62
     0
100
AcDbCircle
 10
0.0
 20
0.0
 30
0.0
 40
0.5
  0
LINE
  5
44
100
AcDbEntity
  8
0
  6
BYBLOCK
 62
     0
100
AcDbLine
 10
-0.5
 20
0.0
 30
0.0
 11
-1.0
 21
0.0
 31
0.0
  0
ENDBLK
  5
45
100
AcDbEntity
  8
0
100
AcDbBlockEnd
  0
BLOCK
  5
D8
100
AcDbEntity
  8
MAIN0
  6
BYBLOCK
 62
3
100
AcDbBlockBegin
  2
M0
 70
    64
 10
0.0
 20
0.0
 30
0.0
  0
LINE
  5
D9
100
AcDbEntity
  8
MAIN0
  6
BYBLOCK
 62
0
100
AcDbLine
 10
760.3066478465456
 20
410.9065555881335
 30
0.0000000000000000
 11
777.2772105950227
 21
393.9359928396564
 31
0.0000000000000000
  0
LINE
  5
DA
100
AcDbEntity
  8
MAIN0
  6
BYBLOCK
 62
0
100
AcDbLine
 10
760.3066478465457
 20
410.9065555881339
 30
0.0000000000000000
 11
765.3066478465454
 21
402.2463015502896
 31
0.0000000000000000
  0
LINE
  5
DB
100
AcDbEntity
  8
MAIN0
  6
BYBLOCK
 62
0
100
AcDbLine
 10
760.3066478465463
 20
410.9065555881336
 30
0.0000000000000000
 11
768.9669018843906
 21
405.9065555881335
 31
0.0000000000000000
  0
ENDBLK
  5
DC
100
AcDbEntity
  8
MAIN0
  6
BYBLOCK
 62
3
100
AcDbBlockEnd
  0
BLOCK
  5
DE
100
AcDbEntity
  8
MAIN0
  6
BYBLOCK
 62
3
100
AcDbBlockBegin
  2
M1
 70
    64
 10
0.0
 20
0.0
 30
0.0
  0
LINE
  5
DF
100
AcDbEntity
  8
MAIN0
  6
BYBLOCK
 62
0
100
AcDbLine
 10
739.0934444108821
 20
389.6933521526042
 30
0.0000000000000000
 11
756.0640071593591
 21
372.7227894041270
 31
0.0000000000000000
  0
LINE
  5
E0
100
AcDbEntity
  8
MAIN0
  6
BYBLOCK
 62
0
100
AcDbLine
 10
739.0934444108822
 20
389.6933521526041
 30
0.0000000000000000
 11
744.0934444108818
 21
381.0330981147598
 31
0.0000000000000000
  0
LINE
  5
E1
100
AcDbEntity
  8
MAIN0
  6
BYBLOCK
 62
0
100
AcDbLine
 10
739.0934444108825
 20
389.6933521526039
 30
0.0000000000000000
 11
747.7536984487272
 21
384.6933521526039
 31
0.0000000000000000
  0
ENDBLK
  5
E2
100
AcDbEntity
  8
MAIN0
  6
BYBLOCK
 62
3
100
AcDbBlockEnd
  0
BLOCK
  5
E4
100
AcDbEntity
  8
MAIN0
  6
BYBLOCK
 62
2
100
AcDbBlockBegin
  2
M2
 70
    64
 10
0.0
 20
0.0
 30
0.0
  0
LINE
  5
E5
100
AcDbEntity
  8
MAIN0
  6
BYBLOCK
 62
0
100
AcDbLine
 10
650.0000000000000
 20
696.0000000000000
 30
0.0000000000000000
 11
649.9999999999999
 21
684.0000000000000
 31
0.0000000000000000
  0
LINE
  5
E6
100
AcDbEntity
  8
MAIN0
  6
BYBLOCK
 62
0
100
AcDbLine
 10
650.0000000000000
 20
690.0000000000000
 30
0.0000000000000000
 11
626.0000000000000
 21
690.0000000000000
 31
0.0000000000000000
  0
LINE
  5
E7
100
AcDbEntity
  8
MAIN0
  6
BYBLOCK
 62
0
100
AcDbLine
 10
649.9999999999996
 20
690.0000000000002
 30
0.0000000000000000
 11
640.3407417371087
 21
692.5881904510254
 31
0.0000000000000000
  0
LINE
  5
E8
100
AcDbEntity
  8
MAIN0
  6
BYBLOCK
 62
0
100
AcDbLine
 10
649.9999999999999
 20
689.9999999999999
 30
0.0000000000000000
 11
640.3407417371093
 21
687.4118095489747
 31
0.0000000000000000
  0
ENDBLK
  5
E9
100
AcDbEntity
  8
MAIN0
  6
BYBLOCK
 62
2
100
AcDbBlockEnd
  0
BLOCK
  5
EB
100
AcDbEntity
  8
MAIN0
  6
BYBLOCK
 62
2
100
AcDbBlockBegin
  2
M3
 70
    64
 10
0.0
 20
0.0
 30
0.0
  0
LINE
  5
EC
100
AcDbEntity
  8
MAIN0
  6
BYBLOCK
 62
0
100
AcDbLine
 10
811.7426406864272
 20
338.2573593121918
 30
0.0000000000000000
 11
803.2573593121890
 21
346.7426406864306
 31
0.0000000000000000
  0
LINE
  5
ED
100
AcDbEntity
  8
MAIN0
  6
BYBLOCK
 62
0
100
AcDbLine
 10
807.4999999993073
 20
342.4999999993113
 30
0.0000000000000000
 11
790.5294372508306
 21
325.5294372508341
 31
0.0000000000000000
  0
LINE
  5
EE
100
AcDbEntity
  8
MAIN0
  6
BYBLOCK
 62
0
100
AcDbLine
 10
807.4999999993084
 20
342.4999999993108
 30
0.0000000000000000
 11
802.4999999993081
 21
333.8397459614664
 31
0.0000000000000000
  0
LINE
  5
EF
100
AcDbEntity
  8
MAIN0
  6
BYBLOCK
 62
0
100
AcDbLine
 10
807.4999999993066
 20
342.4999999993112
 30
0.0000000000000000
 11
798.8397459614627
 21
337.4999999993114
 31
0.0000000000000000
  0
ENDBLK
  5
F0
100
AcDbEntity
  8
MAIN0
  6
BYBLOCK
 62
2
100
AcDbBlockEnd
  0
BLOCK
  5
44F
100
AcDbEntity
  8
MAIN0
  6
BYBLOCK
 62
3
100
AcDbBlockBegin
  2
M4
 70
    64
 10
0.0
 20
0.0
 30
0.0
  0
POINT
  5
450
100
AcDbEntity
  8
MAIN0
  6
BYBLOCK
 62
0
100
AcDbPoint
 10
570.0000000000000
 20
119.9999999999994
 30
0.0000000000000000
  0
POINT
  5
451
100
AcDbEntity
  8
MAIN0
  6
BYBLOCK
 62
0
100
AcDbPoint
 10
570.0000000000000
 20
109.9999999999994
 30
0.0000000000000000
  0
LINE
  5
452
100
AcDbEntity
  8
MAIN0
  6
BYBLOCK
 62
0
100
AcDbLine
 10
550.0000000000000
 20
118.9999999999994
 30
0.0000000000000000
 11
745.8229527010153
 21
118.9999999999994
 31
0.0000000000000000
  0
LINE
  5
453
100
AcDbEntity
  8
MAIN0
  6
BYBLOCK
 62
0
100
AcDbLine
 10
550.0000000000000
 20
108.9999999999994
 30
0.0000000000000000
 11
745.8229527010153
 21
108.9999999999994
 31
0.0000000000000000
  0
MTEXT
  5
454
100
AcDbEntity
  8
MAIN0
  6
BYBLOCK
 62
0
100
AcDbMText
 10
552.0000000000000
 20
126.1999998092646
 30
0.0000000000000000
 40
6.199999809265137
 41
0.0000000000000000
 71
     1
 72
     1
  1
{\H0.88x;1.}
 11
1.000000000000000
 21
0.0000000000000000
 31
0.0000000000000000
  7
STANDARD
  0
MTEXT
  5
455
100
AcDbEntity
  8
MAIN0
  6
BYBLOCK
 62
0
100
AcDbMText
 10
552.0000000000000
 20
116.1999998092646
 30
0.0000000000000000
 40
6.199999809265137
 41
0.0000000000000000
 71
     1
 72
     1
  1
{\H0.88x;2.}
 11
1.000000000000000
 21
0.0000000000000000
 31
0.0000000000000000
  7
STANDARD
  0
POINT
  5
456
100
AcDbEntity
  8
MAIN0
  6
BYBLOCK
 62
0
100
AcDbPoint
 10
552.0000000000000
 20
119.9999999999994
 30
0.0000000000000000
  0
POINT
  5
457
100
AcDbEntity
  8
MAIN0
  6
BYBLOCK
 62
0
100
AcDbPoint
 10
552.0000000000000
 20
109.9999999999994
 30
0.0000000000000000
  0
MTEXT
  5
458
100
AcDbEntity
  8
MAIN0
  6
BYBLOCK
 62
0
100
AcDbMText
 10
553.0000000000000
 20
147.0000000000000
 30
0.0000000000000000
 40
12.00000000000000
 41
0.0000000000000000
 71
     1
 72
     1
  1
{\H0.80x;注　記}
 11
1.000000000000000
 21
0.0000000000000000
 31
0.0000000000000000
  7
KNJYOKO
  0
LINE
  5
459
100
AcDbEntity
  8
MAIN0
  6
BYBLOCK
 62
0
100
AcDbLine
 10
590.0000000000000
 20
150.0000000000000
 30
0.0000000000000000
 11
590.0000000000000
 21
132.0000000000000
 31
0.0000000000000000
  0
LINE
  5
45A
100
AcDbEntity
  8
MAIN0
  6
BYBLOCK
 62
0
100
AcDbLine
 10
550.0000000000000
 20
132.0000000000000
 30
0.0000000000000000
 11
590.0000000000000
 21
132.0000000000000
 31
0.0000000000000000
  0
LINE
  5
45B
100
AcDbEntity
  8
MAIN0
  6
BYBLOCK
 62
0
100
AcDbLine
 10
550.0000000000000
 20
150.0000000000000
 30
0.0000000000000000
 11
550.0000000000000
 21
132.0000000000000
 31
0.0000000000000000
  0
LINE
  5
45C
100
AcDbEntity
  8
MAIN0
  6
BYBLOCK
 62
0
100
AcDbLine
 10
550.0000000000000
 20
150.0000000000000
 30
0.0000000000000000
 11
590.0000000000000
 21
150.0000000000000
 31
0.0000000000000000
  0
ENDBLK
  5
45D
100
AcDbEntity
  8
MAIN0
  6
BYBLOCK
 62
3
100
AcDbBlockEnd
  0
BLOCK
  5
460
100
AcDbEntity
  8
MAIN0
  6
BYBLOCK
 62
3
100
AcDbBlockBegin
  2
M5
 70
    64
 10
0.0
 20
0.0
 30
0.0
  0
POINT
  5
461
100
AcDbEntity
  8
MAIN0
  6
BYBLOCK
 62
0
100
AcDbPoint
 10
570.0000000001485
 20
69.99999999999943
 30
0.0000000000000000
  0
POINT
  5
462
100
AcDbEntity
  8
MAIN0
  6
BYBLOCK
 62
0
100
AcDbPoint
 10
570.0000000001485
 20
59.99999999999943
 30
0.0000000000000000
  0
LINE
  5
463
100
AcDbEntity
  8
MAIN0
  6
BYBLOCK
 62
0
100
AcDbLine
 10
550.0000000001485
 20
68.99999999999943
 30
0.0000000000000000
 11
780.8631058797089
 21
68.99999999999943
 31
0.0000000000000000
  0
LINE
  5
464
100
AcDbEntity
  8
MAIN0
  6
BYBLOCK
 62
0
100
AcDbLine
 10
550.0000000001485
 20
58.99999999999943
 30
0.0000000000000000
 11
780.8631058797089
 21
58.99999999999943
 31
0.0000000000000000
  0
MTEXT
  5
465
100
AcDbEntity
  8
MAIN0
  6
BYBLOCK
 62
0
100
AcDbMText
 10
552.0000000001485
 20
76.19999980926457
 30
0.0000000000000000
 40
6.199999809265137
 41
0.0000000000000000
 71
     1
 72
     1
  1
{\H0.88x;1.}
 11
1.000000000000000
 21
0.0000000000000000
 31
0.0000000000000000
  7
STANDARD
  0
MTEXT
  5
466
100
AcDbEntity
  8
MAIN0
  6
BYBLOCK
 62
0
100
AcDbMText
 10
552.0000000001485
 20
66.19999980926457
 30
0.0000000000000000
 40
6.199999809265137
 41
0.0000000000000000
 71
     1
 72
     1
  1
{\H0.88x;2.}
 11
1.000000000000000
 21
0.0000000000000000
 31
0.0000000000000000
  7
STANDARD
  0
POINT
  5
467
100
AcDbEntity
  8
MAIN0
  6
BYBLOCK
 62
0
100
AcDbPoint
 10
552.0000000001485
 20
69.99999999999943
 30
0.0000000000000000
  0
POINT
  5
468
100
AcDbEntity
  8
MAIN0
  6
BYBLOCK
 62
0
100
AcDbPoint
 10
552.0000000001485
 20
59.99999999999943
 30
0.0000000000000000
  0
MTEXT
  5
469
100
AcDbEntity
  8
MAIN0
  6
BYBLOCK
 62
0
100
AcDbMText
 10
553.0000000001485
 20
97.00000000000000
 30
0.0000000000000000
 40
12.00000000000000
 41
0.0000000000000000
 71
     1
 72
     1
  1
NOTE
 11
1.000000000000000
 21
0.0000000000000000
 31
0.0000000000000000
  7
STANDARD
  0
LINE
  5
46A
100
AcDbEntity
  8
MAIN0
  6
BYBLOCK
 62
0
100
AcDbLine
 10
550.0000000001485
 20
82.00000000000000
 30
0.0000000000000000
 11
600.6666666665477
 21
82.00000000000000
 31
0.0000000000000000
  0
LINE
  5
46B
100
AcDbEntity
  8
MAIN0
  6
BYBLOCK
 62
0
100
AcDbLine
 10
550.0000000001485
 20
100.0000000000000
 30
0.0000000000000000
 11
550.0000000001485
 21
82.00000000000000
 31
0.0000000000000000
  0
LINE
  5
46C
100
AcDbEntity
  8
MAIN0
  6
BYBLOCK
 62
0
100
AcDbLine
 10
550.0000000001485
 20
100.0000000000000
 30
0.0000000000000000
 11
600.6666666665477
 21
100.0000000000000
 31
0.0000000000000000
  0
ENDBLK
  5
46D
100
AcDbEntity
  8
MAIN0
  6
BYBLOCK
 62
3
100
AcDbBlockEnd
  0
BLOCK
  5
4D1
100
AcDbEntity
  8
WAKU0
  6
BYBLOCK
 62
3
100
AcDbBlockBegin
  2
M6
 70
    64
 10
0.0
 20
0.0
 30
0.0
  0
POINT
  5
4D2
100
AcDbEntity
  8
WAKU0
  6
BYBLOCK
 62
0
100
AcDbPoint
 10
544.0000000000000
 20
24.00000000000000
 30
0.0000000000000000
  0
POINT
  5
4D3
100
AcDbEntity
  8
WAKU0
  6
BYBLOCK
 62
0
100
AcDbPoint
 10
262.0000000000073
 20
24.00000000000001
 30
0.0000000000000000
  0
LINE
  5
4D4
100
AcDbEntity
  8
WAKU0
  6
BYBLOCK
 62
0
100
AcDbLine
 10
50.00000000000364
 20
24.00000000000001
 30
0.0000000000000000
 11
1164.000000000000
 21
24.00000000000000
 31
0.0000000000000000
  0
LINE
  5
4D5
100
AcDbEntity
  8
WAKU0
  6
BYBLOCK
 62
0
100
AcDbLine
 10
50.00000000000387
 20
819.9999999999931
 30
0.0000000000000000
 11
1164.000000000000
 21
819.9999999999927
 31
0.0000000000000000
  0
LINE
  5
4D6
100
AcDbEntity
  8
WAKU0
  6
BYBLOCK
 62
0
100
AcDbLine
 10
50.00000000000364
 20
24.00000000000001
 30
0.0000000000000000
 11
50.00000000000387
 21
819.9999999999931
 31
0.0000000000000000
  0
LINE
  5
4D7
100
AcDbEntity
  8
WAKU0
  6
BYBLOCK
 62
0
100
AcDbLine
 10
1164.000000000000
 20
24.00000000000000
 30
0.0000000000000000
 11
1164.000000000000
 21
819.9999999999927
 31
0.0000000000000000
  0
LINE
  5
4D8
100
AcDbEntity
  8
WAKU0
  6
BYBLOCK
 62
0
100
AcDbLine
 10
4.000000000002046
 20
835.9999999999936
 30
0.0000000000000000
 11
20.00000000000205
 21
835.9999999999936
 31
0.0000000000000000
  0
LINE
  5
4D9
100
AcDbEntity
  8
WAKU0
  6
BYBLOCK
 62
0
100
AcDbLine
 10
1168.000000000000
 20
835.9999999999927
 30
0.0000000000000000
 11
1184.000000000000
 21
835.9999999999928
 31
0.0000000000000000
  0
LINE
  5
4DA
100
AcDbEntity
  8
WAKU0
  6
BYBLOCK
 62
0
100
AcDbLine
 10
1184.000000000000
 20
819.9999999999926
 30
0.0000000000000000
 11
1184.000000000000
 21
835.9999999999926
 31
0.0000000000000000
  0
LINE
  5
4DB
100
AcDbEntity
  8
WAKU0
  6
BYBLOCK
 62
0
100
AcDbLine
 10
4.000000000003638
 20
819.9999999999927
 30
0.0000000000000000
 11
4.000000000003638
 21
835.9999999999927
 31
0.0000000000000000
  0
LINE
  5
4DC
100
AcDbEntity
  8
WAKU0
  6
BYBLOCK
 62
0
100
AcDbLine
 10
4.000000000003638
 20
4.000000000000085
 30
0.0000000000000000
 11
20.00000000000364
 21
4.000000000000085
 31
0.0000000000000000
  0
LINE
  5
4DD
100
AcDbEntity
  8
WAKU0
  6
BYBLOCK
 62
0
100
AcDbLine
 10
1168.000000000000
 20
4.000000000000007
 30
0.0000000000000000
 11
1184.000000000000
 21
4.000000000000007
 31
0.0000000000000000
  0
LINE
  5
4DE
100
AcDbEntity
  8
WAKU0
  6
BYBLOCK
 62
0
100
AcDbLine
 10
1184.000000000000
 20
20.00000000000014
 30
0.0000000000000000
 11
1184.000000000000
 21
4.000000000000156
 31
0.0000000000000000
  0
LINE
  5
4DF
100
AcDbEntity
  8
WAKU0
  6
BYBLOCK
 62
0
100
AcDbLine
 10
4.000000000003638
 20
4.000000000000203
 30
0.0000000000000000
 11
4.000000000003638
 21
20.00000000000014
 31
0.0000000000000000
  0
LINE
  5
4E0
100
AcDbEntity
  8
WAKU0
  6
BYBLOCK
 62
0
100
AcDbLine
 10
594.0000000000001
 20
-3.552713678800501e-015
 30
0.0000000000000000
 11
594.0000000000000
 21
24.00000000000003
 31
0.0000000000000000
  0
LINE
  5
4E1
100
AcDbEntity
  8
WAKU0
  6
BYBLOCK
 62
0
100
AcDbLine
 10
594.0000000000046
 20
819.9999999999959
 30
0.0000000000000000
 11
594.0000000000047
 21
839.9999999999959
 31
0.0000000000000000
  0
LINE
  5
4E2
100
AcDbEntity
  8
WAKU0
  6
BYBLOCK
 62
0
100
AcDbLine
 10
3.637978807091713e-012
 20
419.9999999999999
 30
0.0000000000000000
 11
50.00000000000364
 21
419.9999999999999
 31
0.0000000000000000
  0
LINE
  5
4E3
100
AcDbEntity
  8
WAKU0
  6
BYBLOCK
 62
0
100
AcDbLine
 10
1164.000000000000
 20
419.9999999999999
 30
0.0000000000000000
 11
1188.000000000000
 21
419.9999999999999
 31
0.0000000000000000
  0
LINE
  5
4E4
100
AcDbEntity
  8
WAKU0
  6
BYBLOCK
 62
0
100
AcDbLine
 10
454.0000000000073
 20
14.00000000000002
 30
0.0000000000000000
 11
733.9999999999999
 21
14.00000000000009
 31
0.0000000000000000
  0
LINE
  5
4E5
100
AcDbEntity
  8
WAKU0
  6
BYBLOCK
 62
0
100
AcDbLine
 10
42.00000000000205
 20
679.9999999999941
 30
0.0000000000000000
 11
50.00000000000205
 21
679.9999999999940
 31
0.0000000000000000
  0
LINE
  5
4E6
100
AcDbEntity
  8
WAKU0
  6
BYBLOCK
 62
0
100
AcDbLine
 10
1164.000000000000
 20
679.9999999999927
 30
0.0000000000000000
 11
1172.000000000000
 21
679.9999999999928
 31
0.0000000000000000
  0
LINE
  5
4E7
100
AcDbEntity
  8
WAKU0
  6
BYBLOCK
 62
0
100
AcDbLine
 10
42.00000000000387
 20
549.9999999999941
 30
0.0000000000000000
 11
50.00000000000387
 21
549.9999999999940
 31
0.0000000000000000
  0
LINE
  5
4E8
100
AcDbEntity
  8
WAKU0
  6
BYBLOCK
 62
0
100
AcDbLine
 10
1164.000000000000
 20
549.9999999999927
 30
0.0000000000000000
 11
1172.000000000000
 21
549.9999999999928
 31
0.0000000000000000
  0
LINE
  5
4E9
100
AcDbEntity
  8
WAKU0
  6
BYBLOCK
 62
0
100
AcDbLine
 10
42.00000000000023
 20
289.9999999999999
 30
0.0000000000000000
 11
50.00000000000023
 21
289.9999999999999
 31
0.0000000000000000
  0
LINE
  5
4EA
100
AcDbEntity
  8
WAKU0
  6
BYBLOCK
 62
0
100
AcDbLine
 10
1164.000000000000
 20
289.9999999999999
 30
0.0000000000000000
 11
1172.000000000000
 21
289.9999999999999
 31
0.0000000000000000
  0
LINE
  5
4EB
100
AcDbEntity
  8
WAKU0
  6
BYBLOCK
 62
0
100
AcDbLine
 10
42.00000000000387
 20
160.0000000000000
 30
0.0000000000000000
 11
50.00000000000387
 21
160.0000000000000
 31
0.0000000000000000
  0
LINE
  5
4EC
100
AcDbEntity
  8
WAKU0
  6
BYBLOCK
 62
0
100
AcDbLine
 10
1164.000000000000
 20
159.9999999999999
 30
0.0000000000000000
 11
1172.000000000000
 21
159.9999999999999
 31
0.0000000000000000
  0
LINE
  5
4ED
100
AcDbEntity
  8
WAKU0
  6
BYBLOCK
 62
0
100
AcDbLine
 10
734.0000000000000
 20
14.00000000000007
 30
0.0000000000000000
 11
733.9999999999998
 21
24.00000000000003
 31
0.0000000000000000
  0
LINE
  5
4EE
100
AcDbEntity
  8
WAKU0
  6
BYBLOCK
 62
0
100
AcDbLine
 10
733.9999999999998
 20
819.9999999999989
 30
0.0000000000000000
 11
733.9999999999998
 21
827.9999999999989
 31
0.0000000000000000
  0
LINE
  5
4EF
100
AcDbEntity
  8
WAKU0
  6
BYBLOCK
 62
0
100
AcDbLine
 10
454.0000000000073
 20
14.00000000000001
 30
0.0000000000000000
 11
454.0000000000073
 21
23.99999999999990
 31
0.0000000000000000
  0
LINE
  5
4F0
100
AcDbEntity
  8
WAKU0
  6
BYBLOCK
 62
0
100
AcDbLine
 10
454.0000000000073
 20
819.9999999999927
 30
0.0000000000000000
 11
454.0000000000073
 21
827.9999999999927
 31
0.0000000000000000
  0
LINE
  5
4F1
100
AcDbEntity
  8
WAKU0
  6
BYBLOCK
 62
0
100
AcDbLine
 10
474.0000000000073
 20
20.00000000000020
 30
0.0000000000000000
 11
474.0000000000073
 21
14.00000000000006
 31
0.0000000000000000
  0
LINE
  5
4F2
100
AcDbEntity
  8
WAKU0
  6
BYBLOCK
 62
0
100
AcDbLine
 10
494.0000000000073
 20
20.00000000000011
 30
0.0000000000000000
 11
494.0000000000073
 21
14.00000000000004
 31
0.0000000000000000
  0
LINE
  5
4F3
100
AcDbEntity
  8
WAKU0
  6
BYBLOCK
 62
0
100
AcDbLine
 10
514.0000000000000
 20
14.00000000000002
 30
0.0000000000000000
 11
514.0000000000000
 21
20.00000000000020
 31
0.0000000000000000
  0
LINE
  5
4F4
100
AcDbEntity
  8
WAKU0
  6
BYBLOCK
 62
0
100
AcDbLine
 10
534.0000000000000
 20
14.00000000000006
 30
0.0000000000000000
 11
534.0000000000000
 21
20.00000000000014
 31
0.0000000000000000
  0
LINE
  5
4F5
100
AcDbEntity
  8
WAKU0
  6
BYBLOCK
 62
0
100
AcDbLine
 10
554.0000000000000
 20
20.00000000000020
 30
0.0000000000000000
 11
554.0000000000000
 21
14.00000000000002
 31
0.0000000000000000
  0
LINE
  5
4F6
100
AcDbEntity
  8
WAKU0
  6
BYBLOCK
 62
0
100
AcDbLine
 10
574.0000000000000
 20
20.00000000000017
 30
0.0000000000000000
 11
574.0000000000000
 21
14.00000000000004
 31
0.0000000000000000
  0
LINE
  5
4F7
100
AcDbEntity
  8
WAKU0
  6
BYBLOCK
 62
0
100
AcDbLine
 10
614.0000000000000
 20
20.00000000000014
 30
0.0000000000000000
 11
614.0000000000000
 21
14.00000000000001
 31
0.0000000000000000
  0
LINE
  5
4F8
100
AcDbEntity
  8
WAKU0
  6
BYBLOCK
 62
0
100
AcDbLine
 10
634.0000000000000
 20
14.00000000000003
 30
0.0000000000000000
 11
634.0000000000000
 21
20.00000000000017
 31
0.0000000000000000
  0
LINE
  5
4F9
100
AcDbEntity
  8
WAKU0
  6
BYBLOCK
 62
0
100
AcDbLine
 10
653.9999999999999
 20
20.00000000000014
 30
0.0000000000000000
 11
653.9999999999999
 21
14.00000000000001
 31
0.0000000000000000
  0
LINE
  5
4FA
100
AcDbEntity
  8
WAKU0
  6
BYBLOCK
 62
0
100
AcDbLine
 10
674.0000000000000
 20
20.00000000000015
 30
0.0000000000000000
 11
673.9999999999998
 21
14.00000000000001
 31
0.0000000000000000
  0
LINE
  5
4FB
100
AcDbEntity
  8
WAKU0
  6
BYBLOCK
 62
0
100
AcDbLine
 10
693.9999999999999
 20
20.00000000000023
 30
0.0000000000000000
 11
693.9999999999999
 21
14.00000000000007
 31
0.0000000000000000
  0
LINE
  5
4FC
100
AcDbEntity
  8
WAKU0
  6
BYBLOCK
 62
0
100
AcDbLine
 10
713.9999999999999
 20
20.00000000000014
 30
0.0000000000000000
 11
713.9999999999999
 21
14.00000000000001
 31
0.0000000000000000
  0
LINE
  5
4FD
100
AcDbEntity
  8
WAKU0
  6
BYBLOCK
 62
0
100
AcDbLine
 10
1014.000000000000
 20
16.00000000000017
 30
0.0000000000000000
 11
1014.000000000000
 21
23.99999999999997
 31
0.0000000000000000
  0
LINE
  5
4FE
100
AcDbEntity
  8
WAKU0
  6
BYBLOCK
 62
0
100
AcDbLine
 10
1014.000000000000
 20
819.9999999999949
 30
0.0000000000000000
 11
1014.000000000000
 21
827.9999999999949
 31
0.0000000000000000
  0
LINE
  5
4FF
100
AcDbEntity
  8
WAKU0
  6
BYBLOCK
 62
0
100
AcDbLine
 10
874.0000000000000
 20
16.00000000000020
 30
0.0000000000000000
 11
873.9999999999998
 21
24.00000000000002
 31
0.0000000000000000
  0
LINE
  5
500
100
AcDbEntity
  8
WAKU0
  6
BYBLOCK
 62
0
100
AcDbLine
 10
873.9999999999998
 20
819.9999999999968
 30
0.0000000000000000
 11
873.9999999999998
 21
827.9999999999968
 31
0.0000000000000000
  0
LINE
  5
501
100
AcDbEntity
  8
WAKU0
  6
BYBLOCK
 62
0
100
AcDbLine
 10
314.0000000000073
 20
16.00000000000021
 30
0.0000000000000000
 11
314.0000000000073
 21
24.00000000000002
 31
0.0000000000000000
  0
LINE
  5
502
100
AcDbEntity
  8
WAKU0
  6
BYBLOCK
 62
0
100
AcDbLine
 10
314.0000000000073
 20
819.9999999999927
 30
0.0000000000000000
 11
314.0000000000073
 21
827.9999999999927
 31
0.0000000000000000
  0
LINE
  5
503
100
AcDbEntity
  8
WAKU0
  6
BYBLOCK
 62
0
100
AcDbLine
 10
174.0000000000073
 20
16.00000000000019
 30
0.0000000000000000
 11
174.0000000000073
 21
24.00000000000003
 31
0.0000000000000000
  0
LINE
  5
504
100
AcDbEntity
  8
WAKU0
  6
BYBLOCK
 62
0
100
AcDbLine
 10
174.0000000000073
 20
819.9999999999927
 30
0.0000000000000000
 11
174.0000000000073
 21
827.9999999999927
 31
0.0000000000000000
  0
MTEXT
  5
505
100
AcDbEntity
  8
WAKU0
  6
BYBLOCK
 62
0
100
AcDbMText
 10
112.0000000000036
 20
20.20000076293957
 30
0.0000000000000000
 40
6.200000762939453
 41
0.0000000000000000
 71
     1
 72
     1
  1
{\H0.81x;1}
 11
1.000000000000000
 21
0.0000000000000000
 31
0.0000000000000000
  7
STANDARD
  0
MTEXT
  5
506
100
AcDbEntity
  8
WAKU0
  6
BYBLOCK
 62
0
100
AcDbMText
 10
244.0000000000073
 20
20.20000076293945
 30
0.0000000000000000
 40
6.200000762939453
 41
0.0000000000000000
 71
     1
 72
     1
  1
{\H0.81x;2}
 11
1.000000000000000
 21
0.0000000000000000
 31
0.0000000000000000
  7
STANDARD
  0
MTEXT
  5
507
100
AcDbEntity
  8
WAKU0
  6
BYBLOCK
 62
0
100
AcDbMText
 10
384.0000000000073
 20
20.20000076293945
 30
0.0000000000000000
 40
6.200000762939453
 41
0.0000000000000000
 71
     1
 72
     1
  1
{\H0.81x;3}
 11
1.000000000000000
 21
0.0000000000000000
 31
0.0000000000000000
  7
STANDARD
  0
MTEXT
  5
508
100
AcDbEntity
  8
WAKU0
  6
BYBLOCK
 62
0
100
AcDbMText
 10
803.9999999999996
 20
20.20000076293934
 30
0.0000000000000000
 40
6.200000762939453
 41
0.0000000000000000
 71
     1
 72
     1
  1
{\H0.81x;6}
 11
1.000000000000000
 21
0.0000000000000000
 31
0.0000000000000000
  7
STANDARD
  0
MTEXT
  5
509
100
AcDbEntity
  8
WAKU0
  6
BYBLOCK
 62
0
100
AcDbMText
 10
943.9999999999996
 20
20.20000076293945
 30
0.0000000000000000
 40
6.200000762939453
 41
0.0000000000000000
 71
     1
 72
     1
  1
{\H0.81x;7}
 11
1.000000000000000
 21
0.0000000000000000
 31
0.0000000000000000
  7
STANDARD
  0
MTEXT
  5
50A
100
AcDbEntity
  8
WAKU0
  6
BYBLOCK
 62
0
100
AcDbMText
 10
1089.000000000000
 20
20.20000076293945
 30
0.0000000000000000
 40
6.200000762939453
 41
0.0000000000000000
 71
     1
 72
     1
  1
{\H0.81x;8}
 11
1.000000000000000
 21
0.0000000000000000
 31
0.0000000000000000
  7
STANDARD
  0
MTEXT
  5
50B
100
AcDbEntity
  8
WAKU0
  6
BYBLOCK
 62
0
100
AcDbMText
 10
112.0000000000036
 20
830.2000007629322
 30
0.0000000000000000
 40
6.200000762939453
 41
0.0000000000000000
 71
     1
 72
     1
  1
{\H0.81x;1}
 11
1.000000000000000
 21
0.0000000000000000
 31
0.0000000000000000
  7
STANDARD
  0
MTEXT
  5
50C
100
AcDbEntity
  8
WAKU0
  6
BYBLOCK
 62
0
100
AcDbMText
 10
244.0000000000073
 20
830.2000007629322
 30
0.0000000000000000
 40
6.200000762939453
 41
0.0000000000000000
 71
     1
 72
     1
  1
{\H0.81x;2}
 11
1.000000000000000
 21
0.0000000000000000
 31
0.0000000000000000
  7
STANDARD
  0
MTEXT
  5
50D
100
AcDbEntity
  8
WAKU0
  6
BYBLOCK
 62
0
100
AcDbMText
 10
384.0000000000073
 20
830.2000007629322
 30
0.0000000000000000
 40
6.200000762939453
 41
0.0000000000000000
 71
     1
 72
     1
  1
{\H0.81x;3}
 11
1.000000000000000
 21
0.0000000000000000
 31
0.0000000000000000
  7
STANDARD
  0
MTEXT
  5
50E
100
AcDbEntity
  8
WAKU0
  6
BYBLOCK
 62
0
100
AcDbMText
 10
524.0000000000000
 20
830.2000007629322
 30
0.0000000000000000
 40
6.200000762939453
 41
0.0000000000000000
 71
     1
 72
     1
  1
{\H0.81x;4}
 11
1.000000000000000
 21
0.0000000000000000
 31
0.0000000000000000
  7
STANDARD
  0
MTEXT
  5
50F
100
AcDbEntity
  8
WAKU0
  6
BYBLOCK
 62
0
100
AcDbMText
 10
663.9999999999996
 20
830.2000007629322
 30
0.0000000000000000
 40
6.200000762939453
 41
0.0000000000000000
 71
     1
 72
     1
  1
{\H0.81x;5}
 11
1.000000000000000
 21
0.0000000000000000
 31
0.0000000000000000
  7
STANDARD
  0
MTEXT
  5
510
100
AcDbEntity
  8
WAKU0
  6
BYBLOCK
 62
0
100
AcDbMText
 10
803.9999999999996
 20
830.2000007629322
 30
0.0000000000000000
 40
6.200000762939453
 41
0.0000000000000000
 71
     1
 72
     1
  1
{\H0.81x;6}
 11
1.000000000000000
 21
0.0000000000000000
 31
0.0000000000000000
  7
STANDARD
  0
MTEXT
  5
511
100
AcDbEntity
  8
WAKU0
  6
BYBLOCK
 62
0
100
AcDbMText
 10
943.9999999999996
 20
830.2000007629322
 30
0.0000000000000000
 40
6.200000762939453
 41
0.0000000000000000
 71
     1
 72
     1
  1
{\H0.81x;7}
 11
1.000000000000000
 21
0.0000000000000000
 31
0.0000000000000000
  7
STANDARD
  0
MTEXT
  5
512
100
AcDbEntity
  8
WAKU0
  6
BYBLOCK
 62
0
100
AcDbMText
 10
1089.000000000000
 20
830.2000007629322
 30
0.0000000000000000
 40
6.200000762939453
 41
0.0000000000000000
 71
     1
 72
     1
  1
{\H0.81x;8}
 11
1.000000000000000
 21
0.0000000000000000
 31
0.0000000000000000
  7
STANDARD
  0
MTEXT
  5
513
100
AcDbEntity
  8
WAKU0
  6
BYBLOCK
 62
0
100
AcDbMText
 10
42.00000000000364
 20
756.2000007629322
 30
0.0000000000000000
 40
6.200000762939453
 41
0.0000000000000000
 71
     1
 72
     1
  1
{\H0.81x;A}
 11
1.000000000000000
 21
0.0000000000000000
 31
0.0000000000000000
  7
STANDARD
  0
MTEXT
  5
514
100
AcDbEntity
  8
WAKU0
  6
BYBLOCK
 62
0
100
AcDbMText
 10
42.00000000000364
 20
626.2000007629322
 30
0.0000000000000000
 40
6.200000762939453
 41
0.0000000000000000
 71
     1
 72
     1
  1
{\H0.81x;B}
 11
1.000000000000000
 21
0.0000000000000000
 31
0.0000000000000000
  7
STANDARD
  0
MTEXT
  5
515
100
AcDbEntity
  8
WAKU0
  6
BYBLOCK
 62
0
100
AcDbMText
 10
42.00000000000364
 20
496.2000007629391
 30
0.0000000000000000
 40
6.200000762939453
 41
0.0000000000000000
 71
     1
 72
     1
  1
{\H0.81x;C}
 11
1.000000000000000
 21
0.0000000000000000
 31
0.0000000000000000
  7
STANDARD
  0
MTEXT
  5
516
100
AcDbEntity
  8
WAKU0
  6
BYBLOCK
 62
0
100
AcDbMText
 10
42.00000000000364
 20
366.2000007629391
 30
0.0000000000000000
 40
6.200000762939453
 41
0.0000000000000000
 71
     1
 72
     1
  1
{\H0.81x;D}
 11
1.000000000000000
 21
0.0000000000000000
 31
0.0000000000000000
  7
STANDARD
  0
MTEXT
  5
517
100
AcDbEntity
  8
WAKU0
  6
BYBLOCK
 62
0
100
AcDbMText
 10
42.00000000000364
 20
236.2000007629390
 30
0.0000000000000000
 40
6.200000762939453
 41
0.0000000000000000
 71
     1
 72
     1
  1
{\H0.81x;E}
 11
1.000000000000000
 21
0.0000000000000000
 31
0.0000000000000000
  7
STANDARD
  0
MTEXT
  5
518
100
AcDbEntity
  8
WAKU0
  6
BYBLOCK
 62
0
100
AcDbMText
 10
42.00000000000364
 20
106.2000007629390
 30
0.0000000000000000
 40
6.200000762939453
 41
0.0000000000000000
 71
     1
 72
     1
  1
{\H0.81x;F}
 11
1.000000000000000
 21
0.0000000000000000
 31
0.0000000000000000
  7
STANDARD
  0
MTEXT
  5
519
100
AcDbEntity
  8
WAKU0
  6
BYBLOCK
 62
0
100
AcDbMText
 10
1170.000000000000
 20
756.2000007629322
 30
0.0000000000000000
 40
6.200000762939453
 41
0.0000000000000000
 71
     1
 72
     1
  1
{\H0.81x;A}
 11
1.000000000000000
 21
0.0000000000000000
 31
0.0000000000000000
  7
STANDARD
  0
MTEXT
  5
51A
100
AcDbEntity
  8
WAKU0
  6
BYBLOCK
 62
0
100
AcDbMText
 10
1170.000000000000
 20
626.2000007629322
 30
0.0000000000000000
 40
6.200000762939453
 41
0.0000000000000000
 71
     1
 72
     1
  1
{\H0.81x;B}
 11
1.000000000000000
 21
0.0000000000000000
 31
0.0000000000000000
  7
STANDARD
  0
MTEXT
  5
51B
100
AcDbEntity
  8
WAKU0
  6
BYBLOCK
 62
0
100
AcDbMText
 10
1170.000000000000
 20
496.2000007629392
 30
0.0000000000000000
 40
6.200000762939453
 41
0.0000000000000000
 71
     1
 72
     1
  1
{\H0.81x;C}
 11
1.000000000000000
 21
0.0000000000000000
 31
0.0000000000000000
  7
STANDARD
  0
MTEXT
  5
51C
100
AcDbEntity
  8
WAKU0
  6
BYBLOCK
 62
0
100
AcDbMText
 10
1170.000000000000
 20
366.2000007629392
 30
0.0000000000000000
 40
6.200000762939453
 41
0.0000000000000000
 71
     1
 72
     1
  1
{\H0.81x;D}
 11
1.000000000000000
 21
0.0000000000000000
 31
0.0000000000000000
  7
STANDARD
  0
MTEXT
  5
51D
100
AcDbEntity
  8
WAKU0
  6
BYBLOCK
 62
0
100
AcDbMText
 10
1170.000000000000
 20
236.2000007629391
 30
0.0000000000000000
 40
6.200000762939453
 41
0.0000000000000000
 71
     1
 72
     1
  1
{\H0.81x;E}
 11
1.000000000000000
 21
0.0000000000000000
 31
0.0000000000000000
  7
STANDARD
  0
MTEXT
  5
51E
100
AcDbEntity
  8
WAKU0
  6
BYBLOCK
 62
0
100
AcDbMText
 10
1170.000000000000
 20
106.2000007629390
 30
0.0000000000000000
 40
6.200000762939453
 41
0.0000000000000000
 71
     1
 72
     1
  1
{\H0.81x;F}
 11
1.000000000000000
 21
0.0000000000000000
 31
0.0000000000000000
  7
STANDARD
  0
ENDBLK
  5
51F
100
AcDbEntity
  8
WAKU0
  6
BYBLOCK
 62
3
100
AcDbBlockEnd
  0
ENDSEC
  0
SECTION
  2
ENTITIES
  0
LINE
  5
46
100
AcDbEntity
  8
MAIN0
  6
CONTINUOUS
 62
3
100
AcDbLine
 10
323.0000000000001
 20
675.0000000000000
 30
0.0000000000000000
 11
237.0000000000000
 21
675.0000000000000
 31
0.0000000000000000
  0
LINE
  5
47
100
AcDbEntity
  8
MAIN0
  6
CONTINUOUS
 62
3
100
AcDbLine
 10
322.9999999999999
 20
324.9999999999999
 30
0.0000000000000000
 11
236.9999999999999
 21
325.0000000000000
 31
0.0000000000000000
  0
ARC
  5
48
100
AcDbEntity
  8
MAIN0
  6
CONTINUOUS
 62
3
100
AcDbCircle
 10
323.0000000000002
 20
673.0000000000000
 30
0.0000000000000000
 40
2.000000000000000
100
AcDbArc
 50
0.0000000000000000
 51
90.00000000000000
  0
ARC
  5
49
100
AcDbEntity
  8
MAIN0
  6
CONTINUOUS
 62
3
100
AcDbCircle
 10
322.9999999999999
 20
326.9999999999999
 30
0.0000000000000000
 40
2.000000000000000
100
AcDbArc
 50
270.0000000000000
 51
360.0000000000000
  0
LINE
  5
4A
100
AcDbEntity
  8
MAIN0
  6
CENTER
 62
3
100
AcDbLine
 10
460.0000000000000
 20
500.0000000000005
 30
0.0000000000000000
 11
840.0000000000000
 21
499.9999999999994
 31
0.0000000000000000
  0
ARC
  5
4B
100
AcDbEntity
  8
MAIN0
  6
CONTINUOUS
 62
3
100
AcDbCircle
 10
237.0000000000000
 20
673.0000000000000
 30
0.0000000000000000
 40
2.000000000000000
100
AcDbArc
 50
90.00000000000000
 51
180.0000000000000
  0
ARC
  5
4C
100
AcDbEntity
  8
MAIN0
  6
CONTINUOUS
 62
3
100
AcDbCircle
 10
236.9999999999999
 20
327.0000000000000
 30
0.0000000000000000
 40
2.000000000000000
100
AcDbArc
 50
180.0000000000000
 51
270.0000000000000
  0
LINE
  5
4D
100
AcDbEntity
  8
MAIN0
  6
CONTINUOUS
 62
3
100
AcDbLine
 10
252.0000000000000
 20
551.5000000000000
 30
0.0000000000000000
 11
248.5000312932062
 21
551.5000000000000
 31
0.0000000000000000
  0
LINE
  5
4E
100
AcDbEntity
  8
MAIN0
  6
CONTINUOUS
 62
3
100
AcDbLine
 10
234.9999999999999
 20
338.0000000000000
 30
0.0000000000000000
 11
246.8123530601096
 21
338.1845904441663
 31
0.0000000000000000
  0
LINE
  5
4F
100
AcDbEntity
  8
MAIN0
  6
CONTINUOUS
 62
3
100
AcDbLine
 10
237.0000000000000
 20
603.0000000000000
 30
0.0000000000000000
 11
237.0000000000000
 21
660.0000000000000
 31
0.0000000000000000
  0
LINE
  5
50
100
AcDbEntity
  8
MAIN0
  6
CONTINUOUS
 62
3
100
AcDbLine
 10
369.0000000000000
 20
517.5000000000000
 30
0.0000000000000000
 11
325.0000000000000
 21
517.5000000000000
 31
0.0000000000000000
  0
LINE
  5
51
100
AcDbEntity
  8
MAIN0
  6
CONTINUOUS
 62
3
100
AcDbLine
 10
368.9999999999999
 20
482.5000000000000
 30
0.0000000000000000
 11
325.0000000000000
 21
482.5000000000000
 31
0.0000000000000000
  0
LINE
  5
52
100
AcDbEntity
  8
MAIN0
  6
CONTINUOUS
 62
3
100
AcDbLine
 10
989.0000000000000
 20
715.9999999999840
 30
0.0000000000000000
 11
1011.000000000000
 21
715.9999999999754
 31
0.0000000000000000
  0
LINE
  5
53
100
AcDbEntity
  8
MAIN0
  6
CONTINUOUS
 62
3
100
AcDbLine
 10
986.9999999999843
 20
683.9999999999849
 30
0.0000000000000000
 11
1012.999999999984
 21
683.9999999999747
 31
0.0000000000000000
  0
LINE
  5
54
100
AcDbEntity
  8
MAIN0
  6
CONTINUOUS
 62
3
100
AcDbLine
 10
987.0000000000000
 20
692.9999999999849
 30
0.0000000000000000
 11
987.0000000000000
 21
683.9999999999849
 31
0.0000000000000000
  0
LINE
  5
55
100
AcDbEntity
  8
MAIN0
  6
CONTINUOUS
 62
3
100
AcDbLine
 10
987.0000000000000
 20
713.9999999999848
 30
0.0000000000000000
 11
987.0000000000000
 21
706.9999999999848
 31
0.0000000000000000
  0
LINE
  5
56
100
AcDbEntity
  8
MAIN0
  6
CONTINUOUS
 62
3
100
AcDbLine
 10
1013.000000000000
 20
692.9999999999748
 30
0.0000000000000000
 11
1013.000000000000
 21
683.9999999999747
 31
0.0000000000000000
  0
LINE
  5
57
100
AcDbEntity
  8
MAIN0
  6
CONTINUOUS
 62
3
100
AcDbLine
 10
1013.000000000000
 20
713.9999999999747
 30
0.0000000000000000
 11
1013.000000000000
 21
706.9999999999745
 31
0.0000000000000000
  0
LINE
  5
58
100
AcDbEntity
  8
MAIN0
  6
CENTER
 62
3
100
AcDbLine
 10
1015.000000000000
 20
519.9999999999934
 30
0.0000000000000000
 11
984.9999999999997
 21
520.0000000000066
 31
0.0000000000000000
  0
LINE
  5
59
100
AcDbEntity
  8
MAIN0
  6
HIDDEN
 62
3
100
AcDbLine
 10
987.0000000000000
 20
706.9999999999848
 30
0.0000000000000000
 11
1013.000000000000
 21
706.9999999999745
 31
0.0000000000000000
  0
LINE
  5
5A
100
AcDbEntity
  8
MAIN0
  6
HIDDEN
 62
3
100
AcDbLine
 10
987.0000000000000
 20
692.9999999999849
 30
0.0000000000000000
 11
1013.000000000000
 21
692.9999999999748
 31
0.0000000000000000
  0
LINE
  5
5B
100
AcDbEntity
  8
MAIN0
  6
CENTER
 62
3
100
AcDbLine
 10
779.9999999993318
 20
630.0000000006681
 30
0.0000000000000000
 11
686.8932963078125
 21
536.8932963090035
 31
0.0000000000000000
  0
POINT
  5
5C
100
AcDbEntity
  8
MAIN0
  6
CONTINUOUS
 62
3
100
AcDbPoint
 10
543.9339828212935
 20
606.0660171774073
 30
0.0000000000000000
  0
LINE
  5
5D
100
AcDbEntity
  8
MAIN0
  6
CENTER
 62
3
100
AcDbLine
 10
330.0000000000000
 20
344.9999999999999
 30
0.0000000000000000
 11
320.0000000000000
 21
344.9999999999999
 31
0.0000000000000000
  0
LINE
  5
5E
100
AcDbEntity
  8
MAIN0
  6
CENTER
 62
3
100
AcDbLine
 10
330.0000000000000
 20
364.9999999999999
 30
0.0000000000000000
 11
320.0000000000000
 21
364.9999999999999
 31
0.0000000000000000
  0
LINE
  5
5F
100
AcDbEntity
  8
MAIN0
  6
CENTER
 62
3
100
AcDbLine
 10
330.0000000000000
 20
385.0000000000000
 30
0.0000000000000000
 11
320.0000000000000
 21
385.0000000000000
 31
0.0000000000000000
  0
LINE
  5
60
100
AcDbEntity
  8
MAIN0
  6
CENTER
 62
3
100
AcDbLine
 10
330.0000000000000
 20
405.0000000000000
 30
0.0000000000000000
 11
320.0000000000000
 21
405.0000000000000
 31
0.0000000000000000
  0
LINE
  5
61
100
AcDbEntity
  8
MAIN0
  6
CENTER
 62
3
100
AcDbLine
 10
330.0000000000000
 20
425.0000000000000
 30
0.0000000000000000
 11
320.0000000000000
 21
425.0000000000000
 31
0.0000000000000000
  0
LINE
  5
62
100
AcDbEntity
  8
MAIN0
  6
CENTER
 62
3
100
AcDbLine
 10
330.0000000000000
 20
445.0000000000000
 30
0.0000000000000000
 11
320.0000000000000
 21
445.0000000000000
 31
0.0000000000000000
  0
LINE
  5
63
100
AcDbEntity
  8
MAIN0
  6
CONTINUOUS
 62
3
100
AcDbLine
 10
324.9999999999998
 20
444.5000000000435
 30
0.0000000000000000
 11
324.1339745964831
 21
444.9999999998886
 31
0.0000000000000000
  0
LINE
  5
64
100
AcDbEntity
  8
MAIN0
  6
CONTINUOUS
 62
3
100
AcDbLine
 10
325.0000000000000
 20
445.4999999997343
 30
0.0000000000000000
 11
324.1339745964827
 21
444.9999999998885
 31
0.0000000000000000
  0
LINE
  5
65
100
AcDbEntity
  8
MAIN0
  6
CONTINUOUS
 62
3
100
AcDbLine
 10
324.9999999999998
 20
424.5000000000435
 30
0.0000000000000000
 11
324.1339745964831
 21
424.9999999998887
 31
0.0000000000000000
  0
LINE
  5
66
100
AcDbEntity
  8
MAIN0
  6
CONTINUOUS
 62
3
100
AcDbLine
 10
325.0000000000000
 20
425.4999999997342
 30
0.0000000000000000
 11
324.1339745964828
 21
424.9999999998885
 31
0.0000000000000000
  0
LINE
  5
67
100
AcDbEntity
  8
MAIN0
  6
CONTINUOUS
 62
3
100
AcDbLine
 10
324.9999999999998
 20
404.5000000000435
 30
0.0000000000000000
 11
324.1339745964831
 21
404.9999999998887
 31
0.0000000000000000
  0
LINE
  5
68
100
AcDbEntity
  8
MAIN0
  6
CONTINUOUS
 62
3
100
AcDbLine
 10
325.0000000000000
 20
405.4999999997343
 30
0.0000000000000000
 11
324.1339745964827
 21
404.9999999998885
 31
0.0000000000000000
  0
LINE
  5
69
100
AcDbEntity
  8
MAIN0
  6
CONTINUOUS
 62
3
100
AcDbLine
 10
324.9999999999997
 20
384.5000000000435
 30
0.0000000000000000
 11
324.1339745964830
 21
384.9999999998887
 31
0.0000000000000000
  0
LINE
  5
6A
100
AcDbEntity
  8
MAIN0
  6
CONTINUOUS
 62
3
100
AcDbLine
 10
324.9999999999999
 20
385.4999999997342
 30
0.0000000000000000
 11
324.1339745964826
 21
384.9999999998885
 31
0.0000000000000000
  0
LINE
  5
6B
100
AcDbEntity
  8
MAIN0
  6
CONTINUOUS
 62
3
100
AcDbLine
 10
324.9999999999996
 20
364.5000000000435
 30
0.0000000000000000
 11
324.1339745964829
 21
364.9999999998888
 31
0.0000000000000000
  0
LINE
  5
6C
100
AcDbEntity
  8
MAIN0
  6
CONTINUOUS
 62
3
100
AcDbLine
 10
324.9999999999999
 20
365.4999999997342
 30
0.0000000000000000
 11
324.1339745964827
 21
364.9999999998884
 31
0.0000000000000000
  0
LINE
  5
6D
100
AcDbEntity
  8
MAIN0
  6
CONTINUOUS
 62
3
100
AcDbLine
 10
324.9999999999996
 20
344.5000000000435
 30
0.0000000000000000
 11
324.1339745964829
 21
344.9999999998887
 31
0.0000000000000000
  0
LINE
  5
6E
100
AcDbEntity
  8
MAIN0
  6
CONTINUOUS
 62
3
100
AcDbLine
 10
324.9999999999999
 20
345.4999999997342
 30
0.0000000000000000
 11
324.1339745964827
 21
344.9999999998885
 31
0.0000000000000000
  0
LINE
  5
6F
100
AcDbEntity
  8
MAIN0
  6
CONTINUOUS
 62
3
100
AcDbLine
 10
325.0000000000000
 20
385.4999999997343
 30
0.0000000000000000
 11
325.0000000000000
 21
379.5000000000433
 31
0.0000000000000000
  0
LINE
  5
70
100
AcDbEntity
  8
MAIN0
  6
CONTINUOUS
 62
3
100
AcDbLine
 10
324.9999999999999
 20
365.4999999997342
 30
0.0000000000000000
 11
324.9999999999999
 21
384.5000000000433
 31
0.0000000000000000
  0
LINE
  5
71
100
AcDbEntity
  8
MAIN0
  6
CONTINUOUS
 62
3
100
AcDbLine
 10
324.9999999999999
 20
326.9999999999999
 30
0.0000000000000000
 11
324.9999999999999
 21
344.5000000000432
 31
0.0000000000000000
  0
LINE
  5
72
100
AcDbEntity
  8
MAIN0
  6
CONTINUOUS
 62
3
100
AcDbLine
 10
325.0000000000000
 20
345.4999999997342
 30
0.0000000000000000
 11
325.0000000000000
 21
364.5000000000432
 31
0.0000000000000000
  0
LINE
  5
73
100
AcDbEntity
  8
MAIN0
  6
CENTER
 62
3
100
AcDbLine
 10
650.0000000000006
 20
690.0000000000000
 30
0.0000000000000000
 11
649.9999999999994
 21
310.0000000000000
 31
0.0000000000000000
  0
POINT
  5
74
100
AcDbEntity
  8
MAIN0
  6
CONTINUOUS
 62
3
100
AcDbPoint
 10
235.0000000000000
 20
569.8594999996625
 30
0.0000000000000000
  0
LINE
  5
75
100
AcDbEntity
  8
MAIN0
  6
CONTINUOUS
 62
3
100
AcDbLine
 10
989.0000000000000
 20
715.9999999999841
 30
0.0000000000000000
 11
987.0000000000002
 21
713.9999999999849
 31
0.0000000000000000
  0
LINE
  5
76
100
AcDbEntity
  8
MAIN0
  6
CONTINUOUS
 62
3
100
AcDbLine
 10
1011.000000000000
 20
715.9999999999752
 30
0.0000000000000000
 11
1013.000000000000
 21
713.9999999999745
 31
0.0000000000000000
  0
LINE
  5
77
100
AcDbEntity
  8
MAIN0
  6
CONTINUOUS
 62
3
100
AcDbLine
 10
1013.000000000000
 20
713.9999999999159
 30
0.0000000000000000
 11
987.0000000000002
 21
713.9999999999084
 31
0.0000000000000000
  0
POINT
  5
78
100
AcDbEntity
  8
MAIN0
  6
CONTINUOUS
 62
3
100
AcDbPoint
 10
1100.000000000003
 20
699.9999999999407
 30
0.0000000000000000
  0
ARC
  5
79
100
AcDbEntity
  8
MAIN0
  6
CONTINUOUS
 62
3
100
AcDbCircle
 10
938.9813855155084
 20
704.0000000000042
 30
0.0000000000000000
 40
5.999999999999968
100
AcDbArc
 50
149.9999999999834
 51
221.8103148957784
  0
ARC
  5
7A
100
AcDbEntity
  8
MAIN0
  6
CONTINUOUS
 62
3
100
AcDbCircle
 10
944.9813855155084
 20
704.0000000000042
 30
0.0000000000000000
 40
5.999999999999968
100
AcDbArc
 50
150.0000000000097
 51
221.8103148957784
  0
ARC
  5
7B
100
AcDbEntity
  8
MAIN0
  6
CONTINUOUS
 62
3
100
AcDbCircle
 10
930.0371136055093
 20
696.0000000000043
 30
0.0000000000000000
 40
5.999999999999968
100
AcDbArc
 50
330.0000000000097
 51
401.8103148957786
  0
ARC
  5
7C
100
AcDbEntity
  8
MAIN0
  6
CONTINUOUS
 62
3
100
AcDbCircle
 10
936.0371136055093
 20
696.0000000000043
 30
0.0000000000000000
 40
5.999999999999968
100
AcDbArc
 50
329.9999999999835
 51
401.8103148957786
  0
POINT
  5
7D
100
AcDbEntity
  8
MAIN0
  6
CONTINUOUS
 62
3
100
AcDbPoint
 10
650.0000000000000
 20
500.0000000000000
 30
0.0000000000000000
  0
LINE
  5
7E
100
AcDbEntity
  8
MAIN0
  6
CONTINUOUS
 62
3
100
AcDbLine
 10
867.4999999999346
 20
362.4999999997171
 30
0.0000000000000000
 11
794.9999999997363
 21
289.9999999999201
 31
0.0000000000000000
  0
MTEXT
  5
7F
100
AcDbEntity
  8
MAIN0
  6
CONTINUOUS
 62
3
100
AcDbMText
 10
772.3514555456177
 20
402.2720385784954
 30
0.0000000000000000
 40
10.00000000000000
 41
0.0000000000000000
 71
     1
 72
     1
  1
{\H0.82x;{C}}
 11
0.7071067811887715
 21
0.7071067811843236
 31
0.0000000000000000
  7
STANDARD
  0
LINE
  5
80
100
AcDbEntity
  8
MAIN0
  6
PHANTOM
 62
3
100
AcDbLine
 10
736.4701026244809
 20
387.0700103662193
 30
0.0000000000000000
 11
761.9123435072952
 21
412.5122512488736
 31
0.0000000000000000
  0
MTEXT
  5
81
100
AcDbEntity
  8
MAIN0
  6
CONTINUOUS
 62
3
100
AcDbMText
 10
739.9138168472734
 20
368.1912320218066
 30
0.0000000000000000
 40
10.00000000000000
 41
0.0000000000000000
 71
     1
 72
     1
  1
{\H0.89x;{C’}}
 11
0.7071067811887715
 21
0.7071067811843236
 31
0.0000000000000000
  7
KNJYOKO
  0
MTEXT
  5
82
100
AcDbEntity
  8
MAIN0
  6
CONTINUOUS
 62
3
100
AcDbMText
 10
826.4526619755590
 20
222.8558314342826
 30
0.0000000000000000
 40
10.00000000000000
 41
0.0000000000000000
 71
     1
 72
     1
  1
{\H0.93x;{Ｃ－Ｃ’断面}}
 11
1.000000000000000
 21
-2.766920706725720e-012
 31
0.0000000000000000
  7
KNJYOKO
  0
MTEXT
  5
83
100
AcDbEntity
  8
MAIN0
  6
CONTINUOUS
 62
3
100
AcDbMText
 10
626.7054079265728
 20
664.7854841373712
 30
0.0000000000000000
 40
6.199999809265137
 41
0.0000000000000000
 71
     1
 72
     1
  1
{\H0.81x;{2}}
 11
-1.000000000000000
 21
1.010643099614861e-015
 31
0.0000000000000000
  7
STANDARD
  0
MTEXT
  5
84
100
AcDbEntity
  8
MAIN0
  6
CONTINUOUS
 62
3
100
AcDbMText
 10
813.0043297758672
 20
524.4564325124035
 30
0.0000000000000000
 40
6.199999809265137
 41
0.0000000000000000
 71
     1
 72
     1
  1
{\H0.81x;{3}}
 11
6.123233995736766e-017
 21
1.000000000000000
 31
0.0000000000000000
  7
STANDARD
  0
POINT
  5
85
100
AcDbEntity
  8
MAIN0
  6
CONTINUOUS
 62
3
100
AcDbPoint
 10
234.9999999999999
 20
338.0000000000000
 30
0.0000000000000000
  0
LINE
  5
86
100
AcDbEntity
  8
MAIN0
  6
CONTINUOUS
 62
3
100
AcDbLine
 10
234.9999999999999
 20
414.0000000000000
 30
0.0000000000000000
 11
236.9999999999999
 21
414.0000000000000
 31
0.0000000000000000
  0
ARC
  5
87
100
AcDbEntity
  8
MAIN0
  6
CONTINUOUS
 62
3
100
AcDbCircle
 10
734.1457069622828
 20
584.1457069610171
 30
0.0000000000000000
 40
7.999999999999963
100
AcDbArc
 50
134.9999999999553
 51
314.9999999999546
  0
ARC
  5
88
100
AcDbEntity
  8
MAIN0
  6
CONTINUOUS
 62
3
100
AcDbCircle
 10
752.5304832731475
 20
602.5304832718530
 30
0.0000000000000000
 40
8.000000000000011
100
AcDbArc
 50
314.9999999999556
 51
494.9999999999548
  0
LINE
  5
89
100
AcDbEntity
  8
MAIN0
  6
CONTINUOUS
 62
3
100
AcDbLine
 10
746.8736290236595
 20
608.1873375213496
 30
0.0000000000000000
 11
728.4888527127948
 21
589.8025612105138
 31
0.0000000000000000
  0
LINE
  5
8A
100
AcDbEntity
  8
MAIN0
  6
CONTINUOUS
 62
3
100
AcDbLine
 10
758.1873375226354
 20
596.8736290223560
 30
0.0000000000000000
 11
739.8025612117707
 21
578.4888527115202
 31
0.0000000000000000
  0
LINE
  5
8B
100
AcDbEntity
  8
MAIN0
  6
CONTINUOUS
 62
3
100
AcDbLine
 10
553.1263709763409
 20
608.1873375213504
 30
0.0000000000000000
 11
571.5111472872056
 21
589.8025612105143
 31
0.0000000000000000
  0
ARC
  5
8C
100
AcDbEntity
  8
MAIN0
  6
CONTINUOUS
 62
3
100
AcDbCircle
 10
565.8542930377176
 20
584.1457069610176
 30
0.0000000000000000
 40
7.999999999999963
100
AcDbArc
 50
225.0000000000451
 51
405.0000000000444
  0
LINE
  5
8D
100
AcDbEntity
  8
MAIN0
  6
CONTINUOUS
 62
3
100
AcDbLine
 10
541.8126624773651
 20
596.8736290223568
 30
0.0000000000000000
 11
560.1974387882297
 21
578.4888527115207
 31
0.0000000000000000
  0
ARC
  5
8E
100
AcDbEntity
  8
MAIN0
  6
CONTINUOUS
 62
3
100
AcDbCircle
 10
547.4695167268530
 20
602.5304832718537
 30
0.0000000000000000
 40
8.000000000000011
100
AcDbArc
 50
45.00000000004489
 51
225.0000000000441
  0
POINT
  5
8F
100
AcDbEntity
  8
MAIN0
  6
CONTINUOUS
 62
3
100
AcDbPoint
 10
234.9999999999999
 20
395.0000000000000
 30
0.0000000000000000
  0
POINT
  5
90
100
AcDbEntity
  8
MAIN0
  6
CONTINUOUS
 62
3
100
AcDbPoint
 10
746.1665222424638
 20
596.1665222411791
 30
0.0000000000000000
  0
LINE
  5
91
100
AcDbEntity
  8
MAIN0
  6
CONTINUOUS
 62
3
100
AcDbLine
 10
237.0000000000001
 20
413.0000000000000
 30
0.0000000000000000
 11
258.4065505202092
 21
412.6295910508399
 31
0.0000000000000000
  0
LINE
  5
92
100
AcDbEntity
  8
MAIN0
  6
CONTINUOUS
 62
3
100
AcDbLine
 10
235.0000000000000
 20
586.0000000000000
 30
0.0000000000000000
 11
237.0000000000000
 21
586.0000000000000
 31
0.0000000000000000
  0
LINE
  5
93
100
AcDbEntity
  8
MAIN0
  6
CONTINUOUS
 62
3
100
AcDbLine
 10
237.0000000000000
 20
605.0273972602739
 30
0.0000000000000000
 11
237.0000000000000
 21
586.0000000000000
 31
0.0000000000000000
  0
ARC
  5
94
100
AcDbEntity
  8
MAIN0
  6
CONTINUOUS
 62
3
100
AcDbCircle
 10
235.0000000000000
 20
660.0000000000000
 30
0.0000000000000000
 40
2.000000000000000
100
AcDbArc
 50
0.0000000000000000
 51
90.00000000000000
  0
LINE
  5
95
100
AcDbEntity
  8
MAIN0
  6
CONTINUOUS
 62
3
100
AcDbLine
 10
875.5832611198191
 20
302.7010101258353
 30
0.0000000000000000
 11
847.2989898722790
 21
274.4167388784516
 31
0.0000000000000000
  0
LINE
  5
96
100
AcDbEntity
  8
MAIN0
  6
CENTER
 62
3
100
AcDbLine
 10
807.4999999993074
 20
342.4999999993113
 30
0.0000000000000000
 11
649.9999999994334
 21
499.9999999994333
 31
0.0000000000000000
  0
LINE
  5
97
100
AcDbEntity
  8
MAIN0
  6
CENTER
 62
3
100
AcDbLine
 10
867.4999999990934
 20
282.4999999990973
 30
0.0000000000000000
 11
822.8825241304960
 21
327.1174758677648
 31
0.0000000000000000
  0
LINE
  5
98
100
AcDbEntity
  8
MAIN0
  6
CONTINUOUS
 62
3
100
AcDbLine
 10
869.9264068703166
 20
299.8725830011092
 30
0.0000000000000000
 11
850.1274169971115
 21
319.6715728743454
 31
0.0000000000000000
  0
LINE
  5
99
100
AcDbEntity
  8
MAIN0
  6
CONTINUOUS
 62
3
100
AcDbLine
 10
850.1274169970391
 20
280.0735931279404
 30
0.0000000000000000
 11
830.3284271238342
 21
299.8725830011765
 31
0.0000000000000000
  0
LINE
  5
9A
100
AcDbEntity
  8
MAIN0
  6
CONTINUOUS
 62
3
100
AcDbLine
 10
875.5832611198257
 20
306.9436508129588
 30
0.0000000000000000
 11
859.3198051524832
 21
323.2071067803270
 31
0.0000000000000000
  0
LINE
  5
9B
100
AcDbEntity
  8
MAIN0
  6
CONTINUOUS
 62
3
100
AcDbLine
 10
843.0563491851633
 20
274.4167388784592
 30
0.0000000000000000
 11
826.7928932178699
 21
290.6801948457780
 31
0.0000000000000000
  0
ARC
  5
9C
100
AcDbEntity
  8
MAIN0
  6
CONTINUOUS
 62
3
100
AcDbCircle
 10
873.4619407762644
 20
304.8223304694009
 30
0.0000000000000000
 40
3.000000000000000
100
AcDbArc
 50
314.9999999998415
 51
404.9999999999548
  0
ARC
  5
9D
100
AcDbEntity
  8
MAIN0
  6
CONTINUOUS
 62
3
100
AcDbCircle
 10
845.1776695287244
 20
276.5380592220173
 30
0.0000000000000000
 40
3.000000000000000
100
AcDbArc
 50
224.9999999999543
 51
314.9999999998411
  0
ARC
  5
9E
100
AcDbEntity
  8
MAIN0
  6
CONTINUOUS
 62
3
100
AcDbCircle
 10
848.7132034346646
 20
278.6593795655683
 30
0.0000000000000000
 40
2.000000000000000
100
AcDbArc
 50
314.9999999998411
 51
404.9999999999545
  0
ARC
  5
9F
100
AcDbEntity
  8
MAIN0
  6
CONTINUOUS
 62
3
100
AcDbCircle
 10
871.3406204326968
 20
301.2867965634754
 30
0.0000000000000000
 40
2.000000000000000
100
AcDbArc
 50
224.9999999999545
 51
314.9999999998405
  0
LINE
  5
A0
100
AcDbEntity
  8
MAIN0
  6
CONTINUOUS
 62
3
100
AcDbLine
 10
850.1274169971121
 20
319.6715728743450
 30
0.0000000000000000
 11
830.3284271238342
 21
299.8725830011765
 31
0.0000000000000000
  0
LINE
  5
A1
100
AcDbEntity
  8
MAIN0
  6
CONTINUOUS
 62
3
100
AcDbLine
 10
815.4791847188963
 20
290.6801948457982
 30
0.0000000000000000
 11
802.1690223945084
 21
277.3700325214844
 31
0.0000000000000000
  0
ARC
  5
A2
100
AcDbEntity
  8
MAIN0
  6
CONTINUOUS
 62
3
100
AcDbCircle
 10
821.1360389683730
 20
285.0233405962902
 30
0.0000000000000000
 40
8.000000000000000
100
AcDbArc
 50
44.99999999995481
 51
134.9999999998414
  0
ARC
  5
A3
100
AcDbEntity
  8
MAIN0
  6
CONTINUOUS
 62
3
100
AcDbCircle
 10
864.9766594019807
 20
328.8639610298151
 30
0.0000000000000000
 40
8.000000000000000
100
AcDbArc
 50
135.0000000000686
 51
224.9999999999551
  0
LINE
  5
A4
100
AcDbEntity
  8
MAIN0
  6
CONTINUOUS
 62
3
100
AcDbLine
 10
859.3198051524817
 20
334.5208152793005
 30
0.0000000000000000
 11
876.0332195547471
 21
351.2342296816562
 31
0.0000000000000000
  0
LINE
  5
A5
100
AcDbEntity
  8
MAIN0
  6
CONTINUOUS
 62
3
100
AcDbLine
 10
828.9142135614335
 20
281.4878066903541
 30
0.0000000000000000
 11
812.3556647167653
 21
264.9292578457780
 31
0.0000000000000000
  0
ARC
  5
A6
100
AcDbEntity
  8
MAIN0
  6
CONTINUOUS
 62
3
100
AcDbCircle
 10
832.4497474673564
 20
277.9522727844117
 30
0.0000000000000000
 40
5.000000000000000
100
AcDbArc
 50
44.99999999995509
 51
134.9999999998404
  0
ARC
  5
A7
100
AcDbEntity
  8
MAIN0
  6
CONTINUOUS
 62
3
100
AcDbCircle
 10
872.0477272138414
 20
317.5502525308207
 30
0.0000000000000000
 40
5.000000000000000
100
AcDbArc
 50
135.0000000000695
 51
224.9999999999548
  0
LINE
  5
A8
100
AcDbEntity
  8
MAIN0
  6
CONTINUOUS
 62
3
100
AcDbLine
 10
868.5121933079040
 20
321.0857864367491
 30
0.0000000000000000
 11
883.3999109248632
 21
335.9735040537747
 31
0.0000000000000000
  0
CIRCLE
  5
A9
100
AcDbEntity
  8
MAIN0
  6
CONTINUOUS
 62
3
100
AcDbCircle
 10
650.0000000000000
 20
500.0000000000000
 30
0.0000000000000000
 40
175.0000000000000
  0
POINT
  5
AA
100
AcDbEntity
  8
MAIN0
  6
CONTINUOUS
 62
3
100
AcDbPoint
 10
773.7436867083100
 20
623.7436867069816
 30
0.0000000000000000
  0
POINT
  5
AB
100
AcDbEntity
  8
MAIN0
  6
CONTINUOUS
 62
3
100
AcDbPoint
 10
758.1873375226445
 20
608.1873375213409
 30
0.0000000000000000
  0
POINT
  5
AC
100
AcDbEntity
  8
MAIN0
  6
CONTINUOUS
 62
3
100
AcDbPoint
 10
728.4888527127862
 20
578.4888527115293
 30
0.0000000000000000
  0
MTEXT
  5
AD
100
AcDbEntity
  8
MAIN0
  6
CONTINUOUS
 62
3
100
AcDbMText
 10
627.5000000000000
 20
702.5000000000000
 30
0.0000000000000000
 40
10.00000000000000
 41
0.0000000000000000
 71
     1
 72
     1
  1
{\H0.82x;{A}}
 11
1.000000000000000
 21
-4.685821458330097e-015
 31
0.0000000000000000
  7
STANDARD
  0
MTEXT
  5
AE
100
AcDbEntity
  8
MAIN0
  6
CONTINUOUS
 62
3
100
AcDbMText
 10
640.0000000000000
 20
515.0000000000000
 30
0.0000000000000000
 40
10.00000000000000
 41
0.0000000000000000
 71
     1
 72
     1
  1
{\H0.82x;{O}}
 11
1.000000000000000
 21
0.0000000000000000
 31
0.0000000000000000
  7
STANDARD
  0
MTEXT
  5
AF
100
AcDbEntity
  8
MAIN0
  6
CONTINUOUS
 62
3
100
AcDbMText
 10
786.4999999998331
 20
341.4999999998371
 30
0.0000000000000000
 40
10.00000000000000
 41
0.0000000000000000
 71
     1
 72
     1
  1
{\H0.82x;{B}}
 11
1.000000000000000
 21
0.0000000000000000
 31
0.0000000000000000
  7
STANDARD
  0
MTEXT
  5
B0
100
AcDbEntity
  8
MAIN2
  6
CONTINUOUS
 62
3
100
AcDbMText
 10
227.5000000000000
 20
302.5000000000000
 30
0.0000000000000000
 40
10.00000000000000
 41
0.0000000000000000
 71
     1
 72
     1
  1
{\H0.93x;{Ａ－Ｏ－Ｂ　断面}}
 11
1.000000000000000
 21
0.0000000000000000
 31
0.0000000000000000
  7
KNJYOKO
  0
LINE
  5
B1
100
AcDbEntity
  8
MAIN0
  6
CONTINUOUS
 62
3
100
AcDbLine
 10
225.0000000000000
 20
290.0000000000000
 30
0.0000000000000000
 11
320.0000000000000
 21
290.0000000000000
 31
0.0000000000000000
  0
LINE
  5
B2
100
AcDbEntity
  8
MAIN0
  6
CONTINUOUS
 62
3
100
AcDbLine
 10
894.0659626831243
 20
209.9999999997248
 30
0.0000000000000000
 11
824.9999999998292
 21
209.9999999998292
 31
0.0000000000000000
  0
ARC
  5
B3
100
AcDbEntity
  8
MAIN0
  6
PHANTOM
 62
3
100
AcDbCircle
 10
650.0000000000000
 20
500.0000000000000
 30
0.0000000000000000
 40
155.0000000000000
100
AcDbArc
 50
7.413673801525571
 51
82.58632619847408
  0
ARC
  5
B4
100
AcDbEntity
  8
MAIN0
  6
PHANTOM
 62
3
100
AcDbCircle
 10
650.0000000000000
 20
500.0000000000000
 30
0.0000000000000000
 40
155.0000000000000
100
AcDbArc
 50
97.41367380152560
 51
172.5863261984741
  0
ARC
  5
B5
100
AcDbEntity
  8
MAIN0
  6
PHANTOM
 62
3
100
AcDbCircle
 10
650.0000000000000
 20
500.0000000000000
 30
0.0000000000000000
 40
135.0000000000000
100
AcDbArc
 50
98.51962425414287
 51
131.6027042079742
  0
ARC
  5
B6
100
AcDbEntity
  8
MAIN0
  6
PHANTOM
 62
3
100
AcDbCircle
 10
650.0000000000000
 20
500.0000000000000
 30
0.0000000000000000
 40
135.0000000000000
100
AcDbArc
 50
138.3972957927967
 51
171.4803757458568
  0
ARC
  5
B7
100
AcDbEntity
  8
MAIN0
  6
PHANTOM
 62
3
100
AcDbCircle
 10
650.0000000000000
 20
500.0000000000000
 30
0.0000000000000000
 40
115.0000000000000
100
AcDbArc
 50
100.0154101682505
 51
131.6062148836668
  0
ARC
  5
B8
100
AcDbEntity
  8
MAIN0
  6
PHANTOM
 62
3
100
AcDbCircle
 10
650.0000000000000
 20
500.0000000000000
 30
0.0000000000000000
 40
115.0000000000000
100
AcDbArc
 50
138.3937851171943
 51
169.9845898317492
  0
ARC
  5
B9
100
AcDbEntity
  8
MAIN0
  6
PHANTOM
 62
3
100
AcDbCircle
 10
650.0000000000000
 20
500.0000000000000
 30
0.0000000000000000
 40
75.00000000000000
100
AcDbArc
 50
105.4660099534204
 51
131.2913144598006
  0
ARC
  5
BA
100
AcDbEntity
  8
MAIN0
  6
PHANTOM
 62
3
100
AcDbCircle
 10
650.0000000000000
 20
500.0000000000000
 30
0.0000000000000000
 40
75.00000000000000
100
AcDbArc
 50
138.7086855391964
 51
164.5339900465794
  0
ARC
  5
BB
100
AcDbEntity
  8
MAIN0
  6
PHANTOM
 62
3
100
AcDbCircle
 10
650.0000000000000
 20
500.0000000000000
 30
0.0000000000000000
 40
135.0000000000000
100
AcDbArc
 50
8.519624254142878
 51
41.60270420720283
  0
ARC
  5
BC
100
AcDbEntity
  8
MAIN0
  6
PHANTOM
 62
3
100
AcDbCircle
 10
650.0000000000000
 20
500.0000000000000
 30
0.0000000000000000
 40
135.0000000000000
100
AcDbArc
 50
48.39729579202550
 51
81.48037574585682
  0
ARC
  5
BD
100
AcDbEntity
  8
MAIN0
  6
PHANTOM
 62
3
100
AcDbCircle
 10
650.0000000000000
 20
500.0000000000000
 30
0.0000000000000000
 40
115.0000000000000
100
AcDbArc
 50
10.01541016825048
 51
41.60621488280534
  0
ARC
  5
BE
100
AcDbEntity
  8
MAIN0
  6
PHANTOM
 62
3
100
AcDbCircle
 10
650.0000000000000
 20
500.0000000000000
 30
0.0000000000000000
 40
115.0000000000000
100
AcDbArc
 50
48.39378511633291
 51
79.98458983174911
  0
ARC
  5
BF
100
AcDbEntity
  8
MAIN0
  6
PHANTOM
 62
3
100
AcDbCircle
 10
650.0000000000000
 20
500.0000000000000
 30
0.0000000000000000
 40
75.00000000000000
100
AcDbArc
 50
15.46600995342030
 51
41.29131445980056
  0
ARC
  5
C0
100
AcDbEntity
  8
MAIN0
  6
PHANTOM
 62
3
100
AcDbCircle
 10
650.0000000000000
 20
500.0000000000000
 30
0.0000000000000000
 40
75.00000000000000
100
AcDbArc
 50
48.70868553919637
 51
74.53399004657929
  0
LINE
  5
C1
100
AcDbEntity
  8
MAIN0
  6
CONTINUOUS
 62
3
100
AcDbLine
 10
649.9999999994714
 20
499.9999999994714
 30
0.0000000000000000
 11
657.4999999994724
 21
492.4999999994735
 31
0.0000000000000000
  0
POINT
  5
C2
100
AcDbEntity
  8
MAIN0
  6
CONTINUOUS
 62
3
100
AcDbPoint
 10
791.2000000000080
 20
499.9999999972901
 30
0.0000000000000000
  0
POINT
  5
C3
100
AcDbEntity
  8
MAIN0
  6
CONTINUOUS
 62
3
100
AcDbPoint
 10
715.0000000000001
 20
499.9999999975294
 30
0.0000000000000000
  0
LINE
  5
C4
100
AcDbEntity
  8
MAIN0
  6
CONTINUOUS
 62
3
100
AcDbLine
 10
370.0000000000000
 20
483.4999999999999
 30
0.0000000000000000
 11
370.0000000000000
 21
516.5000000000000
 31
0.0000000000000000
  0
POINT
  5
C5
100
AcDbEntity
  8
MAIN0
  6
CONTINUOUS
 62
3
100
AcDbPoint
 10
650.0000000000003
 20
616.5999999986415
 30
0.0000000000000000
  0
LINE
  5
C6
100
AcDbEntity
  8
MAIN0
  6
CONTINUOUS
 62
3
100
AcDbLine
 10
324.9999999999999
 20
380.4999999997343
 30
0.0000000000000000
 11
325.0000000000000
 21
404.5000000000435
 31
0.0000000000000000
  0
LINE
  5
C7
100
AcDbEntity
  8
MAIN0
  6
CONTINUOUS
 62
3
100
AcDbLine
 10
324.9999999999999
 20
405.4999999997343
 30
0.0000000000000000
 11
325.0000000000000
 21
424.5000000000435
 31
0.0000000000000000
  0
LINE
  5
C8
100
AcDbEntity
  8
MAIN0
  6
CONTINUOUS
 62
3
100
AcDbLine
 10
325.0000000000000
 20
425.4999999997342
 30
0.0000000000000000
 11
325.0000000000000
 21
444.5000000000435
 31
0.0000000000000000
  0
LINE
  5
C9
100
AcDbEntity
  8
MAIN0
  6
CONTINUOUS
 62
3
100
AcDbLine
 10
325.0000000000000
 20
507.5000000000000
 30
0.0000000000000000
 11
370.0000000000000
 21
507.5000000000000
 31
0.0000000000000000
  0
LINE
  5
CA
100
AcDbEntity
  8
MAIN0
  6
CONTINUOUS
 62
3
100
AcDbLine
 10
325.0000000000000
 20
492.5000000000000
 30
0.0000000000000000
 11
369.9999999999999
 21
492.5000000000000
 31
0.0000000000000000
  0
LINE
  5
CB
100
AcDbEntity
  8
MAIN0
  6
CONTINUOUS
 62
3
100
AcDbLine
 10
369.0000000000000
 20
517.5000000000000
 30
0.0000000000000000
 11
370.0000000000000
 21
516.4999999999999
 31
0.0000000000000000
  0
LINE
  5
CC
100
AcDbEntity
  8
MAIN0
  6
CONTINUOUS
 62
3
100
AcDbLine
 10
368.9999999999999
 20
482.5000000000000
 30
0.0000000000000000
 11
369.9999999999999
 21
483.5000000000000
 31
0.0000000000000000
  0
POINT
  5
CD
100
AcDbEntity
  8
MAIN0
  6
CONTINUOUS
 62
3
100
AcDbPoint
 10
817.2500000000000
 20
648.7000000000001
 30
0.0000000000000000
  0
POINT
  5
CE
100
AcDbEntity
  8
MAIN0
  6
CONTINUOUS
 62
3
100
AcDbPoint
 10
802.7500000000000
 20
648.7000000000001
 30
0.0000000000000000
  0
LINE
  5
CF
100
AcDbEntity
  8
MAIN0
  6
CONTINUOUS
 62
3
100
AcDbLine
 10
790.0000000000000
 20
655.0000000000001
 30
0.0000000000000000
 11
830.0000000000000
 21
655.0000000000000
 31
0.0000000000000000
  0
LINE
  5
D0
100
AcDbEntity
  8
MAIN0
  6
CENTER
 62
12
100
AcDbLine
 10
810.0000000000000
 20
640.0000000000000
 30
0.0000000000000000
 11
810.0000000000000
 21
660.0000000000000
 31
0.0000000000000000
  0
LINE
  5
D1
100
AcDbEntity
  8
MAIN0
  6
CONTINUOUS
 62
3
100
AcDbLine
 10
819.6499999999999
 20
648.6999999999998
 30
0.0000000000000000
 11
800.3499999999999
 21
648.6999999999999
 31
0.0000000000000000
  0
LINE
  5
D2
100
AcDbEntity
  8
MAIN0
  6
CONTINUOUS
 62
3
100
AcDbLine
 10
820.0500000000000
 20
654.9999999999999
 30
0.0000000000000000
 11
819.6499999999999
 21
654.5999999999999
 31
0.0000000000000000
  0
LINE
  5
D3
100
AcDbEntity
  8
MAIN0
  6
CONTINUOUS
 62
3
100
AcDbLine
 10
799.9499999999999
 20
655.0000000000001
 30
0.0000000000000000
 11
800.3500000000000
 21
654.5999999999999
 31
0.0000000000000000
  0
LINE
  5
D4
100
AcDbEntity
  8
MAIN0
  6
CONTINUOUS
 62
3
100
AcDbLine
 10
819.6500000000000
 20
648.6999999999999
 30
0.0000000000000000
 11
819.6500000000000
 21
654.5999999999998
 31
0.0000000000000000
  0
LINE
  5
D5
100
AcDbEntity
  8
MAIN0
  6
CONTINUOUS
 62
3
100
AcDbLine
 10
800.3499999999999
 20
648.7000000000001
 30
0.0000000000000000
 11
800.3500000000000
 21
654.5999999999999
 31
0.0000000000000000
  0
LEADER
  5
D6
100
AcDbEntity
  8
MAIN0
  6
CONTINUOUS
 62
3
100
AcDbLeader
  3
MAIN001
 73
     0
 74
     0
 75
     1
 40
6.199999809265137
 41
84.20100207424162
 76
     3
 10
673.2600870452877
 20
571.9584047512000
 30
0.0000000000000000
 10
775.0000000000000
 20
700.0000000000001
 30
0.0000000000000000
 10
778.8509998884201
 20
700.0000000000000
 30
0.0000000000000000
340
D7
213
0.0000000000000000
223
-1.000000000000000
233
0.0000000000000000
1001
ACAD
1000
DSTYLE
1002
{
1070
   147
1040
0.0
1070
    77
1070
     1
1070
   173
1070
     1
1070
     6
1000
_OPEN
1070
     7
1000
_OPEN
1002
}
  0
MTEXT
  5
D7
102
{ACAD_REACTORS
330
D6
102
}
100
AcDbEntity
  8
MAIN0
  6
CONTINUOUS
 62
3
100
AcDbMText
 10
778.8519998884201
 20
707.1999998092651
 30
0.0000000000000000
 40
6.199999809265137
 41
0.0000000000000000
 71
     1
 72
     1
  1
{\H0.94x;{ドライブピン穴 (1ヶ所)\PDRIVE PIN HOLE\P(1 PIECE)}}
 11
1.000000000000000
 21
0.0000000000000000
 31
0.0000000000000000
  7
KNJYOKO
  0
INSERT
  5
DD
100
AcDbEntity
  8
MAIN0
  6
CONTINUOUS
 62
3
100
AcDbBlockReference
  2
M0
 10
0.0000000000000000
 20
0.0000000000000000
 30
0.0000000000000000
 50
0.0000000000000000
  0
INSERT
  5
E3
100
AcDbEntity
  8
MAIN0
  6
CONTINUOUS
 62
3
100
AcDbBlockReference
  2
M1
 10
0.0000000000000000
 20
0.0000000000000000
 30
0.0000000000000000
 50
0.0000000000000000
  0
INSERT
  5
EA
100
AcDbEntity
  8
MAIN0
  6
CONTINUOUS
 62
2
100
AcDbBlockReference
  2
M2
 10
0.0000000000000000
 20
0.0000000000000000
 30
0.0000000000000000
 50
0.0000000000000000
  0
INSERT
  5
F1
100
AcDbEntity
  8
MAIN0
  6
CONTINUOUS
 62
2
100
AcDbBlockReference
  2
M3
 10
0.0000000000000000
 20
0.0000000000000000
 30
0.0000000000000000
 50
0.0000000000000000
  0
LINE
  5
F2
100
AcDbEntity
  8
MAIN0
  6
CONTINUOUS
 62
3
100
AcDbLine
 10
235.3999999761581
 20
675.0000000000000
 30
0.0000000000000000
 11
126.0000000000000
 21
675.0000000000000
 31
0.0000000000000000
  0
LINE
  5
F3
100
AcDbEntity
  8
MAIN0
  6
CONTINUOUS
 62
3
100
AcDbLine
 10
130.0000000000000
 20
675.0000000000000
 30
0.0000000000000000
 11
130.0000000000000
 21
325.0000000000000
 31
0.0000000000000000
  0
LINE
  5
F4
100
AcDbEntity
  8
MAIN0
  6
CONTINUOUS
 62
3
100
AcDbLine
 10
131.2000000476837
 20
671.0000000000000
 30
0.0000000000000000
 11
130.0000000000000
 21
675.0000000000000
 31
0.0000000000000000
  0
LINE
  5
F5
100
AcDbEntity
  8
MAIN0
  6
CONTINUOUS
 62
3
100
AcDbLine
 10
130.0000000000000
 20
675.0000000000000
 30
0.0000000000000000
 11
128.7999999523163
 21
671.0000000000000
 31
0.0000000000000000
  0
LINE
  5
F6
100
AcDbEntity
  8
MAIN0
  6
CONTINUOUS
 62
3
100
AcDbLine
 10
131.2000000476837
 20
329.0000000000000
 30
0.0000000000000000
 11
130.0000000000000
 21
325.0000000000000
 31
0.0000000000000000
  0
LINE
  5
F7
100
AcDbEntity
  8
MAIN0
  6
CONTINUOUS
 62
3
100
AcDbLine
 10
130.0000000000000
 20
325.0000000000000
 30
0.0000000000000000
 11
128.7999999523163
 21
329.0000000000000
 31
0.0000000000000000
  0
MTEXT
  5
F8
100
AcDbEntity
  8
MAIN0
  6
CONTINUOUS
 62
3
100
AcDbMText
 10
129.0000000000000
 20
500.0000000000000
 30
0.0000000000000000
 40
6.199999809265137
 41
0.0000000000000000
 71
     8
 72
     1
  1
{\U+2205350}
 11
6.123233995736766e-017
 21
1.000000000000000
 31
0.0000000000000000
  7
STANDARD
  0
LINE
  5
F9
100
AcDbEntity
  8
MAIN0
  6
CONTINUOUS
 62
3
100
AcDbLine
 10
235.3999999761581
 20
325.0000000000000
 30
0.0000000000000000
 11
126.0000000000000
 21
325.0000000000000
 31
0.0000000000000000
  0
LINE
  5
FA
100
AcDbEntity
  8
MAIN0
  6
CONTINUOUS
 62
3
100
AcDbLine
 10
987.0000000000000
 20
715.6000000238266
 30
0.0000000000000000
 11
987.0000000000000
 21
739.0000000000000
 31
0.0000000000000000
  0
LINE
  5
FB
100
AcDbEntity
  8
MAIN0
  6
CONTINUOUS
 62
3
100
AcDbLine
 10
987.0000000000000
 20
735.0000000000000
 30
0.0000000000000000
 11
1013.000000000000
 21
735.0000000000000
 31
0.0000000000000000
  0
LINE
  5
FC
100
AcDbEntity
  8
MAIN0
  6
CONTINUOUS
 62
3
100
AcDbLine
 10
991.0000000000000
 20
736.2000000476837
 30
0.0000000000000000
 11
987.0000000000000
 21
735.0000000000000
 31
0.0000000000000000
  0
LINE
  5
FD
100
AcDbEntity
  8
MAIN0
  6
CONTINUOUS
 62
3
100
AcDbLine
 10
987.0000000000000
 20
735.0000000000000
 30
0.0000000000000000
 11
991.0000000000000
 21
733.7999999523163
 31
0.0000000000000000
  0
LINE
  5
FE
100
AcDbEntity
  8
MAIN0
  6
CONTINUOUS
 62
3
100
AcDbLine
 10
1009.000000000000
 20
736.2000000476837
 30
0.0000000000000000
 11
1013.000000000000
 21
735.0000000000000
 31
0.0000000000000000
  0
LINE
  5
FF
100
AcDbEntity
  8
MAIN0
  6
CONTINUOUS
 62
3
100
AcDbLine
 10
1013.000000000000
 20
735.0000000000000
 30
0.0000000000000000
 11
1009.000000000000
 21
733.7999999523163
 31
0.0000000000000000
  0
MTEXT
  5
100
100
AcDbEntity
  8
MAIN0
  6
CONTINUOUS
 62
3
100
AcDbMText
 10
1000.000000000000
 20
736.0000000000000
 30
0.0000000000000000
 40
6.199999809265137
 41
0.0000000000000000
 71
     8
 72
     1
  1
{\U+220526}
 11
1.000000000000000
 21
0.0000000000000000
 31
0.0000000000000000
  7
STANDARD
  0
LINE
  5
101
100
AcDbEntity
  8
MAIN0
  6
CONTINUOUS
 62
3
100
AcDbLine
 10
1013.000000000000
 20
715.6000000238165
 30
0.0000000000000000
 11
1013.000000000000
 21
739.0000000000000
 31
0.0000000000000000
  0
LINE
  5
102
100
AcDbEntity
  8
MAIN0
  6
CONTINUOUS
 62
3
100
AcDbLine
 10
233.3999999761581
 20
338.0000000000000
 30
0.0000000000000000
 11
185.9999999999999
 21
338.0000000000000
 31
0.0000000000000000
  0
LINE
  5
103
100
AcDbEntity
  8
MAIN0
  6
CONTINUOUS
 62
3
100
AcDbLine
 10
189.9999999999999
 20
344.0000000000000
 30
0.0000000000000000
 11
189.9999999999999
 21
319.0000000000000
 31
0.0000000000000000
  0
LINE
  5
104
100
AcDbEntity
  8
MAIN0
  6
CONTINUOUS
 62
3
100
AcDbLine
 10
191.2000000476837
 20
342.0000000000000
 30
0.0000000000000000
 11
189.9999999999999
 21
338.0000000000000
 31
0.0000000000000000
  0
LINE
  5
105
100
AcDbEntity
  8
MAIN0
  6
CONTINUOUS
 62
3
100
AcDbLine
 10
189.9999999999999
 20
338.0000000000000
 30
0.0000000000000000
 11
188.7999999523162
 21
342.0000000000000
 31
0.0000000000000000
  0
LINE
  5
106
100
AcDbEntity
  8
MAIN0
  6
CONTINUOUS
 62
3
100
AcDbLine
 10
191.2000000476837
 20
321.0000000000000
 30
0.0000000000000000
 11
189.9999999999999
 21
325.0000000000000
 31
0.0000000000000000
  0
LINE
  5
107
100
AcDbEntity
  8
MAIN0
  6
CONTINUOUS
 62
3
100
AcDbLine
 10
189.9999999999999
 20
325.0000000000000
 30
0.0000000000000000
 11
188.7999999523162
 21
321.0000000000000
 31
0.0000000000000000
  0
MTEXT
  5
108
100
AcDbEntity
  8
MAIN0
  6
CONTINUOUS
 62
3
100
AcDbMText
 10
188.9999999999999
 20
331.5000000000000
 30
0.0000000000000000
 40
6.199999809265137
 41
0.0000000000000000
 71
     8
 72
     1
  1
{\H0.69x;{13}}
 11
6.123233995736766e-017
 21
1.000000000000000
 31
0.0000000000000000
  7
STANDARD
  0
LINE
  5
109
100
AcDbEntity
  8
MAIN0
  6
CONTINUOUS
 62
3
100
AcDbLine
 10
235.3999999761581
 20
325.0000000000000
 30
0.0000000000000000
 11
185.9999999999999
 21
325.0000000000000
 31
0.0000000000000000
  0
LINE
  5
10A
100
AcDbEntity
  8
MAIN0
  6
CONTINUOUS
 62
3
100
AcDbLine
 10
233.3999999761581
 20
586.0000000000000
 30
0.0000000000000000
 11
146.0000000000000
 21
586.0000000000000
 31
0.0000000000000000
  0
LINE
  5
10B
100
AcDbEntity
  8
MAIN0
  6
CONTINUOUS
 62
3
100
AcDbLine
 10
150.0000000000000
 20
586.0000000000000
 30
0.0000000000000000
 11
150.0000000000000
 21
414.0000000000000
 31
0.0000000000000000
  0
LINE
  5
10C
100
AcDbEntity
  8
MAIN0
  6
CONTINUOUS
 62
3
100
AcDbLine
 10
151.2000000476837
 20
582.0000000000000
 30
0.0000000000000000
 11
150.0000000000000
 21
586.0000000000000
 31
0.0000000000000000
  0
LINE
  5
10D
100
AcDbEntity
  8
MAIN0
  6
CONTINUOUS
 62
3
100
AcDbLine
 10
150.0000000000000
 20
586.0000000000000
 30
0.0000000000000000
 11
148.7999999523163
 21
582.0000000000000
 31
0.0000000000000000
  0
LINE
  5
10E
100
AcDbEntity
  8
MAIN0
  6
CONTINUOUS
 62
3
100
AcDbLine
 10
151.2000000476837
 20
418.0000000000000
 30
0.0000000000000000
 11
150.0000000000000
 21
414.0000000000000
 31
0.0000000000000000
  0
LINE
  5
10F
100
AcDbEntity
  8
MAIN0
  6
CONTINUOUS
 62
3
100
AcDbLine
 10
150.0000000000000
 20
414.0000000000000
 30
0.0000000000000000
 11
148.7999999523163
 21
418.0000000000000
 31
0.0000000000000000
  0
MTEXT
  5
110
100
AcDbEntity
  8
MAIN0
  6
CONTINUOUS
 62
3
100
AcDbMText
 10
149.0000000000000
 20
500.0000000000000
 30
0.0000000000000000
 40
6.199999809265137
 41
0.0000000000000000
 71
     8
 72
     1
  1
{\U+2205172}
 11
6.123233995736766e-017
 21
1.000000000000000
 31
0.0000000000000000
  7
STANDARD
  0
LINE
  5
111
100
AcDbEntity
  8
MAIN0
  6
CONTINUOUS
 62
3
100
AcDbLine
 10
233.3999999761581
 20
414.0000000000000
 30
0.0000000000000000
 11
146.0000000000000
 21
414.0000000000000
 31
0.0000000000000000
  0
LINE
  5
112
100
AcDbEntity
  8
MAIN0
  6
CONTINUOUS
 62
3
100
AcDbLine
 10
848.2573593127950
 20
351.7426406868985
 30
0.0000000000000000
 11
869.4705627483329
 21
330.5294372512445
 31
0.0000000000000000
  0
LINE
  5
113
100
AcDbEntity
  8
MAIN0
  6
CONTINUOUS
 62
3
100
AcDbLine
 10
850.5201010463078
 20
351.1769552956606
 30
0.0000000000000000
 11
852.4999999999026
 21
347.4999999997676
 31
0.0000000000000000
  0
LINE
  5
114
100
AcDbEntity
  8
MAIN0
  6
CONTINUOUS
 62
3
100
AcDbLine
 10
852.4999999999026
 20
347.4999999997676
 30
0.0000000000000000
 11
848.8230447040205
 21
349.4798989533825
 31
0.0000000000000000
  0
LINE
  5
115
100
AcDbEntity
  8
MAIN0
  6
CONTINUOUS
 62
3
100
AcDbLine
 10
868.9048773571072
 20
332.7921789847604
 30
0.0000000000000000
 11
865.2279220612252
 21
334.7720779383753
 31
0.0000000000000000
  0
LINE
  5
116
100
AcDbEntity
  8
MAIN0
  6
CONTINUOUS
 62
3
100
AcDbLine
 10
865.2279220612252
 20
334.7720779383753
 30
0.0000000000000000
 11
867.2078210148200
 21
331.0951226424824
 31
0.0000000000000000
  0
MTEXT
  5
117
100
AcDbEntity
  8
MAIN0
  6
CONTINUOUS
 62
3
100
AcDbMText
 10
858.2071067810081
 20
343.2071067810080
 30
0.0000000000000000
 40
6.199999809265137
 41
0.0000000000000000
 71
     8
 72
     1
  1
{\H0.69x;{18}}
 11
0.7071067811846149
 21
-0.7071067811884801
 31
0.0000000000000000
  7
STANDARD
  0
LINE
  5
118
100
AcDbEntity
  8
MAIN0
  6
CONTINUOUS
 62
3
100
AcDbLine
 10
851.2587878638724
 20
320.8029437410991
 30
0.0000000000000000
 11
868.0563491859791
 21
337.6005050631138
 31
0.0000000000000000
  0
LINE
  5
119
100
AcDbEntity
  8
MAIN1
  6
CONTINUOUS
 62
3
100
AcDbLine
 10
819.6500000000000
 20
656.2000000238417
 30
0.0000000000000000
 11
819.6500000000000
 21
665.5927727818489
 31
0.0000000000000000
  0
LINE
  5
11A
100
AcDbEntity
  8
MAIN1
  6
CONTINUOUS
 62
3
100
AcDbLine
 10
825.6500000000000
 20
665.0000000000000
 30
0.0000000000000000
 11
794.3499999999999
 21
665.0000000000000
 31
0.0000000000000000
  0
LINE
  5
11B
100
AcDbEntity
  8
MAIN1
  6
CONTINUOUS
 62
3
100
AcDbLine
 10
823.6500000000000
 20
663.7999999523163
 30
0.0000000000000000
 11
819.6500000000000
 21
665.0000000000000
 31
0.0000000000000000
  0
LINE
  5
11C
100
AcDbEntity
  8
MAIN1
  6
CONTINUOUS
 62
3
100
AcDbLine
 10
819.6500000000000
 20
665.0000000000000
 30
0.0000000000000000
 11
823.6500000000000
 21
666.2000000476837
 31
0.0000000000000000
  0
LINE
  5
11D
100
AcDbEntity
  8
MAIN1
  6
CONTINUOUS
 62
3
100
AcDbLine
 10
796.3499999999999
 20
663.7999999523163
 30
0.0000000000000000
 11
800.3499999999999
 21
665.0000000000000
 31
0.0000000000000000
  0
LINE
  5
11E
100
AcDbEntity
  8
MAIN1
  6
CONTINUOUS
 62
3
100
AcDbLine
 10
800.3499999999999
 20
665.0000000000000
 30
0.0000000000000000
 11
796.3499999999999
 21
666.2000000476837
 31
0.0000000000000000
  0
MTEXT
  5
11F
100
AcDbEntity
  8
MAIN1
  6
CONTINUOUS
 62
3
100
AcDbMText
 10
803.6499998271465
 20
666.0000000000000
 30
0.0000000000000000
 40
6.199999809265137
 41
0.0000000000000000
 71
     8
 72
     1
  1
{\U+220519.3}
 11
1.000000000000000
 21
0.0000000000000000
 31
0.0000000000000000
  7
STANDARD
  0
MTEXT
  5
120
100
AcDbEntity
  8
MAIN1
  6
CONTINUOUS
 62
3
100
AcDbMText
 10
820.0000000074506
 20
671.5999999046326
 30
0.0000000000000000
 40
5.599999904632568
 41
0.0000000000000000
 71
     8
 72
     1
  1
{+0.1}
 11
1.000000000000000
 21
0.0000000000000000
 31
0.0000000000000000
  7
STANDARD
  0
MTEXT
  5
121
100
AcDbEntity
  8
MAIN1
  6
CONTINUOUS
 62
3
100
AcDbMText
 10
817.2499999329448
 20
666.0000000000000
 30
0.0000000000000000
 40
5.599999904632568
 41
0.0000000000000000
 71
     8
 72
     1
  1
{ 0}
 11
1.000000000000000
 21
0.0000000000000000
 31
0.0000000000000000
  7
STANDARD
  0
LINE
  5
122
100
AcDbEntity
  8
MAIN1
  6
CONTINUOUS
 62
3
100
AcDbLine
 10
800.3500000000000
 20
656.2000000238418
 30
0.0000000000000000
 11
800.3500000000000
 21
665.5424886941910
 31
0.0000000000000000
  0
LINE
  5
123
100
AcDbEntity
  8
MAIN0
  6
CONTINUOUS
 62
3
100
AcDbLine
 10
831.6000000238419
 20
655.0000000000000
 30
0.0000000000000000
 11
849.0000000000000
 21
655.0000000000000
 31
0.0000000000000000
  0
LINE
  5
124
100
AcDbEntity
  8
MAIN0
  6
CONTINUOUS
 62
3
100
AcDbLine
 10
845.0000000000000
 20
667.3923406600952
 30
0.0000000000000000
 11
845.0000000000000
 21
642.6999999999999
 31
0.0000000000000000
  0
LINE
  5
125
100
AcDbEntity
  8
MAIN0
  6
CONTINUOUS
 62
3
100
AcDbLine
 10
846.2000000476837
 20
659.0000000000000
 30
0.0000000000000000
 11
845.0000000000000
 21
655.0000000000000
 31
0.0000000000000000
  0
LINE
  5
126
100
AcDbEntity
  8
MAIN0
  6
CONTINUOUS
 62
3
100
AcDbLine
 10
845.0000000000000
 20
655.0000000000000
 30
0.0000000000000000
 11
843.7999999523163
 21
659.0000000000000
 31
0.0000000000000000
  0
LINE
  5
127
100
AcDbEntity
  8
MAIN0
  6
CONTINUOUS
 62
3
100
AcDbLine
 10
846.2000000476837
 20
644.6999999999999
 30
0.0000000000000000
 11
845.0000000000000
 21
648.6999999999999
 31
0.0000000000000000
  0
LINE
  5
128
100
AcDbEntity
  8
MAIN0
  6
CONTINUOUS
 62
3
100
AcDbLine
 10
845.0000000000000
 20
648.6999999999999
 30
0.0000000000000000
 11
843.7999999523163
 21
644.6999999999999
 31
0.0000000000000000
  0
MTEXT
  5
129
100
AcDbEntity
  8
MAIN0
  6
CONTINUOUS
 62
3
100
AcDbMText
 10
844.0000000000000
 20
661.7846805433187
 30
0.0000000000000000
 40
6.199999809265137
 41
0.0000000000000000
 71
     8
 72
     1
  1
{\H0.58x;{6.3}}
 11
6.123233995736766e-017
 21
1.000000000000000
 31
0.0000000000000000
  7
STANDARD
  0
MTEXT
  5
12A
100
AcDbEntity
  8
MAIN0
  6
CONTINUOUS
 62
3
100
AcDbMText
 10
838.4000000953674
 20
673.4346807206425
 30
0.0000000000000000
 40
5.599999904632568
 41
0.0000000000000000
 71
     8
 72
     1
  1
{+0.4}
 11
6.123233995736766e-017
 21
1.000000000000000
 31
0.0000000000000000
  7
STANDARD
  0
MTEXT
  5
12B
100
AcDbEntity
  8
MAIN0
  6
CONTINUOUS
 62
3
100
AcDbMText
 10
844.0000000000000
 20
670.6846806461367
 30
0.0000000000000000
 40
5.599999904632568
 41
0.0000000000000000
 71
     8
 72
     1
  1
{ 0}
 11
6.123233995736766e-017
 21
1.000000000000000
 31
0.0000000000000000
  7
STANDARD
  0
LINE
  5
12C
100
AcDbEntity
  8
MAIN0
  6
CONTINUOUS
 62
3
100
AcDbLine
 10
821.2500000238418
 20
648.6999999999999
 30
0.0000000000000000
 11
849.0000000000000
 21
648.6999999999999
 31
0.0000000000000000
  0
LINE
  5
12D
100
AcDbEntity
  8
MAIN0
  6
CONTINUOUS
 62
3
100
AcDbLine
 10
370.6000000238419
 20
517.5000000000000
 30
0.0000000000000000
 11
414.0000000000000
 21
517.5000000000000
 31
0.0000000000000000
  0
LINE
  5
12E
100
AcDbEntity
  8
MAIN0
  6
CONTINUOUS
 62
3
100
AcDbLine
 10
410.0000000000000
 20
517.5000000000000
 30
0.0000000000000000
 11
410.0000000000000
 21
482.5000000000000
 31
0.0000000000000000
  0
LINE
  5
12F
100
AcDbEntity
  8
MAIN0
  6
CONTINUOUS
 62
3
100
AcDbLine
 10
411.2000000476837
 20
513.5000000000000
 30
0.0000000000000000
 11
410.0000000000000
 21
517.5000000000000
 31
0.0000000000000000
  0
LINE
  5
130
100
AcDbEntity
  8
MAIN0
  6
CONTINUOUS
 62
3
100
AcDbLine
 10
410.0000000000000
 20
517.5000000000000
 30
0.0000000000000000
 11
408.7999999523163
 21
513.5000000000000
 31
0.0000000000000000
  0
LINE
  5
131
100
AcDbEntity
  8
MAIN0
  6
CONTINUOUS
 62
3
100
AcDbLine
 10
411.2000000476837
 20
486.5000000000000
 30
0.0000000000000000
 11
410.0000000000000
 21
482.5000000000000
 31
0.0000000000000000
  0
LINE
  5
132
100
AcDbEntity
  8
MAIN0
  6
CONTINUOUS
 62
3
100
AcDbLine
 10
410.0000000000000
 20
482.5000000000000
 30
0.0000000000000000
 11
408.7999999523163
 21
486.5000000000000
 31
0.0000000000000000
  0
MTEXT
  5
133
100
AcDbEntity
  8
MAIN0
  6
CONTINUOUS
 62
3
100
AcDbMText
 10
409.0000000000000
 20
500.0000000000000
 30
0.0000000000000000
 40
6.199999809265137
 41
0.0000000000000000
 71
     8
 72
     1
  1
{\H0.69x;{35}}
 11
6.123233995736766e-017
 21
1.000000000000000
 31
0.0000000000000000
  7
STANDARD
  0
LINE
  5
134
100
AcDbEntity
  8
MAIN0
  6
CONTINUOUS
 62
3
100
AcDbLine
 10
370.6000000238418
 20
482.5000000000000
 30
0.0000000000000000
 11
414.0000000000000
 21
482.5000000000000
 31
0.0000000000000000
  0
LINE
  5
135
100
AcDbEntity
  8
MAIN0
  6
CONTINUOUS
 62
3
100
AcDbLine
 10
371.6000000238419
 20
507.5000000000000
 30
0.0000000000000000
 11
394.0000000000000
 21
507.5000000000000
 31
0.0000000000000000
  0
LINE
  5
136
100
AcDbEntity
  8
MAIN0
  6
CONTINUOUS
 62
3
100
AcDbLine
 10
390.0000000000000
 20
513.5000000000000
 30
0.0000000000000000
 11
390.0000000000000
 21
486.5000000000000
 31
0.0000000000000000
  0
LINE
  5
137
100
AcDbEntity
  8
MAIN0
  6
CONTINUOUS
 62
3
100
AcDbLine
 10
391.2000000476837
 20
511.5000000000000
 30
0.0000000000000000
 11
390.0000000000000
 21
507.5000000000000
 31
0.0000000000000000
  0
LINE
  5
138
100
AcDbEntity
  8
MAIN0
  6
CONTINUOUS
 62
3
100
AcDbLine
 10
390.0000000000000
 20
507.5000000000000
 30
0.0000000000000000
 11
388.7999999523163
 21
511.5000000000000
 31
0.0000000000000000
  0
LINE
  5
139
100
AcDbEntity
  8
MAIN0
  6
CONTINUOUS
 62
3
100
AcDbLine
 10
391.2000000476837
 20
488.5000000000000
 30
0.0000000000000000
 11
390.0000000000000
 21
492.5000000000000
 31
0.0000000000000000
  0
LINE
  5
13A
100
AcDbEntity
  8
MAIN0
  6
CONTINUOUS
 62
3
100
AcDbLine
 10
390.0000000000000
 20
492.5000000000000
 30
0.0000000000000000
 11
388.7999999523163
 21
488.5000000000000
 31
0.0000000000000000
  0
MTEXT
  5
13B
100
AcDbEntity
  8
MAIN0
  6
CONTINUOUS
 62
3
100
AcDbMText
 10
389.0000000000000
 20
500.0000000000000
 30
0.0000000000000000
 40
6.199999809265137
 41
0.0000000000000000
 71
     8
 72
     1
  1
{\H0.69x;{15}}
 11
6.123233995736766e-017
 21
1.000000000000000
 31
0.0000000000000000
  7
STANDARD
  0
LINE
  5
13C
100
AcDbEntity
  8
MAIN0
  6
CONTINUOUS
 62
3
100
AcDbLine
 10
371.6000000238418
 20
492.5000000000000
 30
0.0000000000000000
 11
394.0000000000000
 21
492.5000000000000
 31
0.0000000000000000
  0
LINE
  5
13D
100
AcDbEntity
  8
MAIN0
  6
CONTINUOUS
 62
3
100
AcDbLine
 10
235.0000000000000
 20
327.0000000000000
 30
0.0000000000000000
 11
235.0000000000000
 21
673.0000000000000
 31
0.0000000000000000
  0
LINE
  5
13E
100
AcDbEntity
  8
MAIN0
  6
CONTINUOUS
 62
3
100
AcDbLine
 10
236.9999999999999
 20
414.0000000000000
 30
0.0000000000000000
 11
236.9999999999999
 21
413.0000000000000
 31
0.0000000000000000
  0
LINE
  5
13F
100
AcDbEntity
  8
MAIN0
  6
CONTINUOUS
 62
3
100
AcDbLine
 10
248.5000312932064
 20
551.5000000000000
 30
0.0000000000000000
 11
234.9999999946572
 21
553.1875000000000
 31
0.0000000000000000
  0
LINE
  5
140
100
AcDbEntity
  8
MAIN0
  6
CONTINUOUS
 62
3
100
AcDbLine
 10
252.0000000000000
 20
448.5000000000000
 30
0.0000000000000000
 11
252.0000000000000
 21
551.5000000000000
 31
0.0000000000000000
  0
LINE
  5
141
100
AcDbEntity
  8
MAIN0
  6
CONTINUOUS
 62
3
100
AcDbLine
 10
248.5000312932062
 20
551.5000000000000
 30
0.0000000000000000
 11
248.5000312932061
 21
448.4880000000000
 31
0.0000000000000000
  0
LINE
  5
142
100
AcDbEntity
  8
MAIN0
  6
CENTER
 62
3
100
AcDbLine
 10
363.9999999999999
 20
497.2386701238648
 30
0.0000000000000000
 11
363.9999999999999
 21
502.7613298761352
 31
0.0000000000000000
  0
LINE
  5
143
100
AcDbEntity
  8
MAIN0
  6
CENTER
 62
3
100
AcDbLine
 10
358.4999999999999
 20
497.2386701238648
 30
0.0000000000000000
 11
358.4999999999999
 21
502.7613298761352
 31
0.0000000000000000
  0
LINE
  5
144
100
AcDbEntity
  8
MAIN0
  6
CENTER
 62
3
100
AcDbLine
 10
352.9999999999999
 20
497.2386701238648
 30
0.0000000000000000
 11
352.9999999999999
 21
502.7613298761352
 31
0.0000000000000000
  0
LINE
  5
145
100
AcDbEntity
  8
MAIN0
  6
CENTER
 62
3
100
AcDbLine
 10
347.4999999999999
 20
497.2386701238647
 30
0.0000000000000000
 11
347.4999999999999
 21
502.7613298761352
 31
0.0000000000000000
  0
LINE
  5
146
100
AcDbEntity
  8
MAIN0
  6
CENTER
 62
3
100
AcDbLine
 10
341.9999999999999
 20
497.2386701238507
 30
0.0000000000000000
 11
341.9999999999999
 21
502.7613298761493
 31
0.0000000000000000
  0
LINE
  5
147
100
AcDbEntity
  8
MAIN0
  6
CENTER
 62
3
100
AcDbLine
 10
336.4999999999999
 20
497.2386701238507
 30
0.0000000000000000
 11
336.4999999999999
 21
502.7613298761493
 31
0.0000000000000000
  0
LINE
  5
148
100
AcDbEntity
  8
MAIN0
  6
CENTER
 62
3
100
AcDbLine
 10
330.9999999999999
 20
497.2386701238507
 30
0.0000000000000000
 11
330.9999999999999
 21
502.7613298761493
 31
0.0000000000000000
  0
LINE
  5
149
100
AcDbEntity
  8
MAIN0
  6
CENTER
 62
3
100
AcDbLine
 10
325.4999999999999
 20
497.2386701238506
 30
0.0000000000000000
 11
325.4999999999999
 21
502.7613298761493
 31
0.0000000000000000
  0
LINE
  5
14A
100
AcDbEntity
  8
MAIN0
  6
HIDDEN
 62
3
100
AcDbLine
 10
295.7700000000650
 20
669.9999999998853
 30
0.0000000000000000
 11
280.2700000000511
 21
669.9999999998853
 31
0.0000000000000000
  0
LINE
  5
14B
100
AcDbEntity
  8
MAIN0
  6
CONTINUOUS
 62
3
100
AcDbLine
 10
237.0000000000000
 20
638.0000000000000
 30
0.0000000000000000
 11
247.7338447899264
 21
638.0000000000000
 31
0.0000000000000000
  0
LINE
  5
14C
100
AcDbEntity
  8
MAIN0
  6
CONTINUOUS
 62
3
100
AcDbLine
 10
237.0000000000000
 20
608.0000000000000
 30
0.0000000000000000
 11
247.2752407781333
 21
608.0000000000000
 31
0.0000000000000000
  0
LINE
  5
14D
100
AcDbEntity
  8
MAIN0
  6
CONTINUOUS
 62
3
100
AcDbLine
 10
846.2383297005746
 20
315.7824855778302
 30
0.0000000000000000
 11
833.5104076392264
 21
328.5104076391984
 31
0.0000000000000000
  0
LINE
  5
14E
100
AcDbEntity
  8
MAIN0
  6
CONTINUOUS
 62
3
100
AcDbLine
 10
834.2175144203713
 20
303.7616702976910
 30
0.0000000000000000
 11
821.4895923590233
 21
316.4895923590591
 31
0.0000000000000000
  0
LINE
  5
14F
100
AcDbEntity
  8
MAIN0
  6
CONTINUOUS
 62
3
100
AcDbLine
 10
832.3790367724700
 20
329.6417785059565
 30
0.0000000000000000
 11
823.1819805144792
 21
338.8388347639618
 31
0.0000000000000000
  0
LINE
  5
150
100
AcDbEntity
  8
MAIN0
  6
CONTINUOUS
 62
3
100
AcDbLine
 10
826.0104076392231
 20
336.0104076392134
 30
0.0000000000000000
 11
813.9895923590424
 21
323.9895923590519
 31
0.0000000000000000
  0
LINE
  5
151
100
AcDbEntity
  8
MAIN0
  6
CONTINUOUS
 62
3
100
AcDbLine
 10
824.0305086856154
 20
332.3334523433275
 30
0.0000000000000000
 11
826.0104076392231
 21
336.0104076392134
 31
0.0000000000000000
  0
LINE
  5
152
100
AcDbEntity
  8
MAIN0
  6
CONTINUOUS
 62
3
100
AcDbLine
 10
826.0104076392231
 20
336.0104076392134
 30
0.0000000000000000
 11
822.3334523433340
 21
334.0305086856116
 31
0.0000000000000000
  0
LINE
  5
153
100
AcDbEntity
  8
MAIN0
  6
CONTINUOUS
 62
3
100
AcDbLine
 10
817.6665476549315
 20
325.9694913126538
 30
0.0000000000000000
 11
813.9895923590424
 21
323.9895923590519
 31
0.0000000000000000
  0
LINE
  5
154
100
AcDbEntity
  8
MAIN0
  6
CONTINUOUS
 62
3
100
AcDbLine
 10
813.9895923590424
 20
323.9895923590519
 30
0.0000000000000000
 11
815.9694913126501
 21
327.6665476549379
 31
0.0000000000000000
  0
MTEXT
  5
155
100
AcDbEntity
  8
MAIN0
  6
CONTINUOUS
 62
3
100
AcDbMText
 10
819.2928932179468
 20
330.7071067803198
 30
0.0000000000000000
 40
6.199999809265137
 41
0.0000000000000000
 71
     8
 72
     1
  1
{\H0.69x;{17}}
 11
0.7071067811871143
 21
0.7071067811859807
 31
0.0000000000000000
  7
STANDARD
  0
LINE
  5
156
100
AcDbEntity
  8
MAIN0
  6
CONTINUOUS
 62
3
100
AcDbLine
 10
820.3582214922669
 20
317.6209632258172
 30
0.0000000000000000
 11
811.1611652342983
 21
326.8180194838004
 31
0.0000000000000000
  0
LINE
  5
157
100
AcDbEntity
  8
MAIN0
  6
CONTINUOUS
 62
3
100
AcDbLine
 10
925.2190817319042
 20
292.9398611181403
 30
0.0000000000000000
 11
861.1396103065298
 21
228.8603896931203
 31
0.0000000000000000
  0
LINE
  5
158
100
AcDbEntity
  8
MAIN0
  6
CONTINUOUS
 62
3
100
AcDbLine
 10
876.7146319865794
 20
303.8323809925895
 30
0.0000000000000000
 11
889.2695526215173
 21
316.3873016274582
 31
0.0000000000000000
  0
LINE
  5
159
100
AcDbEntity
  8
MAIN0
  6
CONTINUOUS
 62
3
100
AcDbLine
 10
886.4411254967633
 20
313.5588745027198
 30
0.0000000000000000
 11
865.2279220612256
 21
334.7720779383751
 31
0.0000000000000000
  0
LINE
  5
15A
100
AcDbEntity
  8
MAIN0
  6
CONTINUOUS
 62
3
100
AcDbLine
 10
882.7641702008813
 20
315.5387734563348
 30
0.0000000000000000
 11
886.4411254967633
 21
313.5588745027198
 31
0.0000000000000000
  0
LINE
  5
15B
100
AcDbEntity
  8
MAIN0
  6
CONTINUOUS
 62
3
100
AcDbLine
 10
886.4411254967633
 20
313.5588745027198
 30
0.0000000000000000
 11
884.4612265431687
 21
317.2358297986128
 31
0.0000000000000000
  0
LINE
  5
15C
100
AcDbEntity
  8
MAIN0
  6
CONTINUOUS
 62
3
100
AcDbLine
 10
867.2078210148203
 20
331.0951226424820
 30
0.0000000000000000
 11
865.2279220612256
 21
334.7720779383751
 31
0.0000000000000000
  0
LINE
  5
15D
100
AcDbEntity
  8
MAIN0
  6
CONTINUOUS
 62
3
100
AcDbLine
 10
865.2279220612256
 20
334.7720779383751
 30
0.0000000000000000
 11
868.9048773571077
 21
332.7921789847600
 31
0.0000000000000000
  0
MTEXT
  5
15E
100
AcDbEntity
  8
MAIN0
  6
CONTINUOUS
 62
3
100
AcDbMText
 10
880.7071067809528
 20
320.7071067809391
 30
0.0000000000000000
 40
6.199999809265137
 41
0.0000000000000000
 71
     8
 72
     1
  1
{\H0.69x;{30}}
 11
0.7071067811845891
 21
-0.7071067811885059
 31
0.0000000000000000
  7
STANDARD
  0
LINE
  5
15F
100
AcDbEntity
  8
MAIN0
  6
CONTINUOUS
 62
3
100
AcDbLine
 10
851.2587878638724
 20
320.8029437410989
 30
0.0000000000000000
 11
868.0563491859797
 21
337.6005050631134
 31
0.0000000000000000
  0
LINE
  5
160
100
AcDbEntity
  8
MAIN0
  6
CONTINUOUS
 62
3
100
AcDbLine
 10
795.7573593127397
 20
299.2426406871346
 30
0.0000000000000000
 11
814.1421356235392
 21
280.8578643762334
 31
0.0000000000000000
  0
LINE
  5
161
100
AcDbEntity
  8
MAIN0
  6
CONTINUOUS
 62
3
100
AcDbLine
 10
798.0201010462527
 20
298.6769552958965
 30
0.0000000000000000
 11
799.9999999998473
 21
295.0000000000035
 31
0.0000000000000000
  0
LINE
  5
162
100
AcDbEntity
  8
MAIN0
  6
CONTINUOUS
 62
3
100
AcDbLine
 10
799.9999999998473
 20
295.0000000000035
 30
0.0000000000000000
 11
796.3230447039653
 21
296.9798989536185
 31
0.0000000000000000
  0
LINE
  5
163
100
AcDbEntity
  8
MAIN0
  6
CONTINUOUS
 62
3
100
AcDbLine
 10
813.5764502323137
 20
283.1206061097494
 30
0.0000000000000000
 11
809.8994949364317
 21
285.1005050633644
 31
0.0000000000000000
  0
LINE
  5
164
100
AcDbEntity
  8
MAIN0
  6
CONTINUOUS
 62
3
100
AcDbLine
 10
809.8994949364317
 20
285.1005050633644
 30
0.0000000000000000
 11
811.8793938900263
 21
281.4235497674714
 31
0.0000000000000000
  0
MTEXT
  5
165
100
AcDbEntity
  8
MAIN0
  6
CONTINUOUS
 62
3
100
AcDbMText
 10
805.6568542493280
 20
290.7573593128685
 30
0.0000000000000000
 40
6.199999809265137
 41
0.0000000000000000
 71
     8
 72
     1
  1
{\H0.69x;{14}}
 11
0.7071067811845904
 21
-0.7071067811885047
 31
0.0000000000000000
  7
STANDARD
  0
LINE
  5
166
100
AcDbEntity
  8
MAIN0
  6
CONTINUOUS
 62
3
100
AcDbLine
 10
809.8994949364314
 20
285.1005050633646
 30
0.0000000000000000
 11
833.9411254967075
 21
261.0588745029547
 31
0.0000000000000000
  0
LINE
  5
167
100
AcDbEntity
  8
MAIN0
  6
CONTINUOUS
 62
3
100
AcDbLine
 10
813.5764502323135
 20
283.1206061097495
 30
0.0000000000000000
 11
809.8994949364314
 21
285.1005050633646
 31
0.0000000000000000
  0
LINE
  5
168
100
AcDbEntity
  8
MAIN0
  6
CONTINUOUS
 62
3
100
AcDbLine
 10
809.8994949364314
 20
285.1005050633646
 30
0.0000000000000000
 11
811.8793938900261
 21
281.4235497674716
 31
0.0000000000000000
  0
LINE
  5
169
100
AcDbEntity
  8
MAIN0
  6
CONTINUOUS
 62
3
100
AcDbLine
 10
831.9612265431128
 20
264.7358297988478
 30
0.0000000000000000
 11
833.9411254967075
 21
261.0588745029547
 31
0.0000000000000000
  0
LINE
  5
16A
100
AcDbEntity
  8
MAIN0
  6
CONTINUOUS
 62
3
100
AcDbLine
 10
833.9411254967075
 20
261.0588745029547
 30
0.0000000000000000
 11
830.2641702008255
 21
263.0387734565698
 31
0.0000000000000000
  0
MTEXT
  5
16B
100
AcDbEntity
  8
MAIN0
  6
CONTINUOUS
 62
3
100
AcDbMText
 10
827.3499903593120
 20
269.0642232027639
 30
0.0000000000000000
 40
6.199999809265137
 41
0.0000000000000000
 71
     8
 72
     1
  1
{\H0.69x;{34}}
 11
0.7071067811845785
 21
-0.7071067811885166
 31
0.0000000000000000
  7
STANDARD
  0
LINE
  5
16C
100
AcDbEntity
  8
MAIN0
  6
CONTINUOUS
 62
3
100
AcDbLine
 10
846.1676190055185
 20
273.2853680116978
 30
0.0000000000000000
 11
831.1126983719533
 21
258.2304473782165
 31
0.0000000000000000
  0
LINE
  5
16D
100
AcDbEntity
  8
MAIN0
  6
CONTINUOUS
 62
3
100
AcDbLine
 10
846.1676190055187
 20
273.2853680116976
 30
0.0000000000000000
 11
831.1126983719533
 21
258.2304473782165
 31
0.0000000000000000
  0
LINE
  5
16E
100
AcDbEntity
  8
MAIN0
  6
CONTINUOUS
 62
3
100
AcDbLine
 10
833.9411254967074
 20
261.0588745029548
 30
0.0000000000000000
 11
863.6396103064601
 21
231.3603896930371
 31
0.0000000000000000
  0
LINE
  5
16F
100
AcDbEntity
  8
MAIN0
  6
CONTINUOUS
 62
3
100
AcDbLine
 10
837.6180807925895
 20
259.0789755493398
 30
0.0000000000000000
 11
833.9411254967074
 21
261.0588745029548
 31
0.0000000000000000
  0
LINE
  5
170
100
AcDbEntity
  8
MAIN0
  6
CONTINUOUS
 62
3
100
AcDbLine
 10
833.9411254967074
 20
261.0588745029548
 30
0.0000000000000000
 11
835.9210244503021
 21
257.3819192070618
 31
0.0000000000000000
  0
LINE
  5
171
100
AcDbEntity
  8
MAIN0
  6
CONTINUOUS
 62
3
100
AcDbLine
 10
861.6597113528654
 20
235.0373449889301
 30
0.0000000000000000
 11
863.6396103064601
 21
231.3603896930371
 31
0.0000000000000000
  0
LINE
  5
172
100
AcDbEntity
  8
MAIN0
  6
CONTINUOUS
 62
3
100
AcDbLine
 10
863.6396103064601
 20
231.3603896930371
 30
0.0000000000000000
 11
859.9626550105780
 21
233.3402886466521
 31
0.0000000000000000
  0
MTEXT
  5
173
100
AcDbEntity
  8
MAIN0
  6
CONTINUOUS
 62
3
100
AcDbMText
 10
849.4974746827722
 20
246.9167388791805
 30
0.0000000000000000
 40
6.199999809265137
 41
0.0000000000000000
 71
     8
 72
     1
  1
{\H0.69x;{42}}
 11
0.7071067811845816
 21
-0.7071067811885134
 31
0.0000000000000000
  7
STANDARD
  0
POINT
  5
174
100
AcDbEntity
  8
MAIN0
  6
CONTINUOUS
 62
3
100
AcDbPoint
 10
235.0000000000000
 20
662.0000000000000
 30
0.0000000000000000
  0
LINE
  5
175
100
AcDbEntity
  8
MAIN0
  6
CONTINUOUS
 62
3
100
AcDbLine
 10
235.3999999761581
 20
638.0000000000000
 30
0.0000000000000000
 11
216.0000000000000
 21
638.0000000000000
 31
0.0000000000000000
  0
LINE
  5
176
100
AcDbEntity
  8
MAIN0
  6
CONTINUOUS
 62
3
100
AcDbLine
 10
220.0000000000000
 20
638.0000000000000
 30
0.0000000000000000
 11
220.0000000000000
 21
608.0000000000000
 31
0.0000000000000000
  0
LINE
  5
177
100
AcDbEntity
  8
MAIN0
  6
CONTINUOUS
 62
3
100
AcDbLine
 10
221.2000000476837
 20
634.0000000000000
 30
0.0000000000000000
 11
220.0000000000000
 21
638.0000000000000
 31
0.0000000000000000
  0
LINE
  5
178
100
AcDbEntity
  8
MAIN0
  6
CONTINUOUS
 62
3
100
AcDbLine
 10
220.0000000000000
 20
638.0000000000000
 30
0.0000000000000000
 11
218.7999999523163
 21
634.0000000000000
 31
0.0000000000000000
  0
LINE
  5
179
100
AcDbEntity
  8
MAIN0
  6
CONTINUOUS
 62
3
100
AcDbLine
 10
221.2000000476837
 20
612.0000000000000
 30
0.0000000000000000
 11
220.0000000000000
 21
608.0000000000000
 31
0.0000000000000000
  0
LINE
  5
17A
100
AcDbEntity
  8
MAIN0
  6
CONTINUOUS
 62
3
100
AcDbLine
 10
220.0000000000000
 20
608.0000000000000
 30
0.0000000000000000
 11
218.7999999523163
 21
612.0000000000000
 31
0.0000000000000000
  0
MTEXT
  5
17B
100
AcDbEntity
  8
MAIN0
  6
CONTINUOUS
 62
3
100
AcDbMText
 10
219.0000000000000
 20
623.0000000000000
 30
0.0000000000000000
 40
6.199999809265137
 41
0.0000000000000000
 71
     8
 72
     1
  1
{\U+220530}
 11
6.123233995736766e-017
 21
1.000000000000000
 31
0.0000000000000000
  7
STANDARD
  0
LINE
  5
17C
100
AcDbEntity
  8
MAIN0
  6
CONTINUOUS
 62
3
100
AcDbLine
 10
235.3999999761581
 20
608.0000000000000
 30
0.0000000000000000
 11
216.0000000000000
 21
608.0000000000000
 31
0.0000000000000000
  0
LINE
  5
17D
100
AcDbEntity
  8
MAIN0
  6
CENTER
 62
3
100
AcDbLine
 10
334.9999999999997
 20
433.3249999998754
 30
0.0000000000000000
 11
210.0000000000007
 21
433.3249999999000
 31
0.0000000000000000
  0
CIRCLE
  5
17E
100
AcDbEntity
  8
MAIN0
  6
CONTINUOUS
 62
3
100
AcDbCircle
 10
697.1463446360258
 20
547.1463446352004
 30
0.0000000000000000
 40
6.500000000000000
  0
CIRCLE
  5
17F
100
AcDbEntity
  8
MAIN0
  6
CONTINUOUS
 62
3
100
AcDbCircle
 10
697.1463446360258
 20
547.1463446352004
 30
0.0000000000000000
 40
9.500000000000000
  0
CIRCLE
  5
180
100
AcDbEntity
  8
MAIN0
  6
CONTINUOUS
 62
3
100
AcDbCircle
 10
602.8536553647996
 20
547.1463446360258
 30
0.0000000000000000
 40
6.500000000000000
  0
CIRCLE
  5
181
100
AcDbEntity
  8
MAIN0
  6
CONTINUOUS
 62
3
100
AcDbCircle
 10
602.8536553647996
 20
547.1463446360258
 30
0.0000000000000000
 40
9.500000000000000
  0
LINE
  5
182
100
AcDbEntity
  8
MAIN0
  6
CONTINUOUS
 62
3
100
AcDbLine
 10
939.7852330928013
 20
707.0000000000033
 30
0.0000000000000000
 11
986.9999999999996
 21
706.9999999999848
 31
0.0000000000000000
  0
LINE
  5
183
100
AcDbEntity
  8
MAIN0
  6
CONTINUOUS
 62
3
100
AcDbLine
 10
941.2332660282150
 20
693.0000000000030
 30
0.0000000000000000
 11
987.0000000000006
 21
692.9999999999850
 31
0.0000000000000000
  0
LINE
  5
184
100
AcDbEntity
  8
MAIN0
  6
CONTINUOUS
 62
3
100
AcDbLine
 10
907.9999999999973
 20
693.0000000000158
 30
0.0000000000000000
 11
935.2332660282164
 21
693.0000000000052
 31
0.0000000000000000
  0
LINE
  5
185
100
AcDbEntity
  8
MAIN0
  6
CONTINUOUS
 62
3
100
AcDbLine
 10
908.0000000000030
 20
707.0000000000159
 30
0.0000000000000000
 11
933.7852330928026
 21
707.0000000000057
 31
0.0000000000000000
  0
SPLINE
  5
186
100
AcDbEntity
  8
MAIN0
  6
CONTINUOUS
 62
3
100
AcDbSpline
210
0.0000000000000000
220
0.0000000000000000
230
1.000000000000000
 70
     8
 71
     3
 72
     9
 73
     5
 74
     0
 42
1.000000000000000e-007
 43
1.000000000000000e-007
 12
0.6773639955528097
 22
-0.8427923868827065
 32
0.0000000000000000
 13
-0.4622050283891213
 23
-0.9922162883883630
 33
0.0000000000000000
 40
0.0000000000000000
 40
0.0000000000000000
 40
0.0000000000000000
 40
0.0000000000000000
 40
3.557043381364613
 40
7.615774328762440
 40
7.615774328762440
 40
7.615774328762440
 40
7.615774328762440
 10
933.7852330928026
 20
707.0000000000057
 30
0.0000000000000000
 10
934.5883707985212
 20
706.0007169727973
 30
0.0000000000000000
 10
936.3079212413742
 20
703.8612114312981
 30
0.0000000000000000
 10
935.1345715114308
 20
701.3423796520690
 30
0.0000000000000000
 10
934.5092495605088
 20
700.0000000000043
 30
0.0000000000000000
  0
ARC
  5
187
100
AcDbEntity
  8
MAIN0
  6
CONTINUOUS
 62
3
100
AcDbCircle
 10
908.0000000000030
 20
700.0000000000159
 30
0.0000000000000000
 40
6.999999999999986
100
AcDbArc
 50
90.00000000000000
 51
270.0000000000000
  0
LINE
  5
188
100
AcDbEntity
  8
MAIN0
  6
CENTER
 62
3
100
AcDbLine
 10
895.0000000000030
 20
700.0000000000617
 30
0.0000000000000000
 11
1105.000000000003
 21
699.9999999999383
 31
0.0000000000000000
  0
SPLINE
  5
189
100
AcDbEntity
  8
MAIN0
  6
CONTINUOUS
 62
3
100
AcDbSpline
210
0.0000000000000000
220
0.0000000000000000
230
1.000000000000000
 70
     8
 71
     3
 72
     9
 73
     5
 74
     0
 42
1.000000000000000e-007
 43
1.000000000000000e-007
 12
-0.6773639955526960
 22
0.8427923868827065
 32
0.0000000000000000
 13
0.4622050283891213
 23
0.9922162883883630
 33
0.0000000000000000
 40
0.0000000000000000
 40
0.0000000000000000
 40
0.0000000000000000
 40
0.0000000000000000
 40
3.557043381364613
 40
7.615774328762440
 40
7.615774328762440
 40
7.615774328762440
 40
7.615774328762440
 10
941.2245802473890
 20
693.0000000000064
 30
0.0000000000000000
 10
940.4214425416704
 20
693.9992830272149
 30
0.0000000000000000
 10
938.7018920988174
 20
696.1387885687140
 30
0.0000000000000000
 10
939.8752418287609
 20
698.6576203479432
 30
0.0000000000000000
 10
940.5005637796828
 20
700.0000000000078
 30
0.0000000000000000
  0
ARC
  5
18A
100
AcDbEntity
  8
MAIN0
  6
CONTINUOUS
 62
3
100
AcDbCircle
 10
1061.018614484492
 20
704.0000000000042
 30
0.0000000000000000
 40
5.999999999999968
100
AcDbArc
 50
318.1896851042216
 51
390.0000000000165
  0
ARC
  5
18B
100
AcDbEntity
  8
MAIN0
  6
CONTINUOUS
 62
3
100
AcDbCircle
 10
1055.018614484492
 20
704.0000000000042
 30
0.0000000000000000
 40
5.999999999999968
100
AcDbArc
 50
318.1896851042216
 51
389.9999999999903
  0
ARC
  5
18C
100
AcDbEntity
  8
MAIN0
  6
CONTINUOUS
 62
3
100
AcDbCircle
 10
1069.962886394491
 20
696.0000000000043
 30
0.0000000000000000
 40
5.999999999999968
100
AcDbArc
 50
138.1896851042214
 51
209.9999999999903
  0
ARC
  5
18D
100
AcDbEntity
  8
MAIN0
  6
CONTINUOUS
 62
3
100
AcDbCircle
 10
1063.962886394491
 20
696.0000000000043
 30
0.0000000000000000
 40
5.999999999999968
100
AcDbArc
 50
138.1896851042214
 51
210.0000000000165
  0
LINE
  5
18E
100
AcDbEntity
  8
MAIN0
  6
CONTINUOUS
 62
3
100
AcDbLine
 10
1060.214766907199
 20
707.0000000000033
 30
0.0000000000000000
 11
1013.000000000001
 21
706.9999999999864
 31
0.0000000000000000
  0
LINE
  5
18F
100
AcDbEntity
  8
MAIN0
  6
CONTINUOUS
 62
3
100
AcDbLine
 10
1058.766733971785
 20
693.0000000000028
 30
0.0000000000000000
 11
1013.000000000000
 21
692.9999999999866
 31
0.0000000000000000
  0
LINE
  5
190
100
AcDbEntity
  8
MAIN0
  6
CONTINUOUS
 62
3
100
AcDbLine
 10
1092.000000000003
 20
693.0000000000159
 30
0.0000000000000000
 11
1064.766733971784
 21
693.0000000000052
 31
0.0000000000000000
  0
LINE
  5
191
100
AcDbEntity
  8
MAIN0
  6
CONTINUOUS
 62
3
100
AcDbLine
 10
1091.999999999997
 20
707.0000000000159
 30
0.0000000000000000
 11
1066.214766907198
 21
707.0000000000057
 31
0.0000000000000000
  0
SPLINE
  5
192
100
AcDbEntity
  8
MAIN0
  6
CONTINUOUS
 62
3
100
AcDbSpline
210
0.0000000000000000
220
0.0000000000000000
230
1.000000000000000
 70
     8
 71
     3
 72
     9
 73
     5
 74
     0
 42
1.000000000000000e-007
 43
1.000000000000000e-007
 12
-0.6773639955526960
 22
-0.8427923868827065
 32
0.0000000000000000
 13
0.4622050283892349
 23
-0.9922162883883630
 33
0.0000000000000000
 40
0.0000000000000000
 40
0.0000000000000000
 40
0.0000000000000000
 40
0.0000000000000000
 40
3.557043381364613
 40
7.615774328762440
 40
7.615774328762440
 40
7.615774328762440
 40
7.615774328762440
 10
1066.214766907198
 20
707.0000000000057
 30
0.0000000000000000
 10
1065.411629201479
 20
706.0007169727973
 30
0.0000000000000000
 10
1063.692078758626
 20
703.8612114312981
 30
0.0000000000000000
 10
1064.865428488570
 20
701.3423796520690
 30
0.0000000000000000
 10
1065.490750439491
 20
700.0000000000043
 30
0.0000000000000000
  0
ARC
  5
193
100
AcDbEntity
  8
MAIN0
  6
CONTINUOUS
 62
3
100
AcDbCircle
 10
1091.999999999997
 20
700.0000000000159
 30
0.0000000000000000
 40
6.999999999999986
100
AcDbArc
 50
270.0000000000000
 51
450.0000000000000
  0
SPLINE
  5
194
100
AcDbEntity
  8
MAIN0
  6
CONTINUOUS
 62
3
100
AcDbSpline
210
0.0000000000000000
220
0.0000000000000000
230
1.000000000000000
 70
     8
 71
     3
 72
     9
 73
     5
 74
     0
 42
1.000000000000000e-007
 43
1.000000000000000e-007
 12
0.6773639955525823
 22
0.8427923868827065
 32
0.0000000000000000
 13
-0.4622050283891213
 23
0.9922162883883630
 33
0.0000000000000000
 40
0.0000000000000000
 40
0.0000000000000000
 40
0.0000000000000000
 40
0.0000000000000000
 40
3.557043381364613
 40
7.615774328762440
 40
7.615774328762440
 40
7.615774328762440
 40
7.615774328762440
 10
1058.775419752611
 20
693.0000000000064
 30
0.0000000000000000
 10
1059.578557458330
 20
693.9992830272149
 30
0.0000000000000000
 10
1061.298107901183
 20
696.1387885687140
 30
0.0000000000000000
 10
1060.124758171239
 20
698.6576203479432
 30
0.0000000000000000
 10
1059.499436220317
 20
700.0000000000078
 30
0.0000000000000000
  0
LINE
  5
195
100
AcDbEntity
  8
MAIN0
  6
CONTINUOUS
 62
1
100
AcDbLine
 10
1098.999999999997
 20
701.6000000238578
 30
0.0000000000000000
 11
1098.999999999997
 21
754.0000000000000
 31
0.0000000000000000
  0
LINE
  5
196
100
AcDbEntity
  8
MAIN0
  6
CONTINUOUS
 62
1
100
AcDbLine
 10
1098.999999999997
 20
750.0000000000000
 30
0.0000000000000000
 11
901.0000000000030
 21
750.0000000000000
 31
0.0000000000000000
  0
LINE
  5
197
100
AcDbEntity
  8
MAIN0
  6
CONTINUOUS
 62
1
100
AcDbLine
 10
1094.999999999997
 20
748.7999999523163
 30
0.0000000000000000
 11
1098.999999999997
 21
750.0000000000000
 31
0.0000000000000000
  0
LINE
  5
198
100
AcDbEntity
  8
MAIN0
  6
CONTINUOUS
 62
1
100
AcDbLine
 10
1098.999999999997
 20
750.0000000000000
 30
0.0000000000000000
 11
1094.999999999997
 21
751.2000000476837
 31
0.0000000000000000
  0
LINE
  5
199
100
AcDbEntity
  8
MAIN0
  6
CONTINUOUS
 62
1
100
AcDbLine
 10
905.0000000000030
 20
748.7999999523163
 30
0.0000000000000000
 11
901.0000000000030
 21
750.0000000000000
 31
0.0000000000000000
  0
LINE
  5
19A
100
AcDbEntity
  8
MAIN0
  6
CONTINUOUS
 62
1
100
AcDbLine
 10
901.0000000000030
 20
750.0000000000000
 30
0.0000000000000000
 11
905.0000000000030
 21
751.2000000476837
 31
0.0000000000000000
  0
MTEXT
  5
19B
100
AcDbEntity
  8
MAIN0
  6
CONTINUOUS
 62
1
100
AcDbMText
 10
1000.000000000000
 20
751.0000000000000
 30
0.0000000000000000
 40
6.199999809265137
 41
0.0000000000000000
 71
     8
 72
     1
  1
{\H0.70x;{300}}
 11
1.000000000000000
 21
0.0000000000000000
 31
0.0000000000000000
  7
STANDARD
  0
LINE
  5
19C
100
AcDbEntity
  8
MAIN0
  6
CONTINUOUS
 62
1
100
AcDbLine
 10
901.0000000000030
 20
701.6000000238578
 30
0.0000000000000000
 11
901.0000000000030
 21
754.0000000000000
 31
0.0000000000000000
  0
LINE
  5
19D
100
AcDbEntity
  8
MAIN0
  6
CONTINUOUS
 62
3
100
AcDbLine
 10
992.9500000000001
 20
545.9999999999825
 30
0.0000000000000000
 11
1007.050000000000
 21
545.9999999999770
 31
0.0000000000000000
  0
LINE
  5
19E
100
AcDbEntity
  8
MAIN0
  6
CONTINUOUS
 62
3
100
AcDbLine
 10
992.1780786587951
 20
520.6633600319610
 30
0.0000000000000000
 11
999.3366399680350
 21
527.8219213412046
 31
0.0000000000000000
  0
LINE
  5
19F
100
AcDbEntity
  8
MAIN0
  6
CONTINUOUS
 62
3
100
AcDbLine
 10
1000.663360034305
 20
512.1780786589939
 30
0.0000000000000000
 11
1007.821921341007
 21
519.3366399656992
 31
0.0000000000000000
  0
LINE
  5
1A0
100
AcDbEntity
  8
MAIN0
  6
CONTINUOUS
 62
3
100
AcDbLine
 10
999.3366399656948
 20
512.1780786589939
 30
0.0000000000000000
 11
992.1780786589936
 21
519.3366399656986
 31
0.0000000000000000
  0
LINE
  5
1A1
100
AcDbEntity
  8
MAIN0
  6
CONTINUOUS
 62
3
100
AcDbLine
 10
1007.821921341205
 20
520.6633600319613
 30
0.0000000000000000
 11
1000.663360031965
 21
527.8219213412045
 31
0.0000000000000000
  0
ARC
  5
1A2
100
AcDbEntity
  8
MAIN0
  6
CONTINUOUS
 62
3
100
AcDbCircle
 10
1000.000000000000
 20
520.0000000000001
 30
0.0000000000000000
 40
7.850000000000000
100
AcDbArc
 50
175.1524698506536
 51
184.8475301664906
  0
ARC
  5
1A3
100
AcDbEntity
  8
MAIN0
  6
CONTINUOUS
 62
3
100
AcDbCircle
 10
1000.000000000000
 20
520.0000000000001
 30
0.0000000000000000
 40
7.850000000000000
100
AcDbArc
 50
355.1524698335137
 51
364.8475301493480
  0
LINE
  5
1A4
100
AcDbEntity
  8
MAIN0
  6
CONTINUOUS
 62
3
100
AcDbLine
 10
1007.750000000000
 20
546.6999999999767
 30
0.0000000000000000
 11
1007.750000000000
 21
565.8875059580323
 31
0.0000000000000000
  0
LINE
  5
1A5
100
AcDbEntity
  8
MAIN0
  6
CONTINUOUS
 62
3
100
AcDbLine
 10
992.2500000000059
 20
560.9999999999828
 30
0.0000000000000000
 11
1007.750000000006
 21
560.9999999999768
 31
0.0000000000000000
  0
LINE
  5
1A6
100
AcDbEntity
  8
MAIN0
  6
CONTINUOUS
 62
3
100
AcDbLine
 10
999.2259685454161
 20
546.6999999999802
 30
0.0000000000000000
 11
999.2259685453860
 21
560.9999999999772
 31
0.0000000000000000
  0
LINE
  5
1A7
100
AcDbEntity
  8
MAIN0
  6
CONTINUOUS
 62
3
100
AcDbLine
 10
1000.774031454584
 20
546.6999999999803
 30
0.0000000000000000
 11
1000.774031454614
 21
560.9999999999772
 31
0.0000000000000000
  0
LINE
  5
1A8
100
AcDbEntity
  8
MAIN0
  6
CONTINUOUS
 62
3
100
AcDbLine
 10
992.9500000000001
 20
545.9999999999826
 30
0.0000000000000000
 11
992.2500000000000
 21
546.6999999999829
 31
0.0000000000000000
  0
LINE
  5
1A9
100
AcDbEntity
  8
MAIN0
  6
CONTINUOUS
 62
3
100
AcDbLine
 10
1007.050000000000
 20
545.9999999999770
 30
0.0000000000000000
 11
1007.750000000000
 21
546.6999999999767
 31
0.0000000000000000
  0
LINE
  5
1AA
100
AcDbEntity
  8
MAIN0
  6
CONTINUOUS
 62
3
100
AcDbLine
 10
999.2259685454160
 20
546.6999999999802
 30
0.0000000000000000
 11
992.2500000000000
 21
546.6999999999829
 31
0.0000000000000000
  0
LINE
  5
1AB
100
AcDbEntity
  8
MAIN0
  6
CONTINUOUS
 62
3
100
AcDbLine
 10
1007.750000000000
 20
546.6999999999767
 30
0.0000000000000000
 11
1000.774031454584
 21
546.6999999999795
 31
0.0000000000000000
  0
LINE
  5
1AC
100
AcDbEntity
  8
MAIN0
  6
CONTINUOUS
 62
3
100
AcDbLine
 10
1007.750000000006
 20
560.9999999999768
 30
0.0000000000000000
 11
1000.774031454584
 21
546.6999999999795
 31
0.0000000000000000
  0
LINE
  5
1AD
100
AcDbEntity
  8
MAIN0
  6
CONTINUOUS
 62
3
100
AcDbLine
 10
1007.750000000000
 20
546.6999999999767
 30
0.0000000000000000
 11
1000.774031454614
 21
560.9999999999772
 31
0.0000000000000000
  0
LINE
  5
1AE
100
AcDbEntity
  8
MAIN0
  6
CONTINUOUS
 62
3
100
AcDbLine
 10
999.2259685453860
 20
560.9999999999772
 30
0.0000000000000000
 11
992.2500000000000
 21
546.6999999999829
 31
0.0000000000000000
  0
LINE
  5
1AF
100
AcDbEntity
  8
MAIN0
  6
CONTINUOUS
 62
3
100
AcDbLine
 10
999.2259685454160
 20
546.6999999999800
 30
0.0000000000000000
 11
992.2500000000058
 21
560.9999999999828
 31
0.0000000000000000
  0
LINE
  5
1B0
100
AcDbEntity
  8
MAIN0
  6
CONTINUOUS
 62
3
100
AcDbLine
 10
1009.500000000000
 20
578.9999999999765
 30
0.0000000000000000
 11
1009.500000000000
 21
674.3693198578455
 31
0.0000000000000000
  0
LINE
  5
1B1
100
AcDbEntity
  8
MAIN0
  6
CONTINUOUS
 62
3
100
AcDbLine
 10
990.5000000000002
 20
578.9999999999832
 30
0.0000000000000000
 11
990.5000000000002
 21
674.3693198578455
 31
0.0000000000000000
  0
ARC
  5
1B2
100
AcDbEntity
  8
MAIN0
  6
CONTINUOUS
 62
3
100
AcDbCircle
 10
1024.500000000000
 20
674.3693198578455
 30
0.0000000000000000
 40
15.00000000000000
100
AcDbArc
 50
140.0554948101851
 51
180.0000000000000
  0
ARC
  5
1B3
100
AcDbEntity
  8
MAIN0
  6
CONTINUOUS
 62
3
100
AcDbCircle
 10
975.5000000000002
 20
674.3693198578455
 30
0.0000000000000000
 40
15.00000000000000
100
AcDbArc
 50
0.0000000000000000
 51
39.94450518981488
  0
LINE
  5
1B4
100
AcDbEntity
  8
MAIN0
  6
CONTINUOUS
 62
3
100
AcDbLine
 10
1009.500000000000
 20
578.9999999999765
 30
0.0000000000000000
 11
990.5000000000002
 21
578.9999999999832
 31
0.0000000000000000
  0
ARC
  5
1B5
100
AcDbEntity
  8
MAIN0
  6
CONTINUOUS
 62
3
100
AcDbCircle
 10
1057.750000000000
 20
565.8875059580323
 30
0.0000000000000000
 40
50.00000000000000
100
AcDbArc
 50
164.7963959067060
 51
180.0000000000000
  0
LINE
  5
1B6
100
AcDbEntity
  8
MAIN0
  6
CONTINUOUS
 62
3
100
AcDbLine
 10
992.2500000000000
 20
546.6999999999767
 30
0.0000000000000000
 11
992.2500000000000
 21
565.8875059580323
 31
0.0000000000000000
  0
ARC
  5
1B7
100
AcDbEntity
  8
MAIN0
  6
CONTINUOUS
 62
3
100
AcDbCircle
 10
942.2500000000000
 20
565.8875059580323
 30
0.0000000000000000
 40
50.00000000000000
100
AcDbArc
 50
0.0000000000000000
 51
15.20360409329404
  0
LINE
  5
1B8
100
AcDbEntity
  8
MAIN0
  6
CONTINUOUS
 62
3
100
AcDbLine
 10
998.5259685454175
 20
545.9999999999805
 30
0.0000000000000000
 11
999.2259685454161
 21
546.6999999999802
 31
0.0000000000000000
  0
LINE
  5
1B9
100
AcDbEntity
  8
MAIN0
  6
PHANTOM
 62
3
100
AcDbLine
 10
1001.474031454582
 20
545.9999999999805
 30
0.0000000000000000
 11
1000.774031454584
 21
546.6999999999803
 31
0.0000000000000000
  0
ARC
  5
1BA
100
AcDbEntity
  8
MAIN0
  6
CONTINUOUS
 62
3
100
AcDbCircle
 10
1000.000000000000
 20
520.0000000000000
 30
0.0000000000000000
 40
7.850000000000000
100
AcDbArc
 50
44.99999999999985
 51
84.26802601058165
  0
ARC
  5
1BB
100
AcDbEntity
  8
MAIN0
  6
CONTINUOUS
 62
3
100
AcDbCircle
 10
1000.000000000000
 20
520.0000000000000
 30
0.0000000000000000
 40
7.850000000000000
100
AcDbArc
 50
85.15246985062314
 51
94.84753014937606
  0
ARC
  5
1BC
100
AcDbEntity
  8
MAIN0
  6
CONTINUOUS
 62
3
100
AcDbCircle
 10
1000.000000000000
 20
520.0000000000000
 30
0.0000000000000000
 40
7.850000000000000
100
AcDbArc
 50
224.9999999999999
 51
264.2680259928918
  0
ARC
  5
1BD
100
AcDbEntity
  8
MAIN0
  6
CONTINUOUS
 62
3
100
AcDbCircle
 10
1000.000000000000
 20
520.0000000000000
 30
0.0000000000000000
 40
7.850000000000000
100
AcDbArc
 50
265.1524698334808
 51
274.8475301665159
  0
LINE
  5
1BE
100
AcDbEntity
  8
MAIN0
  6
CONTINUOUS
 62
3
100
AcDbLine
 10
989.6369503419631
 20
504.4554255129448
 30
0.0000000000000000
 11
1007.682597717719
 21
531.5238965765791
 31
0.0000000000000000
  0
LINE
  5
1BF
100
AcDbEntity
  8
MAIN0
  6
CONTINUOUS
 62
3
100
AcDbLine
 10
992.4283422818504
 20
510.8058442740170
 30
0.0000000000000000
 11
995.6456034596320
 21
513.4684051894479
 31
0.0000000000000000
  0
LINE
  5
1C0
100
AcDbEntity
  8
MAIN0
  6
CONTINUOUS
 62
3
100
AcDbLine
 10
995.6456034596320
 20
513.4684051894479
 30
0.0000000000000000
 11
994.4252630676117
 21
509.4745637501761
 31
0.0000000000000000
  0
LINE
  5
1C1
100
AcDbEntity
  8
MAIN0
  6
CONTINUOUS
 62
3
100
AcDbLine
 10
1005.574736932388
 20
530.5254362498239
 30
0.0000000000000000
 11
1004.354396540368
 21
526.5315948105521
 31
0.0000000000000000
  0
LINE
  5
1C2
100
AcDbEntity
  8
MAIN0
  6
CONTINUOUS
 62
3
100
AcDbLine
 10
1004.354396540368
 20
526.5315948105521
 30
0.0000000000000000
 11
1007.571657718150
 21
529.1941557259830
 31
0.0000000000000000
  0
MTEXT
  5
1C3
100
AcDbEntity
  8
MAIN0
  6
CONTINUOUS
 62
3
100
AcDbMText
 10
988.3432489168084
 20
504.3176490129453
 30
0.0000000000000000
 40
6.199999809265137
 41
0.0000000000000000
 71
     8
 72
     1
  1
{\U+220515.7}
 11
0.5547001962252283
 21
0.8320502943378443
 31
0.0000000000000000
  7
STANDARD
  0
LINE
  5
1C4
100
AcDbEntity
  8
MAIN0
  6
CONTINUOUS
 62
3
100
AcDbLine
 10
1000.468010832451
 20
511.0467077922373
 30
0.0000000000000000
 11
1013.585786437086
 21
497.9289321875955
 31
0.0000000000000000
  0
LINE
  5
1C5
100
AcDbEntity
  8
MAIN0
  6
CONTINUOUS
 62
3
100
AcDbLine
 10
1006.514718625220
 20
496.5147186252242
 30
0.0000000000000000
 11
1029.486770066294
 21
519.4867700662869
 31
0.0000000000000000
  0
LINE
  5
1C6
100
AcDbEntity
  8
MAIN0
  6
CONTINUOUS
 62
3
100
AcDbLine
 10
1007.080404016452
 20
498.7774603587385
 30
0.0000000000000000
 11
1010.757359312340
 21
500.7573593123424
 31
0.0000000000000000
  0
LINE
  5
1C7
100
AcDbEntity
  8
MAIN0
  6
CONTINUOUS
 62
3
100
AcDbLine
 10
1010.757359312340
 20
500.7573593123424
 30
0.0000000000000000
 11
1008.777460358735
 21
497.0804040164554
 31
0.0000000000000000
  0
LINE
  5
1C8
100
AcDbEntity
  8
MAIN0
  6
CONTINUOUS
 62
3
100
AcDbLine
 10
1021.222539640187
 20
512.9195959824662
 30
0.0000000000000000
 11
1019.242640686581
 21
509.2426406865791
 31
0.0000000000000000
  0
LINE
  5
1C9
100
AcDbEntity
  8
MAIN0
  6
CONTINUOUS
 62
3
100
AcDbLine
 10
1019.242640686581
 20
509.2426406865791
 30
0.0000000000000000
 11
1022.919595982469
 21
511.2225396401830
 31
0.0000000000000000
  0
MTEXT
  5
1CA
100
AcDbEntity
  8
MAIN0
  6
CONTINUOUS
 62
3
100
AcDbMText
 10
1024.528103702015
 20
515.9423172643826
 30
0.0000000000000000
 40
6.199999809265137
 41
0.0000000000000000
 71
     8
 72
     1
  1
{\H0.69x;{12}}
 11
0.7071067811867288
 21
0.7071067811863663
 31
0.0000000000000000
  7
STANDARD
  0
MTEXT
  5
1CB
100
AcDbEntity
  8
MAIN0
  6
CONTINUOUS
 62
3
100
AcDbMText
 10
1026.083738759712
 20
525.4175481364966
 30
0.0000000000000000
 40
5.599999904632568
 41
0.0000000000000000
 71
     8
 72
     1
  1
{ 0}
 11
0.7071067811867288
 21
0.7071067811863663
 31
0.0000000000000000
  7
STANDARD
  0
MTEXT
  5
1CC
100
AcDbEntity
  8
MAIN0
  6
CONTINUOUS
 62
3
100
AcDbMText
 10
1033.260872608775
 20
524.6750861711387
 30
0.0000000000000000
 40
5.599999904632568
 41
0.0000000000000000
 71
     8
 72
     1
  1
{-0.15}
 11
0.7071067811867288
 21
0.7071067811863663
 31
0.0000000000000000
  7
STANDARD
  0
LINE
  5
1CD
100
AcDbEntity
  8
MAIN0
  6
CONTINUOUS
 62
3
100
AcDbLine
 10
1008.953292207962
 20
519.5319891652036
 30
0.0000000000000000
 11
1022.071067811327
 21
506.4142135618322
 31
0.0000000000000000
  0
ARC
  5
1CE
100
AcDbEntity
  8
MAIN0
  6
CENTER
 62
3
100
AcDbCircle
 10
650.0000000000000
 20
500.0000000000000
 30
0.0000000000000000
 40
66.67500000000000
100
AcDbArc
 50
32.51503968873259
 51
87.61463660850475
  0
ARC
  5
1CF
100
AcDbEntity
  8
MAIN0
  6
CENTER
 62
3
100
AcDbCircle
 10
650.0000000000000
 20
500.0000000000000
 30
0.0000000000000000
 40
66.67500000000003
100
AcDbArc
 50
122.5150396887326
 51
147.4849603102644
  0
SPLINE
  5
1D0
100
AcDbEntity
  8
MAIN0
  6
CONTINUOUS
 62
3
100
AcDbSpline
210
0.0000000000000000
220
0.0000000000000000
230
1.000000000000000
 70
     8
 71
     3
 72
    12
 73
     8
 74
     0
 42
1.000000000000000e-007
 43
1.000000000000000e-007
 12
0.5352388968452146
 22
-0.8391582402801134
 32
0.0000000000000000
 13
0.9294170818704970
 23
-0.3903510165060737
 33
0.0000000000000000
 40
0.0000000000000000
 40
0.0000000000000000
 40
0.0000000000000000
 40
0.0000000000000000
 40
12.67717184013598
 40
22.64419488563184
 40
38.20605446281915
 40
81.43452912614693
 40
91.82956833734917
 40
91.82956833734917
 40
91.82956833734917
 40
91.82956833734917
 10
794.9999999997363
 20
289.9999999999201
 30
0.0000000000000000
 10
797.2617718233468
 20
286.4539489288877
 30
0.0000000000000000
 10
801.3017897868575
 20
280.1199280179587
 30
0.0000000000000000
 10
805.9633147643478
 20
267.7444214065027
 30
0.0000000000000000
 10
828.0643744262815
 20
257.6144520103318
 30
0.0000000000000000
 10
841.2844409587948
 20
237.1684350343112
 30
0.0000000000000000
 10
857.8973108870972
 20
230.1911039844606
 30
0.0000000000000000
 10
861.1177532236321
 20
228.8385326102228
 30
0.0000000000000000
  0
SPLINE
  5
1D1
100
AcDbEntity
  8
MAIN0
  6
CONTINUOUS
 62
3
100
AcDbSpline
210
0.0000000000000000
220
0.0000000000000000
230
1.000000000000000
 70
     8
 71
     3
 72
    10
 73
     6
 74
     0
 42
1.000000000000000e-007
 43
1.000000000000000e-007
 12
0.6501907114845267
 22
-0.7681647903119711
 32
0.0000000000000000
 13
0.8208332654106343
 23
-0.6320965683806179
 33
0.0000000000000000
 40
0.0000000000000000
 40
0.0000000000000000
 40
0.0000000000000000
 40
0.0000000000000000
 40
14.13270734249425
 40
31.07844097746287
 40
91.08458625697298
 40
91.08458625697298
 40
91.08458625697298
 40
91.08458625697298
 10
867.4999999998331
 20
362.4999999998371
 30
0.0000000000000000
 10
870.5629850139061
 20
358.8812506090746
 30
0.0000000000000000
 10
877.2986228975612
 20
350.9234625768494
 30
0.0000000000000000
 10
887.7458476573465
 20
321.7967601533212
 30
0.0000000000000000
 10
908.8007350069649
 20
305.5830872892269
 30
0.0000000000000000
 10
925.2190817317934
 20
292.9398611182512
 30
0.0000000000000000
  0
LINE
  5
1D2
100
AcDbEntity
  8
MAIN0
  6
CONTINUOUS
 62
3
100
AcDbLine
 10
254.0000000000000
 20
537.5000000000000
 30
0.0000000000000000
 11
251.9999999999999
 21
539.5000000000000
 31
0.0000000000000000
  0
LINE
  5
1D3
100
AcDbEntity
  8
MAIN0
  6
CONTINUOUS
 62
3
100
AcDbLine
 10
254.0000000000000
 20
537.5000000000000
 30
0.0000000000000000
 11
254.0000000000000
 21
462.5000000000000
 31
0.0000000000000000
  0
LINE
  5
1D4
100
AcDbEntity
  8
MAIN0
  6
CONTINUOUS
 62
3
100
AcDbLine
 10
253.9999999999999
 20
462.5000000000001
 30
0.0000000000000000
 11
251.9999999999999
 21
460.5000000000001
 31
0.0000000000000000
  0
LINE
  5
1D5
100
AcDbEntity
  8
MAIN0
  6
HIDDEN
 62
3
100
AcDbLine
 10
310.9999999999961
 20
423.3249999997272
 30
0.0000000000000000
 11
324.3999999999961
 21
423.3249999997220
 31
0.0000000000000000
  0
LINE
  5
1D6
100
AcDbEntity
  8
MAIN0
  6
HIDDEN
 62
3
100
AcDbLine
 10
324.3999999999960
 20
423.3249999997219
 30
0.0000000000000000
 11
324.9999999999957
 21
422.7249999997217
 31
0.0000000000000000
  0
LINE
  5
1D7
100
AcDbEntity
  8
MAIN0
  6
CONTINUOUS
 62
3
100
AcDbLine
 10
235.6000000000026
 20
440.0750000000331
 30
0.0000000000000000
 11
235.0000000000028
 21
440.6750000000334
 31
0.0000000000000000
  0
LINE
  5
1D8
100
AcDbEntity
  8
MAIN0
  6
CONTINUOUS
 62
3
100
AcDbLine
 10
326.0000000238380
 20
423.3249999997220
 30
0.0000000000000000
 11
349.0000000000000
 21
423.3249999997220
 31
0.0000000000000000
  0
LINE
  5
1D9
100
AcDbEntity
  8
MAIN0
  6
CONTINUOUS
 62
3
100
AcDbLine
 10
345.0000000000000
 20
417.3249999997220
 30
0.0000000000000000
 11
345.0000000000000
 21
449.3250000000332
 31
0.0000000000000000
  0
LINE
  5
1DA
100
AcDbEntity
  8
MAIN0
  6
CONTINUOUS
 62
3
100
AcDbLine
 10
343.7999999523163
 20
419.3249999997220
 30
0.0000000000000000
 11
345.0000000000000
 21
423.3249999997220
 31
0.0000000000000000
  0
LINE
  5
1DB
100
AcDbEntity
  8
MAIN0
  6
CONTINUOUS
 62
3
100
AcDbLine
 10
345.0000000000000
 20
423.3249999997220
 30
0.0000000000000000
 11
346.2000000476837
 21
419.3249999997220
 31
0.0000000000000000
  0
LINE
  5
1DC
100
AcDbEntity
  8
MAIN0
  6
CONTINUOUS
 62
3
100
AcDbLine
 10
343.7999999523163
 20
447.3250000000332
 30
0.0000000000000000
 11
345.0000000000000
 21
443.3250000000332
 31
0.0000000000000000
  0
LINE
  5
1DD
100
AcDbEntity
  8
MAIN0
  6
CONTINUOUS
 62
3
100
AcDbLine
 10
345.0000000000000
 20
443.3250000000332
 30
0.0000000000000000
 11
346.2000000476837
 21
447.3250000000332
 31
0.0000000000000000
  0
MTEXT
  5
1DE
100
AcDbEntity
  8
MAIN0
  6
CONTINUOUS
 62
3
100
AcDbMText
 10
344.0000000000000
 20
433.3249999998776
 30
0.0000000000000000
 40
6.199999809265137
 41
0.0000000000000000
 71
     8
 72
     1
  1
{\U+220520}
 11
6.123233995736766e-017
 21
1.000000000000000
 31
0.0000000000000000
  7
STANDARD
  0
LINE
  5
1DF
100
AcDbEntity
  8
MAIN0
  6
CONTINUOUS
 62
3
100
AcDbLine
 10
326.0000000238418
 20
443.3250000000332
 30
0.0000000000000000
 11
349.0000000000000
 21
443.3250000000332
 31
0.0000000000000000
  0
LINE
  5
1E0
100
AcDbEntity
  8
MAIN0
  6
CONTINUOUS
 62
3
100
AcDbLine
 10
311.0000000000000
 20
421.7249999758853
 30
0.0000000000000000
 11
311.0000000000000
 21
406.0000000000000
 31
0.0000000000000000
  0
LINE
  5
1E1
100
AcDbEntity
  8
MAIN0
  6
CONTINUOUS
 62
3
100
AcDbLine
 10
305.0000000000000
 20
410.0000000000000
 30
0.0000000000000000
 11
331.0000000000000
 21
410.0000000000000
 31
0.0000000000000000
  0
LINE
  5
1E2
100
AcDbEntity
  8
MAIN0
  6
CONTINUOUS
 62
3
100
AcDbLine
 10
307.0000000000000
 20
411.2000000476837
 30
0.0000000000000000
 11
311.0000000000000
 21
410.0000000000000
 31
0.0000000000000000
  0
LINE
  5
1E3
100
AcDbEntity
  8
MAIN0
  6
CONTINUOUS
 62
3
100
AcDbLine
 10
311.0000000000000
 20
410.0000000000000
 30
0.0000000000000000
 11
307.0000000000000
 21
408.7999999523163
 31
0.0000000000000000
  0
LINE
  5
1E4
100
AcDbEntity
  8
MAIN0
  6
CONTINUOUS
 62
3
100
AcDbLine
 10
329.0000000000000
 20
411.2000000476837
 30
0.0000000000000000
 11
325.0000000000000
 21
410.0000000000000
 31
0.0000000000000000
  0
LINE
  5
1E5
100
AcDbEntity
  8
MAIN0
  6
CONTINUOUS
 62
3
100
AcDbLine
 10
325.0000000000000
 20
410.0000000000000
 30
0.0000000000000000
 11
329.0000000000000
 21
408.7999999523163
 31
0.0000000000000000
  0
MTEXT
  5
1E6
100
AcDbEntity
  8
MAIN0
  6
CONTINUOUS
 62
3
100
AcDbMText
 10
318.0000000000000
 20
411.0000000000000
 30
0.0000000000000000
 40
6.199999809265137
 41
0.0000000000000000
 71
     8
 72
     1
  1
{\H0.69x;{14}}
 11
1.000000000000000
 21
0.0000000000000000
 31
0.0000000000000000
  7
STANDARD
  0
LINE
  5
1E7
100
AcDbEntity
  8
MAIN0
  6
CONTINUOUS
 62
3
100
AcDbLine
 10
280.1780786587951
 20
750.6633600319608
 30
0.0000000000000000
 11
287.3366399680351
 21
757.8219213412044
 31
0.0000000000000000
  0
LINE
  5
1E8
100
AcDbEntity
  8
MAIN0
  6
CONTINUOUS
 62
3
100
AcDbLine
 10
288.6633600345883
 20
742.1780786592772
 30
0.0000000000000000
 11
295.8219213410064
 21
749.3366399656991
 31
0.0000000000000000
  0
LINE
  5
1E9
100
AcDbEntity
  8
MAIN0
  6
CONTINUOUS
 62
3
100
AcDbLine
 10
287.3366399654111
 20
742.1780786592774
 30
0.0000000000000000
 11
280.1780786589935
 21
749.3366399656986
 31
0.0000000000000000
  0
LINE
  5
1EA
100
AcDbEntity
  8
MAIN0
  6
CONTINUOUS
 62
3
100
AcDbLine
 10
295.8219213412048
 20
750.6633600319613
 30
0.0000000000000000
 11
288.6633600319650
 21
757.8219213412044
 31
0.0000000000000000
  0
ARC
  5
1EB
100
AcDbEntity
  8
MAIN0
  6
CONTINUOUS
 62
3
100
AcDbCircle
 10
288.0000000000000
 20
749.9999999999999
 30
0.0000000000000000
 40
7.850000000000000
100
AcDbArc
 50
175.1524698506546
 51
184.8475301664890
  0
ARC
  5
1EC
100
AcDbEntity
  8
MAIN0
  6
CONTINUOUS
 62
3
100
AcDbCircle
 10
288.0000000000000
 20
749.9999999999999
 30
0.0000000000000000
 40
7.850000000000000
100
AcDbArc
 50
355.1524698335139
 51
364.8475301493486
  0
ARC
  5
1ED
100
AcDbEntity
  8
MAIN0
  6
CONTINUOUS
 62
3
100
AcDbCircle
 10
288.0000000000000
 20
749.9999999999999
 30
0.0000000000000000
 40
7.850000000000000
100
AcDbArc
 50
30.71469613932836
 51
84.26802601058165
  0
ARC
  5
1EE
100
AcDbEntity
  8
MAIN0
  6
CONTINUOUS
 62
3
100
AcDbCircle
 10
288.0000000000000
 20
749.9999999999999
 30
0.0000000000000000
 40
7.850000000000000
100
AcDbArc
 50
85.15246985062400
 51
94.84753014937600
  0
ARC
  5
1EF
100
AcDbEntity
  8
MAIN0
  6
CONTINUOUS
 62
3
100
AcDbCircle
 10
288.0000000000000
 20
749.9999999999999
 30
0.0000000000000000
 40
7.850000000000000
100
AcDbArc
 50
216.9505581420069
 51
264.2680259928918
  0
ARC
  5
1F0
100
AcDbEntity
  8
MAIN0
  6
CONTINUOUS
 62
3
100
AcDbCircle
 10
288.0000000000000
 20
750.0000000002593
 30
0.0000000000000000
 40
7.850000000000000
100
AcDbArc
 50
265.1524698314051
 51
274.8475301685920
  0
LINE
  5
1F1
100
AcDbEntity
  8
MAIN0
  6
CONTINUOUS
 62
3
100
AcDbLine
 10
275.4665327733050
 20
734.3331659666313
 30
0.0000000000000000
 11
296.6520264086288
 21
760.8150330107858
 31
0.0000000000000000
  0
LINE
  5
1F2
100
AcDbEntity
  8
MAIN0
  6
CONTINUOUS
 62
3
100
AcDbLine
 10
279.6603210779136
 20
741.4963386949531
 30
0.0000000000000000
 11
283.0961438766977
 21
743.8701798458721
 31
0.0000000000000000
  0
LINE
  5
1F3
100
AcDbEntity
  8
MAIN0
  6
CONTINUOUS
 62
3
100
AcDbLine
 10
283.0961438766977
 20
743.8701798458721
 30
0.0000000000000000
 11
281.5344062950464
 21
739.9970705212470
 31
0.0000000000000000
  0
LINE
  5
1F4
100
AcDbEntity
  8
MAIN0
  6
CONTINUOUS
 62
3
100
AcDbLine
 10
294.4655937049536
 20
760.0029294787528
 30
0.0000000000000000
 11
292.9038561233023
 21
756.1298201541276
 31
0.0000000000000000
  0
LINE
  5
1F5
100
AcDbEntity
  8
MAIN0
  6
CONTINUOUS
 62
3
100
AcDbLine
 10
292.9038561233023
 20
756.1298201541276
 30
0.0000000000000000
 11
296.3396789220864
 21
758.5036613050467
 31
0.0000000000000000
  0
MTEXT
  5
1F6
100
AcDbEntity
  8
MAIN0
  6
CONTINUOUS
 62
3
100
AcDbMText
 10
273.3030031492160
 20
733.2295349958783
 30
0.0000000000000000
 40
6.199999809265137
 41
0.0000000000000000
 71
     8
 72
     1
  1
{\U+220515.7}
 11
0.6246950475544296
 21
0.7808688094430261
 31
0.0000000000000000
  7
STANDARD
  0
LINE
  5
1F7
100
AcDbEntity
  8
MAIN0
  6
CONTINUOUS
 62
3
100
AcDbLine
 10
288.4680108321678
 20
741.0467077925202
 30
0.0000000000000000
 11
300.0857864370864
 21
729.4289321875954
 31
0.0000000000000000
  0
LINE
  5
1F8
100
AcDbEntity
  8
MAIN0
  6
CONTINUOUS
 62
3
100
AcDbLine
 10
293.0147186252205
 20
728.0147186252241
 30
0.0000000000000000
 11
315.9877047148076
 21
750.9877047147993
 31
0.0000000000000000
  0
LINE
  5
1F9
100
AcDbEntity
  8
MAIN0
  6
CONTINUOUS
 62
3
100
AcDbLine
 10
293.5804040164529
 20
730.2774603587384
 30
0.0000000000000000
 11
297.2573593123409
 21
732.2573593123423
 31
0.0000000000000000
  0
LINE
  5
1FA
100
AcDbEntity
  8
MAIN0
  6
CONTINUOUS
 62
3
100
AcDbLine
 10
297.2573593123409
 20
732.2573593123423
 30
0.0000000000000000
 11
295.2774603587351
 21
728.5804040164552
 31
0.0000000000000000
  0
LINE
  5
1FB
100
AcDbEntity
  8
MAIN0
  6
CONTINUOUS
 62
3
100
AcDbLine
 10
307.7225396401877
 20
744.4195959824659
 30
0.0000000000000000
 11
305.7426406865819
 21
740.7426406865789
 31
0.0000000000000000
  0
LINE
  5
1FC
100
AcDbEntity
  8
MAIN0
  6
CONTINUOUS
 62
3
100
AcDbLine
 10
305.7426406865819
 20
740.7426406865789
 30
0.0000000000000000
 11
309.4195959824700
 21
742.7225396401827
 31
0.0000000000000000
  0
MTEXT
  5
1FD
100
AcDbEntity
  8
MAIN0
  6
CONTINUOUS
 62
3
100
AcDbMText
 10
311.0299727951499
 20
747.4441863575172
 30
0.0000000000000000
 40
6.199999809265137
 41
0.0000000000000000
 71
     8
 72
     1
  1
{\H0.69x;{12}}
 11
0.7071067811867310
 21
0.7071067811863641
 31
0.0000000000000000
  7
STANDARD
  0
MTEXT
  5
1FE
100
AcDbEntity
  8
MAIN0
  6
CONTINUOUS
 62
3
100
AcDbMText
 10
315.8029437947017
 20
760.1367531714840
 30
0.0000000000000000
 40
5.599999904632568
 41
0.0000000000000000
 71
     8
 72
     1
  1
{+0.15}
 11
0.7071067811867310
 21
0.7071067811863641
 31
0.0000000000000000
  7
STANDARD
  0
MTEXT
  5
1FF
100
AcDbEntity
  8
MAIN0
  6
CONTINUOUS
 62
3
100
AcDbMText
 10
319.7627417019103
 20
756.1769552642732
 30
0.0000000000000000
 40
5.599999904632568
 41
0.0000000000000000
 71
     8
 72
     1
  1
{+0.05}
 11
0.7071067811867310
 21
0.7071067811863641
 31
0.0000000000000000
  7
STANDARD
  0
LINE
  5
200
100
AcDbEntity
  8
MAIN0
  6
CONTINUOUS
 62
3
100
AcDbLine
 10
296.9532922079609
 20
749.5319891652043
 30
0.0000000000000000
 11
308.5710678113273
 21
737.9142135618321
 31
0.0000000000000000
  0
LINE
  5
201
100
AcDbEntity
  8
MAIN0
  6
CENTER
 62
3
100
AcDbLine
 10
278.0131057223625
 20
750.0000000000000
 30
0.0000000000000000
 11
297.4220773473395
 21
750.0000000000000
 31
0.0000000000000000
  0
LINE
  5
202
100
AcDbEntity
  8
MAIN0
  6
CENTER
 62
3
100
AcDbLine
 10
288.0000000000001
 20
630.0000000000000
 30
0.0000000000000000
 11
288.0000000000001
 21
685.0000000000000
 31
0.0000000000000000
  0
LINE
  5
203
100
AcDbEntity
  8
MAIN0
  6
CENTER
 62
3
100
AcDbLine
 10
288.0000000000001
 20
736.4383547346004
 30
0.0000000000000000
 11
288.0000000000001
 21
760.0567854306404
 31
0.0000000000000000
  0
LINE
  5
204
100
AcDbEntity
  8
MAIN0
  6
CONTINUOUS
 62
3
100
AcDbLine
 10
370.6000000238128
 20
562.0000000002862
 30
0.0000000000000000
 11
394.0000000000000
 21
562.0000000002862
 31
0.0000000000000000
  0
LINE
  5
205
100
AcDbEntity
  8
MAIN0
  6
CONTINUOUS
 62
3
100
AcDbLine
 10
390.0000000000000
 20
562.0000000002862
 30
0.0000000000000000
 11
390.0000000000000
 21
593.0000000002862
 31
0.0000000000000000
  0
LINE
  5
206
100
AcDbEntity
  8
MAIN0
  6
CONTINUOUS
 62
3
100
AcDbLine
 10
388.7999999523163
 20
566.0000000002862
 30
0.0000000000000000
 11
390.0000000000000
 21
562.0000000002862
 31
0.0000000000000000
  0
LINE
  5
207
100
AcDbEntity
  8
MAIN0
  6
CONTINUOUS
 62
3
100
AcDbLine
 10
390.0000000000000
 20
562.0000000002862
 30
0.0000000000000000
 11
391.2000000476837
 21
566.0000000002862
 31
0.0000000000000000
  0
LINE
  5
208
100
AcDbEntity
  8
MAIN0
  6
CONTINUOUS
 62
3
100
AcDbLine
 10
388.7999999523163
 20
589.0000000002862
 30
0.0000000000000000
 11
390.0000000000000
 21
593.0000000002862
 31
0.0000000000000000
  0
LINE
  5
209
100
AcDbEntity
  8
MAIN0
  6
CONTINUOUS
 62
3
100
AcDbLine
 10
390.0000000000000
 20
593.0000000002862
 30
0.0000000000000000
 11
391.2000000476837
 21
589.0000000002862
 31
0.0000000000000000
  0
MTEXT
  5
20A
100
AcDbEntity
  8
MAIN0
  6
CONTINUOUS
 62
3
100
AcDbMText
 10
389.0000000000000
 20
577.5000000002862
 30
0.0000000000000000
 40
6.199999809265137
 41
0.0000000000000000
 71
     8
 72
     1
  1
{\H0.69x;{31}}
 11
6.123233995736766e-017
 21
1.000000000000000
 31
0.0000000000000000
  7
STANDARD
  0
LINE
  5
20B
100
AcDbEntity
  8
MAIN0
  6
CONTINUOUS
 62
3
100
AcDbLine
 10
370.6000000238128
 20
593.0000000002862
 30
0.0000000000000000
 11
394.0000000000000
 21
593.0000000002862
 31
0.0000000000000000
  0
LINE
  5
20C
100
AcDbEntity
  8
MAIN0
  6
CONTINUOUS
 62
3
100
AcDbLine
 10
390.0000000000000
 20
593.0000000002862
 30
0.0000000000000000
 11
390.0000000000000
 21
629.0000000002862
 31
0.0000000000000000
  0
LINE
  5
20D
100
AcDbEntity
  8
MAIN0
  6
CONTINUOUS
 62
3
100
AcDbLine
 10
388.7999999523163
 20
597.0000000002862
 30
0.0000000000000000
 11
390.0000000000000
 21
593.0000000002862
 31
0.0000000000000000
  0
LINE
  5
20E
100
AcDbEntity
  8
MAIN0
  6
CONTINUOUS
 62
3
100
AcDbLine
 10
390.0000000000000
 20
593.0000000002862
 30
0.0000000000000000
 11
391.2000000476837
 21
597.0000000002862
 31
0.0000000000000000
  0
LINE
  5
20F
100
AcDbEntity
  8
MAIN0
  6
CONTINUOUS
 62
3
100
AcDbLine
 10
388.7999999523163
 20
625.0000000002862
 30
0.0000000000000000
 11
390.0000000000000
 21
629.0000000002862
 31
0.0000000000000000
  0
LINE
  5
210
100
AcDbEntity
  8
MAIN0
  6
CONTINUOUS
 62
3
100
AcDbLine
 10
390.0000000000000
 20
629.0000000002862
 30
0.0000000000000000
 11
391.2000000476837
 21
625.0000000002862
 31
0.0000000000000000
  0
MTEXT
  5
211
100
AcDbEntity
  8
MAIN0
  6
CONTINUOUS
 62
3
100
AcDbMText
 10
389.0000000000000
 20
611.0000000002862
 30
0.0000000000000000
 40
6.199999809265137
 41
0.0000000000000000
 71
     8
 72
     1
  1
{\H0.69x;{36}}
 11
6.123233995736766e-017
 21
1.000000000000000
 31
0.0000000000000000
  7
STANDARD
  0
LINE
  5
212
100
AcDbEntity
  8
MAIN0
  6
CONTINUOUS
 62
3
100
AcDbLine
 10
352.1000000238129
 20
629.0000000002862
 30
0.0000000000000000
 11
394.0000000000000
 21
629.0000000002862
 31
0.0000000000000000
  0
LINE
  5
213
100
AcDbEntity
  8
MAIN0
  6
CONTINUOUS
 62
3
100
AcDbLine
 10
390.0000000000000
 20
629.0000000002964
 30
0.0000000000000000
 11
390.0000000000000
 21
672.0000000000348
 31
0.0000000000000000
  0
LINE
  5
214
100
AcDbEntity
  8
MAIN0
  6
CONTINUOUS
 62
3
100
AcDbLine
 10
388.7999999523163
 20
633.0000000002964
 30
0.0000000000000000
 11
390.0000000000000
 21
629.0000000002964
 31
0.0000000000000000
  0
LINE
  5
215
100
AcDbEntity
  8
MAIN0
  6
CONTINUOUS
 62
3
100
AcDbLine
 10
390.0000000000000
 20
629.0000000002964
 30
0.0000000000000000
 11
391.2000000476837
 21
633.0000000002964
 31
0.0000000000000000
  0
LINE
  5
216
100
AcDbEntity
  8
MAIN0
  6
CONTINUOUS
 62
3
100
AcDbLine
 10
388.7999999523163
 20
668.0000000000348
 30
0.0000000000000000
 11
390.0000000000000
 21
672.0000000000348
 31
0.0000000000000000
  0
LINE
  5
217
100
AcDbEntity
  8
MAIN0
  6
CONTINUOUS
 62
3
100
AcDbLine
 10
390.0000000000000
 20
672.0000000000348
 30
0.0000000000000000
 11
391.2000000476837
 21
668.0000000000348
 31
0.0000000000000000
  0
MTEXT
  5
218
100
AcDbEntity
  8
MAIN0
  6
CONTINUOUS
 62
3
100
AcDbMText
 10
389.0000000000000
 20
650.5000000001655
 30
0.0000000000000000
 40
6.199999809265137
 41
0.0000000000000000
 71
     8
 72
     1
  1
{\H0.69x;{43}}
 11
6.123233995736766e-017
 21
1.000000000000000
 31
0.0000000000000000
  7
STANDARD
  0
LINE
  5
219
100
AcDbEntity
  8
MAIN0
  6
CONTINUOUS
 62
3
100
AcDbLine
 10
334.1000000238129
 20
672.0000000000348
 30
0.0000000000000000
 11
394.0000000000000
 21
672.0000000000347
 31
0.0000000000000000
  0
LINE
  5
21A
100
AcDbEntity
  8
MAIN0
  6
CONTINUOUS
 62
3
100
AcDbLine
 10
334.1000000238129
 20
672.0000000000346
 30
0.0000000000000000
 11
414.0000000000000
 21
672.0000000000239
 31
0.0000000000000000
  0
LINE
  5
21B
100
AcDbEntity
  8
MAIN0
  6
CONTINUOUS
 62
3
100
AcDbLine
 10
410.0000000000000
 20
672.0000000000244
 30
0.0000000000000000
 11
410.0000000000000
 21
562.0000000002862
 31
0.0000000000000000
  0
LINE
  5
21C
100
AcDbEntity
  8
MAIN0
  6
CONTINUOUS
 62
3
100
AcDbLine
 10
411.2000000476837
 20
668.0000000000244
 30
0.0000000000000000
 11
410.0000000000000
 21
672.0000000000244
 31
0.0000000000000000
  0
LINE
  5
21D
100
AcDbEntity
  8
MAIN0
  6
CONTINUOUS
 62
3
100
AcDbLine
 10
410.0000000000000
 20
672.0000000000244
 30
0.0000000000000000
 11
408.7999999523163
 21
668.0000000000244
 31
0.0000000000000000
  0
LINE
  5
21E
100
AcDbEntity
  8
MAIN0
  6
CONTINUOUS
 62
3
100
AcDbLine
 10
411.2000000476837
 20
566.0000000002862
 30
0.0000000000000000
 11
410.0000000000000
 21
562.0000000002862
 31
0.0000000000000000
  0
LINE
  5
21F
100
AcDbEntity
  8
MAIN0
  6
CONTINUOUS
 62
3
100
AcDbLine
 10
410.0000000000000
 20
562.0000000002862
 30
0.0000000000000000
 11
408.7999999523163
 21
566.0000000002862
 31
0.0000000000000000
  0
MTEXT
  5
220
100
AcDbEntity
  8
MAIN0
  6
CONTINUOUS
 62
3
100
AcDbMText
 10
409.0000000000000
 20
617.0000000001553
 30
0.0000000000000000
 40
6.199999809265137
 41
0.0000000000000000
 71
     8
 72
     1
  1
{\H0.70x;{110}}
 11
6.123233995736766e-017
 21
1.000000000000000
 31
0.0000000000000000
  7
STANDARD
  0
LINE
  5
221
100
AcDbEntity
  8
MAIN0
  6
CONTINUOUS
 62
3
100
AcDbLine
 10
370.6000000238128
 20
562.0000000002862
 30
0.0000000000000000
 11
414.0000000000000
 21
562.0000000002862
 31
0.0000000000000000
  0
LINE
  5
222
100
AcDbEntity
  8
MAIN0
  6
CONTINUOUS
 62
3
100
AcDbLine
 10
369.9999999999710
 20
593.6000000241280
 30
0.0000000000000000
 11
369.9999999999710
 21
614.0000000000000
 31
0.0000000000000000
  0
LINE
  5
223
100
AcDbEntity
  8
MAIN0
  6
CONTINUOUS
 62
3
100
AcDbLine
 10
369.9999999999710
 20
610.0000000000000
 30
0.0000000000000000
 11
351.9999999999710
 21
610.0000000000000
 31
0.0000000000000000
  0
LINE
  5
224
100
AcDbEntity
  8
MAIN0
  6
CONTINUOUS
 62
3
100
AcDbLine
 10
365.9999999999710
 20
608.7999999523163
 30
0.0000000000000000
 11
369.9999999999710
 21
610.0000000000000
 31
0.0000000000000000
  0
LINE
  5
225
100
AcDbEntity
  8
MAIN0
  6
CONTINUOUS
 62
3
100
AcDbLine
 10
369.9999999999710
 20
610.0000000000000
 30
0.0000000000000000
 11
365.9999999999710
 21
611.2000000476837
 31
0.0000000000000000
  0
LINE
  5
226
100
AcDbEntity
  8
MAIN0
  6
CONTINUOUS
 62
3
100
AcDbLine
 10
355.9999999999710
 20
608.7999999523163
 30
0.0000000000000000
 11
351.9999999999710
 21
610.0000000000000
 31
0.0000000000000000
  0
LINE
  5
227
100
AcDbEntity
  8
MAIN0
  6
CONTINUOUS
 62
3
100
AcDbLine
 10
351.9999999999710
 20
610.0000000000000
 30
0.0000000000000000
 11
355.9999999999710
 21
611.2000000476837
 31
0.0000000000000000
  0
MTEXT
  5
228
100
AcDbEntity
  8
MAIN0
  6
CONTINUOUS
 62
3
100
AcDbMText
 10
360.9999999999710
 20
611.0000000000000
 30
0.0000000000000000
 40
6.199999809265137
 41
0.0000000000000000
 71
     8
 72
     1
  1
{\H0.69x;{18}}
 11
1.000000000000000
 21
0.0000000000000000
 31
0.0000000000000000
  7
STANDARD
  0
LINE
  5
229
100
AcDbEntity
  8
MAIN0
  6
CONTINUOUS
 62
3
100
AcDbLine
 10
333.9999999999710
 20
645.0000000000000
 30
0.0000000000000000
 11
351.9999999999710
 21
645.0000000000000
 31
0.0000000000000000
  0
LINE
  5
22A
100
AcDbEntity
  8
MAIN0
  6
CONTINUOUS
 62
3
100
AcDbLine
 10
337.9999999999710
 20
646.2000000476837
 30
0.0000000000000000
 11
333.9999999999710
 21
645.0000000000000
 31
0.0000000000000000
  0
LINE
  5
22B
100
AcDbEntity
  8
MAIN0
  6
CONTINUOUS
 62
3
100
AcDbLine
 10
333.9999999999710
 20
645.0000000000000
 30
0.0000000000000000
 11
337.9999999999710
 21
643.7999999523163
 31
0.0000000000000000
  0
LINE
  5
22C
100
AcDbEntity
  8
MAIN0
  6
CONTINUOUS
 62
3
100
AcDbLine
 10
347.9999999999710
 20
646.2000000476837
 30
0.0000000000000000
 11
351.9999999999710
 21
645.0000000000000
 31
0.0000000000000000
  0
LINE
  5
22D
100
AcDbEntity
  8
MAIN0
  6
CONTINUOUS
 62
3
100
AcDbLine
 10
351.9999999999710
 20
645.0000000000000
 30
0.0000000000000000
 11
347.9999999999710
 21
643.7999999523163
 31
0.0000000000000000
  0
MTEXT
  5
22E
100
AcDbEntity
  8
MAIN0
  6
CONTINUOUS
 62
3
100
AcDbMText
 10
342.9999999999710
 20
646.0000000000000
 30
0.0000000000000000
 40
6.199999809265137
 41
0.0000000000000000
 71
     8
 72
     1
  1
{\H0.69x;{18}}
 11
1.000000000000000
 21
0.0000000000000000
 31
0.0000000000000000
  7
STANDARD
  0
LINE
  5
22F
100
AcDbEntity
  8
MAIN0
  6
CONTINUOUS
 62
3
100
AcDbLine
 10
351.9999999999710
 20
620.6000000241280
 30
0.0000000000000000
 11
351.9999999999710
 21
649.0000000000000
 31
0.0000000000000000
  0
LINE
  5
230
100
AcDbEntity
  8
MAIN0
  6
CONTINUOUS
 62
3
100
AcDbLine
 10
1015.500000000000
 20
620.0000000000000
 30
0.0000000000000000
 11
984.5000000000002
 21
620.0000000000000
 31
0.0000000000000000
  0
LINE
  5
231
100
AcDbEntity
  8
MAIN0
  6
CONTINUOUS
 62
3
100
AcDbLine
 10
1013.500000000000
 20
618.7999999523163
 30
0.0000000000000000
 11
1009.500000000000
 21
620.0000000000000
 31
0.0000000000000000
  0
LINE
  5
232
100
AcDbEntity
  8
MAIN0
  6
CONTINUOUS
 62
3
100
AcDbLine
 10
1009.500000000000
 20
620.0000000000000
 30
0.0000000000000000
 11
1013.500000000000
 21
621.2000000476837
 31
0.0000000000000000
  0
LINE
  5
233
100
AcDbEntity
  8
MAIN0
  6
CONTINUOUS
 62
3
100
AcDbLine
 10
986.5000000000002
 20
618.7999999523163
 30
0.0000000000000000
 11
990.5000000000002
 21
620.0000000000000
 31
0.0000000000000000
  0
LINE
  5
234
100
AcDbEntity
  8
MAIN0
  6
CONTINUOUS
 62
3
100
AcDbLine
 10
990.5000000000002
 20
620.0000000000000
 30
0.0000000000000000
 11
986.5000000000002
 21
621.2000000476837
 31
0.0000000000000000
  0
MTEXT
  5
235
100
AcDbEntity
  8
MAIN0
  6
CONTINUOUS
 62
3
100
AcDbMText
 10
1000.000000000000
 20
621.0000000000000
 30
0.0000000000000000
 40
6.199999809265137
 41
0.0000000000000000
 71
     8
 72
     1
  1
{\U+220519}
 11
1.000000000000000
 21
0.0000000000000000
 31
0.0000000000000000
  7
STANDARD
  0
LINE
  5
236
100
AcDbEntity
  8
MAIN0
  6
CONTINUOUS
 62
3
100
AcDbLine
 10
960.0000000000000
 20
687.0000000000028
 30
0.0000000000000000
 11
960.0000000000000
 21
716.8999996185336
 31
0.0000000000000000
  0
LINE
  5
237
100
AcDbEntity
  8
MAIN0
  6
CONTINUOUS
 62
3
100
AcDbLine
 10
958.7999999523163
 20
689.0000000000028
 30
0.0000000000000000
 11
960.0000000000000
 21
693.0000000000028
 31
0.0000000000000000
  0
LINE
  5
238
100
AcDbEntity
  8
MAIN0
  6
CONTINUOUS
 62
3
100
AcDbLine
 10
960.0000000000000
 20
693.0000000000028
 30
0.0000000000000000
 11
961.2000000476837
 21
689.0000000000028
 31
0.0000000000000000
  0
LINE
  5
239
100
AcDbEntity
  8
MAIN0
  6
CONTINUOUS
 62
3
100
AcDbLine
 10
958.7999999523163
 20
711.0000000000033
 30
0.0000000000000000
 11
960.0000000000000
 21
707.0000000000033
 31
0.0000000000000000
  0
LINE
  5
23A
100
AcDbEntity
  8
MAIN0
  6
CONTINUOUS
 62
3
100
AcDbLine
 10
960.0000000000000
 20
707.0000000000033
 30
0.0000000000000000
 11
961.2000000476837
 21
711.0000000000033
 31
0.0000000000000000
  0
MTEXT
  5
23B
100
AcDbEntity
  8
MAIN0
  6
CONTINUOUS
 62
3
100
AcDbMText
 10
959.0000000000000
 20
720.0000000000000
 30
0.0000000000000000
 40
6.199999809265137
 41
0.0000000000000000
 71
     8
 72
     1
  1
{\U+220514}
 11
6.123233995736766e-017
 21
1.000000000000000
 31
0.0000000000000000
  7
STANDARD
  0
LINE
  5
23C
100
AcDbEntity
  8
MAIN0
  6
CONTINUOUS
 62
3
100
AcDbLine
 10
1009.350000023848
 20
560.9999999999768
 30
0.0000000000000000
 11
1029.000000000000
 21
560.9999999999768
 31
0.0000000000000000
  0
LINE
  5
23D
100
AcDbEntity
  8
MAIN0
  6
CONTINUOUS
 62
3
100
AcDbLine
 10
1025.000000000000
 20
566.9999999999768
 30
0.0000000000000000
 11
1025.000000000000
 21
539.9999999999770
 31
0.0000000000000000
  0
LINE
  5
23E
100
AcDbEntity
  8
MAIN0
  6
CONTINUOUS
 62
3
100
AcDbLine
 10
1026.200000047684
 20
564.9999999999768
 30
0.0000000000000000
 11
1025.000000000000
 21
560.9999999999768
 31
0.0000000000000000
  0
LINE
  5
23F
100
AcDbEntity
  8
MAIN0
  6
CONTINUOUS
 62
3
100
AcDbLine
 10
1025.000000000000
 20
560.9999999999768
 30
0.0000000000000000
 11
1023.799999952316
 21
564.9999999999768
 31
0.0000000000000000
  0
LINE
  5
240
100
AcDbEntity
  8
MAIN0
  6
CONTINUOUS
 62
3
100
AcDbLine
 10
1026.200000047684
 20
541.9999999999770
 30
0.0000000000000000
 11
1025.000000000000
 21
545.9999999999770
 31
0.0000000000000000
  0
LINE
  5
241
100
AcDbEntity
  8
MAIN0
  6
CONTINUOUS
 62
3
100
AcDbLine
 10
1025.000000000000
 20
545.9999999999770
 30
0.0000000000000000
 11
1023.799999952316
 21
541.9999999999770
 31
0.0000000000000000
  0
MTEXT
  5
242
100
AcDbEntity
  8
MAIN0
  6
CONTINUOUS
 62
3
100
AcDbMText
 10
1024.000000000000
 20
553.4999999999769
 30
0.0000000000000000
 40
6.199999809265137
 41
0.0000000000000000
 71
     8
 72
     1
  1
{\H0.69x;{15}}
 11
6.123233995736766e-017
 21
1.000000000000000
 31
0.0000000000000000
  7
STANDARD
  0
LINE
  5
243
100
AcDbEntity
  8
MAIN0
  6
CONTINUOUS
 62
3
100
AcDbLine
 10
1008.650000023842
 20
545.9999999999770
 30
0.0000000000000000
 11
1029.000000000000
 21
545.9999999999770
 31
0.0000000000000000
  0
LINE
  5
244
100
AcDbEntity
  8
MAIN0
  6
CONTINUOUS
 62
3
100
AcDbLine
 10
639.5000000000002
 20
564.6645086035131
 30
0.0000000000000000
 11
639.5000000000001
 21
536.0000000000000
 31
0.0000000000000000
  0
LINE
  5
245
100
AcDbEntity
  8
MAIN0
  6
CONTINUOUS
 62
3
100
AcDbLine
 10
639.5000000000005
 20
674.6847159885490
 30
0.0000000000000000
 11
639.5000000000005
 21
669.3354913964867
 31
0.0000000000000000
  0
LINE
  5
246
100
AcDbEntity
  8
MAIN0
  6
CONTINUOUS
 62
3
100
AcDbLine
 10
660.5000000000002
 20
564.6645086035130
 30
0.0000000000000000
 11
660.5000000000001
 21
536.0000000000000
 31
0.0000000000000000
  0
LINE
  5
247
100
AcDbEntity
  8
MAIN0
  6
CONTINUOUS
 62
3
100
AcDbLine
 10
660.5000000000005
 20
674.6847159885489
 30
0.0000000000000000
 11
660.5000000000005
 21
669.3354913964870
 31
0.0000000000000000
  0
LINE
  5
248
100
AcDbEntity
  8
MAIN0
  6
CONTINUOUS
 62
3
100
AcDbLine
 10
632.5000000002174
 20
661.3354913967037
 30
0.0000000000000000
 11
632.5000000002174
 21
674.1228014936803
 31
0.0000000000000000
  0
LINE
  5
249
100
AcDbEntity
  8
MAIN0
  6
CONTINUOUS
 62
3
100
AcDbLine
 10
632.5000000001918
 20
572.6645086033213
 30
0.0000000000000000
 11
632.5000000001918
 21
533.1662479036552
 31
0.0000000000000000
  0
LINE
  5
24A
100
AcDbEntity
  8
MAIN0
  6
CONTINUOUS
 62
3
100
AcDbLine
 10
667.4999999997835
 20
661.3354913967037
 30
0.0000000000000000
 11
667.4999999997837
 21
674.1228014936803
 31
0.0000000000000000
  0
LINE
  5
24B
100
AcDbEntity
  8
MAIN0
  6
CONTINUOUS
 62
3
100
AcDbLine
 10
667.4999999998087
 20
572.6645086033212
 30
0.0000000000000000
 11
667.4999999998084
 21
533.1662479036551
 31
0.0000000000000000
  0
LINE
  5
24C
100
AcDbEntity
  8
MAIN0
  6
CONTINUOUS
 62
3
100
AcDbLine
 10
585.3354913964870
 20
510.5000000000003
 30
0.0000000000000000
 11
614.0000000000000
 21
510.5000000000002
 31
0.0000000000000000
  0
LINE
  5
24D
100
AcDbEntity
  8
MAIN0
  6
CONTINUOUS
 62
3
100
AcDbLine
 10
577.3354913966788
 20
517.4999999998088
 30
0.0000000000000000
 11
616.8337520963449
 21
517.4999999998084
 31
0.0000000000000000
  0
LINE
  5
24E
100
AcDbEntity
  8
MAIN0
  6
CONTINUOUS
 62
3
100
AcDbLine
 10
475.3152840114511
 20
510.5000000000007
 30
0.0000000000000000
 11
480.6645086035130
 21
510.5000000000007
 31
0.0000000000000000
  0
LINE
  5
24F
100
AcDbEntity
  8
MAIN0
  6
CONTINUOUS
 62
3
100
AcDbLine
 10
488.6645086032964
 20
517.4999999997838
 30
0.0000000000000000
 11
475.8771985063198
 21
517.4999999997839
 31
0.0000000000000000
  0
LINE
  5
250
100
AcDbEntity
  8
MAIN0
  6
CONTINUOUS
 62
3
100
AcDbLine
 10
811.3354913967037
 20
517.4999999997829
 30
0.0000000000000000
 11
824.1228014936803
 21
517.4999999997829
 31
0.0000000000000000
  0
LINE
  5
251
100
AcDbEntity
  8
MAIN0
  6
CONTINUOUS
 62
3
100
AcDbLine
 10
824.6847159885490
 20
510.4999999999997
 30
0.0000000000000000
 11
819.3354913964871
 21
510.4999999999997
 31
0.0000000000000000
  0
LINE
  5
252
100
AcDbEntity
  8
MAIN0
  6
CONTINUOUS
 62
3
100
AcDbLine
 10
722.6645086033213
 20
517.4999999998083
 30
0.0000000000000000
 11
683.1662479036552
 21
517.4999999998082
 31
0.0000000000000000
  0
LINE
  5
253
100
AcDbEntity
  8
MAIN0
  6
CONTINUOUS
 62
3
100
AcDbLine
 10
714.6645086035130
 20
510.4999999999999
 30
0.0000000000000000
 11
686.0000000000000
 21
510.4999999999999
 31
0.0000000000000000
  0
ARC
  5
254
100
AcDbEntity
  8
MAIN0
  6
CONTINUOUS
 62
3
100
AcDbCircle
 10
980.3771895152843
 20
699.9999999999843
 30
0.0000000000000000
 40
9.636473354732038
100
AcDbArc
 50
313.4139948783097
 51
406.5860051216986
  0
ARC
  5
255
100
AcDbEntity
  8
MAIN0
  6
CONTINUOUS
 62
3
100
AcDbCircle
 10
1019.622810484716
 20
699.9999999999843
 30
0.0000000000000000
 40
9.636473354732038
100
AcDbArc
 50
133.4139948783014
 51
226.5860051216902
  0
LINE
  5
256
100
AcDbEntity
  8
MAIN0
  6
CONTINUOUS
 62
3
100
AcDbLine
 10
252.0000000000000
 20
448.5000000000000
 30
0.0000000000000000
 11
248.5000312932063
 21
448.5000000000000
 31
0.0000000000000000
  0
LINE
  5
257
100
AcDbEntity
  8
MAIN0
  6
CONTINUOUS
 62
3
100
AcDbLine
 10
248.5000312932064
 20
448.5000000000000
 30
0.0000000000000000
 11
234.9999999946572
 21
446.8125000000000
 31
0.0000000000000000
  0
POINT
  5
258
100
AcDbEntity
  8
MAIN0
  6
CONTINUOUS
 62
3
100
AcDbPoint
 10
234.9999999946572
 20
446.8125000000000
 30
0.0000000000000000
  0
POINT
  5
259
100
AcDbEntity
  8
MAIN0
  6
CONTINUOUS
 62
3
100
AcDbPoint
 10
234.9999999946572
 20
553.1875000000000
 30
0.0000000000000000
  0
LINE
  5
25A
100
AcDbEntity
  8
MAIN0
  6
CONTINUOUS
 62
3
100
AcDbLine
 10
233.3999999708153
 20
553.1875000000000
 30
0.0000000000000000
 11
166.0000000000000
 21
553.1875000000000
 31
0.0000000000000000
  0
LINE
  5
25B
100
AcDbEntity
  8
MAIN0
  6
CONTINUOUS
 62
3
100
AcDbLine
 10
170.0000000000000
 20
553.1875000000000
 30
0.0000000000000000
 11
170.0000000000000
 21
446.8125000000000
 31
0.0000000000000000
  0
LINE
  5
25C
100
AcDbEntity
  8
MAIN0
  6
CONTINUOUS
 62
3
100
AcDbLine
 10
171.2000000476837
 20
549.1875000000000
 30
0.0000000000000000
 11
170.0000000000000
 21
553.1875000000000
 31
0.0000000000000000
  0
LINE
  5
25D
100
AcDbEntity
  8
MAIN0
  6
CONTINUOUS
 62
3
100
AcDbLine
 10
170.0000000000000
 20
553.1875000000000
 30
0.0000000000000000
 11
168.7999999523163
 21
549.1875000000000
 31
0.0000000000000000
  0
LINE
  5
25E
100
AcDbEntity
  8
MAIN0
  6
CONTINUOUS
 62
3
100
AcDbLine
 10
171.2000000476837
 20
450.8125000000000
 30
0.0000000000000000
 11
170.0000000000000
 21
446.8125000000000
 31
0.0000000000000000
  0
LINE
  5
25F
100
AcDbEntity
  8
MAIN0
  6
CONTINUOUS
 62
3
100
AcDbLine
 10
170.0000000000000
 20
446.8125000000000
 30
0.0000000000000000
 11
168.7999999523163
 21
450.8125000000000
 31
0.0000000000000000
  0
MTEXT
  5
260
100
AcDbEntity
  8
MAIN0
  6
CONTINUOUS
 62
3
100
AcDbMText
 10
169.0000000000000
 20
490.0499997287989
 30
0.0000000000000000
 40
6.199999809265137
 41
0.0000000000000000
 71
     8
 72
     1
  1
{\U+2205106.375}
 11
6.123233995736766e-017
 21
1.000000000000000
 31
0.0000000000000000
  7
STANDARD
  0
MTEXT
  5
261
100
AcDbEntity
  8
MAIN0
  6
CONTINUOUS
 62
3
100
AcDbMText
 10
163.4000000953674
 20
516.3000000119209
 30
0.0000000000000000
 40
5.599999904632568
 41
0.0000000000000000
 71
     8
 72
     1
  1
{+0.004}
 11
6.123233995736766e-017
 21
1.000000000000000
 31
0.0000000000000000
  7
STANDARD
  0
MTEXT
  5
262
100
AcDbEntity
  8
MAIN0
  6
CONTINUOUS
 62
3
100
AcDbMText
 10
169.0000000000000
 20
516.3000000119209
 30
0.0000000000000000
 40
5.599999904632568
 41
0.0000000000000000
 71
     8
 72
     1
  1
{-0.006}
 11
6.123233995736766e-017
 21
1.000000000000000
 31
0.0000000000000000
  7
STANDARD
  0
LINE
  5
263
100
AcDbEntity
  8
MAIN0
  6
CONTINUOUS
 62
3
100
AcDbLine
 10
233.3999999708153
 20
446.8125000000000
 30
0.0000000000000000
 11
166.0000000000000
 21
446.8125000000000
 31
0.0000000000000000
  0
POINT
  5
264
100
AcDbEntity
  8
MAIN0
  6
CONTINUOUS
 62
3
100
AcDbPoint
 10
235.0000000000000
 20
448.5000000000000
 30
0.0000000000000000
  0
LINE
  5
265
100
AcDbEntity
  8
MAIN0
  6
CONTINUOUS
 62
3
100
AcDbLine
 10
234.9999999946572
 20
446.8125000000000
 30
0.0000000000000000
 11
234.6897975995858
 21
446.8125000000000
 31
0.0000000000000000
  0
LINE
  5
266
100
AcDbEntity
  8
MAIN0
  6
CONTINUOUS
 62
3
100
AcDbLine
 10
233.0897975757439
 20
446.8125000000000
 30
0.0000000000000000
 11
166.0000000000000
 21
446.8125000000000
 31
0.0000000000000000
  0
ARC
  5
267
100
AcDbEntity
  8
MAIN0
  6
CONTINUOUS
 62
3
100
AcDbCircle
 10
234.9999999946572
 20
446.8125000000000
 30
0.0000000000000000
 40
64.99999999465717
100
AcDbArc
 50
179.8445878852646
 51
195.8393454001557
  0
LINE
  5
268
100
AcDbEntity
  8
MAIN0
  6
CONTINUOUS
 62
3
100
AcDbLine
 10
172.1888070607146
 20
434.9299903556172
 30
0.0000000000000000
 11
170.5019357130703
 21
438.7502606563862
 31
0.0000000000000000
  0
LINE
  5
269
100
AcDbEntity
  8
MAIN0
  6
CONTINUOUS
 62
3
100
AcDbLine
 10
170.5019357130703
 20
438.7502606563862
 30
0.0000000000000000
 11
169.8073399770292
 21
434.6323076603073
 31
0.0000000000000000
  0
MTEXT
  5
26A
100
AcDbEntity
  8
MAIN0
  6
CONTINUOUS
 62
3
100
AcDbMText
 10
170.4714862091678
 20
432.9535351060885
 30
0.0000000000000000
 40
6.199999809265137
 41
0.0000000000000000
 71
     8
 72
     1
  1
{\H0.56x;{7\U+00B007′30″}}
 11
-0.2099843165914160
 21
0.9777047544047416
 31
0.0000000000000000
  7
KNJYOKO
  0
LINE
  5
26B
100
AcDbEntity
  8
MAIN0
  6
CONTINUOUS
 62
3
100
AcDbLine
 10
233.4123553116298
 20
446.6140448747221
 30
0.0000000000000000
 11
166.5328240646462
 21
438.2541228505845
 31
0.0000000000000000
  0
LINE
  5
26C
100
AcDbEntity
  8
MAIN0
  6
CENTER
 62
3
100
AcDbLine
 10
225.0000000000000
 20
623.0000000000000
 30
0.0000000000000000
 11
255.0000000000000
 21
623.0000000000000
 31
0.0000000000000000
  0
ARC
  5
26D
100
AcDbEntity
  8
MAIN0
  6
PHANTOM
 62
3
100
AcDbCircle
 10
650.0000000000000
 20
500.0000000000000
 30
0.0000000000000000
 40
55.00000000000000
100
AcDbArc
 50
18.55300453480995
 51
71.44699546518974
  0
ARC
  5
26E
100
AcDbEntity
  8
MAIN0
  6
PHANTOM
 62
3
100
AcDbCircle
 10
650.0000000000000
 20
500.0000000000000
 30
0.0000000000000000
 40
55.00000000000000
100
AcDbArc
 50
109.0519676207415
 51
160.0114242199722
  0
LINE
  5
26F
100
AcDbEntity
  8
MAIN0
  6
CONTINUOUS
 62
3
100
AcDbLine
 10
325.0000000000000
 20
445.4999999997342
 30
0.0000000000000000
 11
325.0000000000000
 21
673.0000000000000
 31
0.0000000000000000
  0
SPLINE
  5
270
100
AcDbEntity
  8
MAIN0
  6
CONTINUOUS
 62
3
100
AcDbSpline
210
0.0000000000000000
220
0.0000000000000000
230
1.000000000000000
 70
     8
 71
     3
 72
    15
 73
    11
 74
     0
 42
1.000000000000000e-007
 43
1.000000000000000e-007
 12
-0.1441800357181791
 22
-0.9784471538234101
 32
0.0000000000000000
 13
0.4836031303819368
 23
-0.8876499788414805
 33
0.0000000000000000
 40
0.0000000000000000
 40
0.0000000000000000
 40
0.0000000000000000
 40
0.0000000000000000
 40
35.35533905932738
 40
70.35533905932738
 40
103.8963587218242
 40
140.2969081682268
 40
220.2969081682268
 40
256.6974576146294
 40
347.9388955691027
 40
359.1192354566016
 40
359.1192354566016
 40
359.1192354566016
 40
359.1192354566016
 10
253.0000000000000
 20
675.0000000000000
 30
0.0000000000000000
 10
251.3008219838659
 20
663.4688897083132
 30
0.0000000000000000
 10
247.9195435510198
 20
640.5225626220203
 30
0.0000000000000000
 10
243.4966361762465
 20
604.2587722120969
 30
0.0000000000000000
 10
265.8362095044972
 20
574.9725028706470
 30
0.0000000000000000
 10
276.9908172179368
 20
525.9452874450784
 30
0.0000000000000000
 10
278.3264807817256
 20
473.2817531631108
 30
0.0000000000000000
 10
258.5867612705342
 20
408.3070023417068
 30
0.0000000000000000
 10
234.6872200826704
 20
358.6129724663049
 30
0.0000000000000000
 10
251.1977175438905
 20
328.3080761548597
 30
0.0000000000000000
 10
253.0000000000000
 20
325.0000000000000
 30
0.0000000000000000
  0
LINE
  5
271
100
AcDbEntity
  8
MAIN0
  6
CONTINUOUS
 62
3
100
AcDbLine
 10
325.0000000000000
 20
674.6000000238419
 30
0.0000000000000000
 11
325.0000000000000
 21
714.0000000000000
 31
0.0000000000000000
  0
LINE
  5
272
100
AcDbEntity
  8
MAIN0
  6
CONTINUOUS
 62
3
100
AcDbLine
 10
325.0000000000000
 20
710.0000000000000
 30
0.0000000000000000
 11
234.9999999999999
 21
710.0000000000000
 31
0.0000000000000000
  0
LINE
  5
273
100
AcDbEntity
  8
MAIN0
  6
CONTINUOUS
 62
3
100
AcDbLine
 10
321.0000000000000
 20
708.7999999523163
 30
0.0000000000000000
 11
325.0000000000000
 21
710.0000000000000
 31
0.0000000000000000
  0
LINE
  5
274
100
AcDbEntity
  8
MAIN0
  6
CONTINUOUS
 62
3
100
AcDbLine
 10
325.0000000000000
 20
710.0000000000000
 30
0.0000000000000000
 11
321.0000000000000
 21
711.2000000476837
 31
0.0000000000000000
  0
LINE
  5
275
100
AcDbEntity
  8
MAIN0
  6
CONTINUOUS
 62
3
100
AcDbLine
 10
238.9999999999999
 20
708.7999999523163
 30
0.0000000000000000
 11
234.9999999999999
 21
710.0000000000000
 31
0.0000000000000000
  0
LINE
  5
276
100
AcDbEntity
  8
MAIN0
  6
CONTINUOUS
 62
3
100
AcDbLine
 10
234.9999999999999
 20
710.0000000000000
 30
0.0000000000000000
 11
238.9999999999999
 21
711.2000000476837
 31
0.0000000000000000
  0
MTEXT
  5
277
100
AcDbEntity
  8
MAIN0
  6
CONTINUOUS
 62
3
100
AcDbMText
 10
280.0000000000000
 20
711.0000000000000
 30
0.0000000000000000
 40
6.199999809265137
 41
0.0000000000000000
 71
     8
 72
     1
  1
{\H0.69x;{90}}
 11
1.000000000000000
 21
0.0000000000000000
 31
0.0000000000000000
  7
STANDARD
  0
LINE
  5
278
100
AcDbEntity
  8
MAIN0
  6
CONTINUOUS
 62
3
100
AcDbLine
 10
235.0000000000000
 20
674.6000000238419
 30
0.0000000000000000
 11
234.9999999999999
 21
714.0000000000000
 31
0.0000000000000000
  0
LINE
  5
279
100
AcDbEntity
  8
MAIN0
  6
CONTINUOUS
 62
3
100
AcDbLine
 10
325.0000000000000
 20
674.6000000238419
 30
0.0000000000000000
 11
325.0000000000001
 21
699.0000000000000
 31
0.0000000000000000
  0
LINE
  5
27A
100
AcDbEntity
  8
MAIN0
  6
CONTINUOUS
 62
3
100
AcDbLine
 10
325.0000000000001
 20
695.0000000000000
 30
0.0000000000000000
 11
288.0000000000001
 21
695.0000000000000
 31
0.0000000000000000
  0
LINE
  5
27B
100
AcDbEntity
  8
MAIN0
  6
CONTINUOUS
 62
3
100
AcDbLine
 10
321.0000000000001
 20
693.7999999523163
 30
0.0000000000000000
 11
325.0000000000001
 21
695.0000000000000
 31
0.0000000000000000
  0
LINE
  5
27C
100
AcDbEntity
  8
MAIN0
  6
CONTINUOUS
 62
3
100
AcDbLine
 10
325.0000000000001
 20
695.0000000000000
 30
0.0000000000000000
 11
321.0000000000001
 21
696.2000000476837
 31
0.0000000000000000
  0
LINE
  5
27D
100
AcDbEntity
  8
MAIN0
  6
CONTINUOUS
 62
3
100
AcDbLine
 10
292.0000000000001
 20
693.7999999523163
 30
0.0000000000000000
 11
288.0000000000001
 21
695.0000000000000
 31
0.0000000000000000
  0
LINE
  5
27E
100
AcDbEntity
  8
MAIN0
  6
CONTINUOUS
 62
3
100
AcDbLine
 10
288.0000000000001
 20
695.0000000000000
 30
0.0000000000000000
 11
292.0000000000001
 21
696.2000000476837
 31
0.0000000000000000
  0
MTEXT
  5
27F
100
AcDbEntity
  8
MAIN0
  6
CONTINUOUS
 62
3
100
AcDbMText
 10
306.5000000000001
 20
696.0000000000000
 30
0.0000000000000000
 40
6.199999809265137
 41
0.0000000000000000
 71
     8
 72
     1
  1
{\H0.69x;{37}}
 11
1.000000000000000
 21
0.0000000000000000
 31
0.0000000000000000
  7
STANDARD
  0
LINE
  5
280
100
AcDbEntity
  8
MAIN0
  6
CONTINUOUS
 62
3
100
AcDbLine
 10
288.0000000000001
 20
686.6000000238419
 30
0.0000000000000000
 11
288.0000000000001
 21
699.0000000000000
 31
0.0000000000000000
  0
LINE
  5
281
100
AcDbEntity
  8
MAIN0
  6
CONTINUOUS
 62
3
100
AcDbLine
 10
288.0000000000000
 20
695.0000000000000
 30
0.0000000000000000
 11
235.0000000000000
 21
695.0000000000000
 31
0.0000000000000000
  0
LINE
  5
282
100
AcDbEntity
  8
MAIN0
  6
CONTINUOUS
 62
3
100
AcDbLine
 10
284.0000000000000
 20
693.7999999523163
 30
0.0000000000000000
 11
288.0000000000000
 21
695.0000000000000
 31
0.0000000000000000
  0
LINE
  5
283
100
AcDbEntity
  8
MAIN0
  6
CONTINUOUS
 62
3
100
AcDbLine
 10
288.0000000000000
 20
695.0000000000000
 30
0.0000000000000000
 11
284.0000000000000
 21
696.2000000476837
 31
0.0000000000000000
  0
LINE
  5
284
100
AcDbEntity
  8
MAIN0
  6
CONTINUOUS
 62
3
100
AcDbLine
 10
239.0000000000000
 20
693.7999999523163
 30
0.0000000000000000
 11
235.0000000000000
 21
695.0000000000000
 31
0.0000000000000000
  0
LINE
  5
285
100
AcDbEntity
  8
MAIN0
  6
CONTINUOUS
 62
3
100
AcDbLine
 10
235.0000000000000
 20
695.0000000000000
 30
0.0000000000000000
 11
239.0000000000000
 21
696.2000000476837
 31
0.0000000000000000
  0
MTEXT
  5
286
100
AcDbEntity
  8
MAIN0
  6
CONTINUOUS
 62
3
100
AcDbMText
 10
261.5000000000000
 20
696.0000000000000
 30
0.0000000000000000
 40
6.199999809265137
 41
0.0000000000000000
 71
     8
 72
     1
  1
{\H0.69x;{53}}
 11
1.000000000000000
 21
0.0000000000000000
 31
0.0000000000000000
  7
STANDARD
  0
LINE
  5
287
100
AcDbEntity
  8
MAIN0
  6
CONTINUOUS
 62
3
100
AcDbLine
 10
235.0000000000000
 20
674.6000000238419
 30
0.0000000000000000
 11
235.0000000000000
 21
699.0000000000000
 31
0.0000000000000000
  0
LINE
  5
288
100
AcDbEntity
  8
MAIN0
  6
CONTINUOUS
 62
3
100
AcDbLine
 10
253.9999999999999
 20
537.5000000000000
 30
0.0000000000000000
 11
273.3938586428720
 21
537.4999997435950
 31
0.0000000000000000
  0
LINE
  5
289
100
AcDbEntity
  8
MAIN0
  6
HIDDEN
 62
3
100
AcDbLine
 10
273.3938586428720
 20
537.4999997435950
 30
0.0000000000000000
 11
325.0000000000000
 21
537.5000000000000
 31
0.0000000000000000
  0
LINE
  5
28A
100
AcDbEntity
  8
MAIN0
  6
CONTINUOUS
 62
3
100
AcDbLine
 10
253.9999999999999
 20
462.5000000000000
 30
0.0000000000000000
 11
273.4660714690810
 21
462.5000000000381
 31
0.0000000000000000
  0
LINE
  5
28B
100
AcDbEntity
  8
MAIN0
  6
HIDDEN
 62
3
100
AcDbLine
 10
273.4660714690810
 20
462.5000000000381
 30
0.0000000000000000
 11
324.9999999999999
 21
462.5000000000000
 31
0.0000000000000000
  0
LINE
  5
28C
100
AcDbEntity
  8
MAIN0
  6
CENTER
 62
3
100
AcDbLine
 10
220.0000000000000
 20
500.0000000000000
 30
0.0000000000000000
 11
380.0000000000000
 21
500.0000000000000
 31
0.0000000000000000
  0
LINE
  5
28D
100
AcDbEntity
  8
MAIN0
  6
CONTINUOUS
 62
3
100
AcDbLine
 10
252.3999999761580
 20
537.5000000000000
 30
0.0000000000000000
 11
206.0000000000000
 21
537.5000000000000
 31
0.0000000000000000
  0
LINE
  5
28E
100
AcDbEntity
  8
MAIN0
  6
CONTINUOUS
 62
3
100
AcDbLine
 10
210.0000000000000
 20
537.5000000000000
 30
0.0000000000000000
 11
210.0000000000000
 21
462.5000000000000
 31
0.0000000000000000
  0
LINE
  5
28F
100
AcDbEntity
  8
MAIN0
  6
CONTINUOUS
 62
3
100
AcDbLine
 10
211.2000000476837
 20
533.5000000000000
 30
0.0000000000000000
 11
210.0000000000000
 21
537.5000000000000
 31
0.0000000000000000
  0
LINE
  5
290
100
AcDbEntity
  8
MAIN0
  6
CONTINUOUS
 62
3
100
AcDbLine
 10
210.0000000000000
 20
537.5000000000000
 30
0.0000000000000000
 11
208.7999999523163
 21
533.5000000000000
 31
0.0000000000000000
  0
LINE
  5
291
100
AcDbEntity
  8
MAIN0
  6
CONTINUOUS
 62
3
100
AcDbLine
 10
211.2000000476837
 20
466.5000000000000
 30
0.0000000000000000
 11
210.0000000000000
 21
462.5000000000000
 31
0.0000000000000000
  0
LINE
  5
292
100
AcDbEntity
  8
MAIN0
  6
CONTINUOUS
 62
3
100
AcDbLine
 10
210.0000000000000
 20
462.5000000000000
 30
0.0000000000000000
 11
208.7999999523163
 21
466.5000000000000
 31
0.0000000000000000
  0
MTEXT
  5
293
100
AcDbEntity
  8
MAIN0
  6
CONTINUOUS
 62
3
100
AcDbMText
 10
209.0000000000000
 20
500.0000000000000
 30
0.0000000000000000
 40
6.199999809265137
 41
0.0000000000000000
 71
     8
 72
     1
  1
{\U+220575}
 11
6.123233995736766e-017
 21
1.000000000000000
 31
0.0000000000000000
  7
STANDARD
  0
LINE
  5
294
100
AcDbEntity
  8
MAIN0
  6
CONTINUOUS
 62
3
100
AcDbLine
 10
252.3999999761581
 20
462.5000000000000
 30
0.0000000000000000
 11
206.0000000000000
 21
462.5000000000000
 31
0.0000000000000000
  0
LINE
  5
295
100
AcDbEntity
  8
MAIN0
  6
CONTINUOUS
 62
3
100
AcDbLine
 10
235.0000000000000
 20
475.0000000000000
 30
0.0000000000000000
 11
252.0000000000000
 21
475.0000000000000
 31
0.0000000000000000
  0
LINE
  5
296
100
AcDbEntity
  8
MAIN0
  6
CONTINUOUS
 62
3
100
AcDbLine
 10
239.0000000000000
 20
476.2000000476837
 30
0.0000000000000000
 11
235.0000000000000
 21
475.0000000000000
 31
0.0000000000000000
  0
LINE
  5
297
100
AcDbEntity
  8
MAIN0
  6
CONTINUOUS
 62
3
100
AcDbLine
 10
235.0000000000000
 20
475.0000000000000
 30
0.0000000000000000
 11
239.0000000000000
 21
473.7999999523163
 31
0.0000000000000000
  0
LINE
  5
298
100
AcDbEntity
  8
MAIN0
  6
CONTINUOUS
 62
3
100
AcDbLine
 10
248.0000000000000
 20
476.2000000476837
 30
0.0000000000000000
 11
252.0000000000000
 21
475.0000000000000
 31
0.0000000000000000
  0
LINE
  5
299
100
AcDbEntity
  8
MAIN0
  6
CONTINUOUS
 62
3
100
AcDbLine
 10
252.0000000000000
 20
475.0000000000000
 30
0.0000000000000000
 11
248.0000000000000
 21
473.7999999523163
 31
0.0000000000000000
  0
MTEXT
  5
29A
100
AcDbEntity
  8
MAIN0
  6
CONTINUOUS
 62
3
100
AcDbMText
 10
241.7500156439318
 20
476.0000000000000
 30
0.0000000000000000
 40
6.199999809265137
 41
0.0000000000000000
 71
     8
 72
     1
  1
{\H0.69x;{17}}
 11
1.000000000000000
 21
0.0000000000000000
 31
0.0000000000000000
  7
STANDARD
  0
LINE
  5
29B
100
AcDbEntity
  8
MAIN0
  6
CONTINUOUS
 62
3
100
AcDbLine
 10
216.0000000000000
 20
425.7249999761914
 30
0.0000000000000000
 11
216.0000000000000
 21
396.0000000000000
 31
0.0000000000000000
  0
LINE
  5
29C
100
AcDbEntity
  8
MAIN0
  6
CONTINUOUS
 62
3
100
AcDbLine
 10
216.0000000000000
 20
400.0000000000000
 30
0.0000000000000000
 11
234.9999999999999
 21
400.0000000000000
 31
0.0000000000000000
  0
LINE
  5
29D
100
AcDbEntity
  8
MAIN0
  6
CONTINUOUS
 62
3
100
AcDbLine
 10
220.0000000000000
 20
401.2000000476837
 30
0.0000000000000000
 11
216.0000000000000
 21
400.0000000000000
 31
0.0000000000000000
  0
LINE
  5
29E
100
AcDbEntity
  8
MAIN0
  6
CONTINUOUS
 62
3
100
AcDbLine
 10
216.0000000000000
 20
400.0000000000000
 30
0.0000000000000000
 11
220.0000000000000
 21
398.7999999523163
 31
0.0000000000000000
  0
LINE
  5
29F
100
AcDbEntity
  8
MAIN0
  6
CONTINUOUS
 62
3
100
AcDbLine
 10
230.9999999999999
 20
401.2000000476837
 30
0.0000000000000000
 11
234.9999999999999
 21
400.0000000000000
 31
0.0000000000000000
  0
LINE
  5
2A0
100
AcDbEntity
  8
MAIN0
  6
CONTINUOUS
 62
3
100
AcDbLine
 10
234.9999999999999
 20
400.0000000000000
 30
0.0000000000000000
 11
230.9999999999999
 21
398.7999999523163
 31
0.0000000000000000
  0
MTEXT
  5
2A1
100
AcDbEntity
  8
MAIN0
  6
CONTINUOUS
 62
3
100
AcDbMText
 10
225.5000000000000
 20
401.0000000000000
 30
0.0000000000000000
 40
6.199999809265137
 41
0.0000000000000000
 71
     8
 72
     1
  1
{\H0.69x;{19}}
 11
1.000000000000000
 21
0.0000000000000000
 31
0.0000000000000000
  7
STANDARD
  0
LINE
  5
2A2
100
AcDbEntity
  8
MAIN0
  6
CONTINUOUS
 62
3
100
AcDbLine
 10
844.1877200519197
 20
273.2853680117011
 30
0.0000000000000000
 11
861.5649711565302
 21
255.9081169070632
 31
0.0000000000000000
  0
LINE
  5
2A3
100
AcDbEntity
  8
MAIN0
  6
CONTINUOUS
 62
3
100
AcDbLine
 10
854.4939033446636
 20
254.4939033446957
 30
0.0000000000000000
 11
869.3431457495929
 21
269.3431457496017
 31
0.0000000000000000
  0
LINE
  5
2A4
100
AcDbEntity
  8
MAIN0
  6
CONTINUOUS
 62
3
100
AcDbLine
 10
855.0595887358971
 20
256.7566450782097
 30
0.0000000000000000
 11
858.7365440317863
 21
258.7365440318117
 31
0.0000000000000000
  0
LINE
  5
2A5
100
AcDbEntity
  8
MAIN0
  6
CONTINUOUS
 62
3
100
AcDbLine
 10
858.7365440317863
 20
258.7365440318117
 30
0.0000000000000000
 11
856.7566450781785
 21
255.0595887359257
 31
0.0000000000000000
  0
LINE
  5
2A6
100
AcDbEntity
  8
MAIN0
  6
CONTINUOUS
 62
3
100
AcDbLine
 10
867.0804040160781
 20
268.7774603583717
 30
0.0000000000000000
 11
865.1005050624704
 21
265.1005050624858
 31
0.0000000000000000
  0
LINE
  5
2A7
100
AcDbEntity
  8
MAIN0
  6
CONTINUOUS
 62
3
100
AcDbLine
 10
865.1005050624704
 20
265.1005050624858
 30
0.0000000000000000
 11
868.7774603583595
 21
267.0804040160878
 31
0.0000000000000000
  0
MTEXT
  5
2A8
100
AcDbEntity
  8
MAIN0
  6
CONTINUOUS
 62
3
100
AcDbMText
 10
861.2114177659423
 20
262.6256313283358
 30
0.0000000000000000
 40
6.199999809265137
 41
0.0000000000000000
 71
     8
 72
     1
  1
{\H0.67x;{9}}
 11
0.7071067811871018
 21
0.7071067811859932
 31
0.0000000000000000
  7
STANDARD
  0
LINE
  5
2A9
100
AcDbEntity
  8
MAIN0
  6
CONTINUOUS
 62
3
100
AcDbLine
 10
851.2587878637955
 20
278.9422222611822
 30
0.0000000000000000
 11
867.9289321872142
 21
262.2720779377373
 31
0.0000000000000000
  0
LINE
  5
2AA
100
AcDbEntity
  8
MAIN0
  6
CONTINUOUS
 62
3
100
AcDbLine
 10
865.1005050624704
 20
265.1005050624858
 30
0.0000000000000000
 11
884.8994949357090
 21
284.8994949356934
 31
0.0000000000000000
  0
LINE
  5
2AB
100
AcDbEntity
  8
MAIN0
  6
CONTINUOUS
 62
3
100
AcDbLine
 10
867.0804040160781
 20
268.7774603583717
 30
0.0000000000000000
 11
865.1005050624704
 21
265.1005050624858
 31
0.0000000000000000
  0
LINE
  5
2AC
100
AcDbEntity
  8
MAIN0
  6
CONTINUOUS
 62
3
100
AcDbLine
 10
865.1005050624704
 20
265.1005050624858
 30
0.0000000000000000
 11
868.7774603583595
 21
267.0804040160878
 31
0.0000000000000000
  0
LINE
  5
2AD
100
AcDbEntity
  8
MAIN0
  6
CONTINUOUS
 62
3
100
AcDbLine
 10
881.2225396398198
 20
282.9195959820914
 30
0.0000000000000000
 11
884.8994949357090
 21
284.8994949356934
 31
0.0000000000000000
  0
LINE
  5
2AE
100
AcDbEntity
  8
MAIN0
  6
CONTINUOUS
 62
3
100
AcDbLine
 10
884.8994949357090
 20
284.8994949356934
 30
0.0000000000000000
 11
882.9195959821012
 21
281.2225396398074
 31
0.0000000000000000
  0
MTEXT
  5
2AF
100
AcDbEntity
  8
MAIN0
  6
CONTINUOUS
 62
3
100
AcDbMText
 10
874.2928932179036
 20
275.7071067802767
 30
0.0000000000000000
 40
6.199999809265137
 41
0.0000000000000000
 71
     8
 72
     1
  1
{\H0.69x;{28}}
 11
0.7071067811871018
 21
0.7071067811859932
 31
0.0000000000000000
  7
STANDARD
  0
LINE
  5
2B0
100
AcDbEntity
  8
MAIN0
  6
CONTINUOUS
 62
3
100
AcDbLine
 10
871.0577777370730
 20
298.7412121343510
 30
0.0000000000000000
 11
887.7279220604529
 21
282.0710678109450
 31
0.0000000000000000
  0
LINE
  5
2B1
100
AcDbEntity
  8
MAIN0
  6
CONTINUOUS
 62
3
100
AcDbLine
 10
880.6568542485863
 20
280.6568542485774
 30
0.0000000000000000
 11
895.5060966535154
 21
295.5060966534832
 31
0.0000000000000000
  0
LINE
  5
2B2
100
AcDbEntity
  8
MAIN0
  6
CONTINUOUS
 62
3
100
AcDbLine
 10
881.2225396398198
 20
282.9195959820914
 30
0.0000000000000000
 11
884.8994949357090
 21
284.8994949356934
 31
0.0000000000000000
  0
LINE
  5
2B3
100
AcDbEntity
  8
MAIN0
  6
CONTINUOUS
 62
3
100
AcDbLine
 10
884.8994949357090
 20
284.8994949356934
 30
0.0000000000000000
 11
882.9195959821012
 21
281.2225396398074
 31
0.0000000000000000
  0
LINE
  5
2B4
100
AcDbEntity
  8
MAIN0
  6
CONTINUOUS
 62
3
100
AcDbLine
 10
893.2433549200006
 20
294.9404112622532
 30
0.0000000000000000
 11
891.2634559663928
 21
291.2634559663673
 31
0.0000000000000000
  0
LINE
  5
2B5
100
AcDbEntity
  8
MAIN0
  6
CONTINUOUS
 62
3
100
AcDbLine
 10
891.2634559663928
 20
291.2634559663673
 30
0.0000000000000000
 11
894.9404112622819
 21
293.2433549199692
 31
0.0000000000000000
  0
MTEXT
  5
2B6
100
AcDbEntity
  8
MAIN0
  6
CONTINUOUS
 62
3
100
AcDbMText
 10
887.3743686698649
 20
288.7885822322174
 30
0.0000000000000000
 40
6.199999809265137
 41
0.0000000000000000
 71
     8
 72
     1
  1
{\H0.67x;{9}}
 11
0.7071067811871018
 21
0.7071067811859932
 31
0.0000000000000000
  7
STANDARD
  0
LINE
  5
2B7
100
AcDbEntity
  8
MAIN0
  6
CONTINUOUS
 62
3
100
AcDbLine
 10
876.7146319865821
 20
305.8122799462008
 30
0.0000000000000000
 11
894.0918830911367
 21
288.4350288416189
 31
0.0000000000000000
  0
MTEXT
  5
2B8
100
AcDbEntity
  8
MAIN0
  6
CONTINUOUS
 62
3
100
AcDbMText
 10
829.9999999998292
 20
207.4999999998292
 30
0.0000000000000000
 40
10.00000000000000
 41
0.0000000000000000
 71
     1
 72
     1
  1
{\H0.82x;{SEC.C-C'}}
 11
1.000000000000000
 21
0.0000000000000000
 31
0.0000000000000000
  7
STANDARD
  0
MTEXT
  5
2B9
100
AcDbEntity
  8
MAIN0
  6
CONTINUOUS
 62
3
100
AcDbMText
 10
230.0000000000000
 20
287.5000000000000
 30
0.0000000000000000
 40
10.00000000000000
 41
0.0000000000000000
 71
     1
 72
     1
  1
{\H0.88x;{SEC.A-O-B}}
 11
1.000000000000000
 21
0.0000000000000000
 31
0.0000000000000000
  7
STANDARD
  0
LINE
  5
2BA
100
AcDbEntity
  8
MAIN0
  6
CONTINUOUS
 62
3
100
AcDbLine
 10
1012.600000023842
 20
715.9999999999756
 30
0.0000000000000000
 11
1079.000000000000
 21
715.9999999999787
 31
0.0000000000000000
  0
LINE
  5
2BB
100
AcDbEntity
  8
MAIN0
  6
CONTINUOUS
 62
3
100
AcDbLine
 10
1075.000000000000
 20
715.9999999999785
 30
0.0000000000000000
 11
1075.000000000000
 21
545.9999999999770
 31
0.0000000000000000
  0
LINE
  5
2BC
100
AcDbEntity
  8
MAIN0
  6
CONTINUOUS
 62
3
100
AcDbLine
 10
1076.200000047684
 20
711.9999999999785
 30
0.0000000000000000
 11
1075.000000000000
 21
715.9999999999785
 31
0.0000000000000000
  0
LINE
  5
2BD
100
AcDbEntity
  8
MAIN0
  6
CONTINUOUS
 62
3
100
AcDbLine
 10
1075.000000000000
 20
715.9999999999785
 30
0.0000000000000000
 11
1073.799999952316
 21
711.9999999999785
 31
0.0000000000000000
  0
LINE
  5
2BE
100
AcDbEntity
  8
MAIN0
  6
CONTINUOUS
 62
3
100
AcDbLine
 10
1076.200000047684
 20
549.9999999999770
 30
0.0000000000000000
 11
1075.000000000000
 21
545.9999999999770
 31
0.0000000000000000
  0
LINE
  5
2BF
100
AcDbEntity
  8
MAIN0
  6
CONTINUOUS
 62
3
100
AcDbLine
 10
1075.000000000000
 20
545.9999999999770
 30
0.0000000000000000
 11
1073.799999952316
 21
549.9999999999770
 31
0.0000000000000000
  0
MTEXT
  5
2C0
100
AcDbEntity
  8
MAIN0
  6
CONTINUOUS
 62
3
100
AcDbMText
 10
1074.000000000000
 20
630.9999999999777
 30
0.0000000000000000
 40
6.199999809265137
 41
0.0000000000000000
 71
     8
 72
     1
  1
{\H0.70x;{170}}
 11
6.123233995736766e-017
 21
1.000000000000000
 31
0.0000000000000000
  7
STANDARD
  0
LINE
  5
2C1
100
AcDbEntity
  8
MAIN0
  6
CONTINUOUS
 62
3
100
AcDbLine
 10
1008.650000023842
 20
545.9999999999770
 30
0.0000000000000000
 11
1079.000000000000
 21
545.9999999999770
 31
0.0000000000000000
  0
LINE
  5
2C2
100
AcDbEntity
  8
MAIN0
  6
CONTINUOUS
 62
3
100
AcDbLine
 10
1012.600000023842
 20
715.9999999999759
 30
0.0000000000000000
 11
1044.000000000000
 21
715.9999999999839
 31
0.0000000000000000
  0
LINE
  5
2C3
100
AcDbEntity
  8
MAIN0
  6
CONTINUOUS
 62
3
100
AcDbLine
 10
1040.000000000000
 20
722.5999999046154
 30
0.0000000000000000
 11
1040.000000000000
 21
694.0000000000617
 31
0.0000000000000000
  0
LINE
  5
2C4
100
AcDbEntity
  8
MAIN0
  6
CONTINUOUS
 62
3
100
AcDbLine
 10
1041.200000047684
 20
719.9999999999828
 30
0.0000000000000000
 11
1040.000000000000
 21
715.9999999999828
 31
0.0000000000000000
  0
LINE
  5
2C5
100
AcDbEntity
  8
MAIN0
  6
CONTINUOUS
 62
3
100
AcDbLine
 10
1040.000000000000
 20
715.9999999999828
 30
0.0000000000000000
 11
1038.799999952316
 21
719.9999999999828
 31
0.0000000000000000
  0
LINE
  5
2C6
100
AcDbEntity
  8
MAIN0
  6
CONTINUOUS
 62
3
100
AcDbLine
 10
1041.200000047684
 20
696.0000000000617
 30
0.0000000000000000
 11
1040.000000000000
 21
700.0000000000617
 31
0.0000000000000000
  0
LINE
  5
2C7
100
AcDbEntity
  8
MAIN0
  6
CONTINUOUS
 62
3
100
AcDbLine
 10
1040.000000000000
 20
700.0000000000617
 30
0.0000000000000000
 11
1038.799999952316
 21
696.0000000000617
 31
0.0000000000000000
  0
MTEXT
  5
2C8
100
AcDbEntity
  8
MAIN0
  6
CONTINUOUS
 62
3
100
AcDbMText
 10
1039.000000000000
 20
724.9999999999989
 30
0.0000000000000000
 40
6.199999809265137
 41
0.0000000000000000
 71
     8
 72
     1
  1
{\H0.69x;{16}}
 11
6.123233995736766e-017
 21
1.000000000000000
 31
0.0000000000000000
  7
STANDARD
  0
LINE
  5
2C9
100
AcDbEntity
  8
MAIN0
  6
CENTER
 62
3
100
AcDbLine
 10
1000.000000000000
 20
505.0000000000000
 30
0.0000000000000000
 11
1000.000000000000
 21
618.0000000000000
 31
0.0000000000000000
  0
LINE
  5
2CA
100
AcDbEntity
  8
MAIN0
  6
CENTER
 62
3
100
AcDbLine
 10
1000.000000000000
 20
630.1999998092651
 30
0.0000000000000000
 11
1000.000000000000
 21
725.0000000000000
 31
0.0000000000000000
  0
LINE
  5
2CB
100
AcDbEntity
  8
MAIN0
  6
CONTINUOUS
 62
3
100
AcDbLine
 10
246.9000312693644
 20
551.5000000000000
 30
0.0000000000000000
 11
186.0000000000000
 21
551.5000000000000
 31
0.0000000000000000
  0
LINE
  5
2CC
100
AcDbEntity
  8
MAIN0
  6
CONTINUOUS
 62
3
100
AcDbLine
 10
190.0000000000000
 20
551.5000000000000
 30
0.0000000000000000
 11
190.0000000000000
 21
448.5000000000000
 31
0.0000000000000000
  0
LINE
  5
2CD
100
AcDbEntity
  8
MAIN0
  6
CONTINUOUS
 62
3
100
AcDbLine
 10
191.2000000476837
 20
547.5000000000000
 30
0.0000000000000000
 11
190.0000000000000
 21
551.5000000000000
 31
0.0000000000000000
  0
LINE
  5
2CE
100
AcDbEntity
  8
MAIN0
  6
CONTINUOUS
 62
3
100
AcDbLine
 10
190.0000000000000
 20
551.5000000000000
 30
0.0000000000000000
 11
188.7999999523163
 21
547.5000000000000
 31
0.0000000000000000
  0
LINE
  5
2CF
100
AcDbEntity
  8
MAIN0
  6
CONTINUOUS
 62
3
100
AcDbLine
 10
191.2000000476837
 20
452.5000000000000
 30
0.0000000000000000
 11
190.0000000000000
 21
448.5000000000000
 31
0.0000000000000000
  0
LINE
  5
2D0
100
AcDbEntity
  8
MAIN0
  6
CONTINUOUS
 62
3
100
AcDbLine
 10
190.0000000000000
 20
448.5000000000000
 30
0.0000000000000000
 11
188.7999999523163
 21
452.5000000000000
 31
0.0000000000000000
  0
MTEXT
  5
2D1
100
AcDbEntity
  8
MAIN0
  6
CONTINUOUS
 62
3
100
AcDbMText
 10
189.0000000000000
 20
500.0000000000000
 30
0.0000000000000000
 40
6.199999809265137
 41
0.0000000000000000
 71
     8
 72
     1
  1
{\U+2205103}
 11
6.123233995736766e-017
 21
1.000000000000000
 31
0.0000000000000000
  7
STANDARD
  0
LINE
  5
2D2
100
AcDbEntity
  8
MAIN0
  6
CONTINUOUS
 62
3
100
AcDbLine
 10
246.9000312693644
 20
448.5000000000000
 30
0.0000000000000000
 11
186.0000000000000
 21
448.5000000000000
 31
0.0000000000000000
  0
SPLINE
  5
2D3
100
AcDbEntity
  8
MAIN0
  6
CONTINUOUS
 62
3
100
AcDbSpline
210
0.0000000000000000
220
0.0000000000000000
230
1.000000000000000
 70
     8
 71
     3
 72
    15
 73
    11
 74
     0
 42
1.000000000000000e-007
 43
1.000000000000000e-007
 12
0.4053435095406712
 22
-0.9178669301834361
 32
0.0000000000000000
 13
0.1639916543692976
 23
0.9345302213377380
 33
0.0000000000000000
 40
0.0000000000000000
 40
0.0000000000000000
 40
0.0000000000000000
 40
0.0000000000000000
 40
5.031519771892697
 40
16.32683485064054
 40
29.86480660802228
 40
36.71681599269944
 40
44.15201099190220
 40
53.38294823568863
 40
68.07363428109095
 40
88.34098633869351
 40
88.34098633869351
 40
88.34098633869351
 40
88.34098633869351
 10
275.5500000000000
 20
675.0000000000000
 30
0.0000000000000000
 10
276.2298312942207
 20
673.4605781309385
 30
0.0000000000000000
 10
278.4358234735706
 20
668.4652908696157
 30
0.0000000000000000
 10
278.9507396853327
 20
658.2081759612108
 30
0.0000000000000000
 10
275.8809125085921
 20
647.8642606898201
 30
0.0000000000000000
 10
280.2469952920327
 20
638.3796697496199
 30
0.0000000000000000
 10
288.5181569135867
 20
637.2216106151814
 30
0.0000000000000000
 10
300.6180571620586
 20
639.3522408282903
 30
0.0000000000000000
 10
297.4111656347906
 20
657.7967346365815
 30
0.0000000000000000
 10
299.3221078021297
 20
668.6865156652262
 30
0.0000000000000000
 10
300.4300000000001
 20
675.0000000000000
 30
0.0000000000000000
  0
LEADER
  5
2D4
100
AcDbEntity
  8
MAIN0
  6
CONTINUOUS
 62
3
100
AcDbLeader
  3
MAIN001
 73
     0
 75
     1
 40
6.199999809265137
 41
27.13900082015991
 76
     3
 10
224.5626698634121
 20
427.3250000000332
 30
0.0000000000000000
 10
200.0000000000000
 20
400.0000000000000
 30
0.0000000000000000
 10
196.1470001115799
 20
400.0000000000000
 30
0.0000000000000000
340
2D5
213
0.0000000000000000
223
-1.000000000000000
233
0.0000000000000000
1001
ACAD
1000
DSTYLE
1002
{
1070
   147
1040
0.0
1070
    77
1070
     1
1070
   173
1070
     1
1070
     6
1000
_OPEN
1070
     7
1000
_OPEN
1002
}
  0
MTEXT
  5
2D5
102
{ACAD_REACTORS
330
2D4
102
}
100
AcDbEntity
  8
MAIN0
  6
CONTINUOUS
 62
3
100
AcDbMText
 10
169.0079992914200
 20
407.1999998092651
 30
0.0000000000000000
 40
6.199999809265137
 41
0.0000000000000000
 71
     1
 72
     1
  1
{\H0.92x;{4-M12}}
 11
1.000000000000000
 21
0.0000000000000000
 31
0.0000000000000000
  7
STANDARD
  0
MTEXT
  5
2D6
100
AcDbEntity
  8
MAIN0
  6
CONTINUOUS
 62
3
100
AcDbMText
 10
398.0000000000021
 20
152.2000331425287
 30
0.0000000000000000
 40
6.199999809265137
 41
0.0000000000000000
 71
     1
 72
     1
  1
{\H0.90x;{147}}
 11
1.000000000000000
 21
0.0000000000000000
 31
0.0000000000000000
  7
STANDARD
  0
MTEXT
  5
2D7
100
AcDbEntity
  8
MAIN0
  6
CONTINUOUS
 62
3
100
AcDbMText
 10
404.0000000000021
 20
143.2000331425287
 30
0.0000000000000000
 40
6.199999809265137
 41
0.0000000000000000
 71
     1
 72
     1
  1
{\H0.88x;{15}}
 11
1.000000000000000
 21
0.0000000000000000
 31
0.0000000000000000
  7
STANDARD
  0
MTEXT
  5
2D8
100
AcDbEntity
  8
MAIN0
  6
CONTINUOUS
 62
3
100
AcDbMText
 10
398.0000000000021
 20
129.7000331425285
 30
0.0000000000000000
 40
6.199999809265137
 41
0.0000000000000000
 71
     1
 72
     1
  1
{\H0.88x;{16}}
 11
1.000000000000000
 21
0.0000000000000000
 31
0.0000000000000000
  7
STANDARD
  0
MTEXT
  5
2D9
100
AcDbEntity
  8
MAIN0
  6
CONTINUOUS
 62
3
100
AcDbMText
 10
404.0000000000021
 20
120.7000331425285
 30
0.0000000000000000
 40
6.199999809265137
 41
0.0000000000000000
 71
     1
 72
     1
  1
{\H0.91x;{1632}}
 11
1.000000000000000
 21
0.0000000000000000
 31
0.0000000000000000
  7
STANDARD
  0
MTEXT
  5
2DA
100
AcDbEntity
  8
MAIN0
  6
CONTINUOUS
 62
3
100
AcDbMText
 10
398.0000000000021
 20
90.20006647586172
 30
0.0000000000000000
 40
6.199999809265137
 41
0.0000000000000000
 71
     1
 72
     1
  1
{\H0.81x;{50.9}}
 11
1.000000000000000
 21
0.0000000000000000
 31
0.0000000000000000
  7
STANDARD
  0
MTEXT
  5
2DB
100
AcDbEntity
  8
MAIN0
  6
CONTINUOUS
 62
3
100
AcDbMText
 10
398.0000000000021
 20
73.20006647586172
 30
0.0000000000000000
 40
6.199999809265137
 41
0.0000000000000000
 71
     1
 72
     1
  1
{\H0.84x;{0.750}}
 11
1.000000000000000
 21
0.0000000000000000
 31
0.0000000000000000
  7
STANDARD
  0
CIRCLE
  5
2DC
100
AcDbEntity
  8
MAIN0
  6
HIDDEN
 62
3
100
AcDbCircle
 10
667.2567598321173
 20
564.4031044678487
 30
0.0000000000000000
 40
9.650000000000000
  0
CIRCLE
  5
2DD
100
AcDbEntity
  8
MAIN0
  6
HIDDEN
 62
3
100
AcDbCircle
 10
667.2567598321173
 20
564.4031044678487
 30
0.0000000000000000
 40
6.000000000000000
  0
LINE
  5
2DE
100
AcDbEntity
  8
MAIN0
  6
CENTER
 62
3
100
AcDbLine
 10
671.0484588428487
 20
578.5539178229890
 30
0.0000000000000000
 11
663.4650608213859
 21
550.2522911127084
 31
0.0000000000000000
  0
CIRCLE
  5
2DF
100
AcDbEntity
  8
MAIN0
  6
CONTINUOUS
 62
3
100
AcDbCircle
 10
650.0000000000000
 20
500.0000000000000
 30
0.0000000000000000
 40
37.50000000000000
  0
LINE
  5
2E0
100
AcDbEntity
  8
MAIN0
  6
CENTER
 62
3
100
AcDbLine
 10
520.0000000006689
 20
630.0000000006689
 30
0.0000000000000000
 11
613.1067036921875
 21
536.8932963090037
 31
0.0000000000000000
  0
POINT
  5
2E1
100
AcDbEntity
  8
MAIN0
  6
CONTINUOUS
 62
3
100
AcDbPoint
 10
543.9339828212928
 20
393.9339828225932
 30
0.0000000000000000
  0
POINT
  5
2E2
100
AcDbEntity
  8
MAIN0
  6
CONTINUOUS
 62
3
100
AcDbPoint
 10
650.0000000000000
 20
499.9999999999999
 30
0.0000000000000000
  0
ARC
  5
2E3
100
AcDbEntity
  8
MAIN0
  6
CONTINUOUS
 62
3
100
AcDbCircle
 10
734.1457069622824
 20
415.8542930389822
 30
0.0000000000000000
 40
7.999999999999963
100
AcDbArc
 50
45.00000000004509
 51
225.0000000000443
  0
ARC
  5
2E4
100
AcDbEntity
  8
MAIN0
  6
CONTINUOUS
 62
3
100
AcDbCircle
 10
752.5304832731470
 20
397.4695167281463
 30
0.0000000000000000
 40
8.000000000000011
100
AcDbArc
 50
225.0000000000449
 51
405.0000000000441
  0
LINE
  5
2E5
100
AcDbEntity
  8
MAIN0
  6
CONTINUOUS
 62
3
100
AcDbLine
 10
746.8736290236590
 20
391.8126624786497
 30
0.0000000000000000
 11
728.4888527127944
 21
410.1974387894856
 31
0.0000000000000000
  0
LINE
  5
2E6
100
AcDbEntity
  8
MAIN0
  6
CONTINUOUS
 62
3
100
AcDbLine
 10
758.1873375226348
 20
403.1263709776433
 30
0.0000000000000000
 11
739.8025612117702
 21
421.5111472884792
 31
0.0000000000000000
  0
LINE
  5
2E7
100
AcDbEntity
  8
MAIN0
  6
CONTINUOUS
 62
3
100
AcDbLine
 10
553.1263709763404
 20
391.8126624786501
 30
0.0000000000000000
 11
571.5111472872051
 21
410.1974387894859
 31
0.0000000000000000
  0
ARC
  5
2E8
100
AcDbEntity
  8
MAIN0
  6
CONTINUOUS
 62
3
100
AcDbCircle
 10
565.8542930377172
 20
415.8542930389827
 30
0.0000000000000000
 40
7.999999999999963
100
AcDbArc
 50
314.9999999999553
 51
494.9999999999546
  0
LINE
  5
2E9
100
AcDbEntity
  8
MAIN0
  6
CONTINUOUS
 62
3
100
AcDbLine
 10
541.8126624773645
 20
403.1263709776438
 30
0.0000000000000000
 11
560.1974387882292
 21
421.5111472884796
 31
0.0000000000000000
  0
ARC
  5
2EA
100
AcDbEntity
  8
MAIN0
  6
CONTINUOUS
 62
3
100
AcDbCircle
 10
547.4695167268524
 20
397.4695167281469
 30
0.0000000000000000
 40
8.000000000000011
100
AcDbArc
 50
134.9999999999556
 51
314.9999999999548
  0
POINT
  5
2EB
100
AcDbEntity
  8
MAIN0
  6
CONTINUOUS
 62
3
100
AcDbPoint
 10
746.1665222424632
 20
403.8334777588203
 30
0.0000000000000000
  0
LINE
  5
2EC
100
AcDbEntity
  8
MAIN0
  6
CENTER
 62
3
100
AcDbLine
 10
518.2452395116843
 20
368.2452395103451
 30
0.0000000000000000
 11
613.1067036921875
 21
463.1067036909966
 31
0.0000000000000000
  0
POINT
  5
2ED
100
AcDbEntity
  8
MAIN0
  6
CONTINUOUS
 62
3
100
AcDbPoint
 10
773.7436867083093
 20
376.2563132930175
 30
0.0000000000000000
  0
POINT
  5
2EE
100
AcDbEntity
  8
MAIN0
  6
CONTINUOUS
 62
3
100
AcDbPoint
 10
758.1873375226439
 20
391.8126624786585
 30
0.0000000000000000
  0
POINT
  5
2EF
100
AcDbEntity
  8
MAIN0
  6
CONTINUOUS
 62
3
100
AcDbPoint
 10
728.4888527127857
 20
421.5111472884702
 30
0.0000000000000000
  0
LINE
  5
2F0
100
AcDbEntity
  8
MAIN0
  6
CONTINUOUS
 62
3
100
AcDbLine
 10
650.0000000001859
 20
515.0000000000000
 30
0.0000000000000000
 11
650.0000000001526
 21
500.0000000000000
 31
0.0000000000000000
  0
ARC
  5
2F1
100
AcDbEntity
  8
MAIN0
  6
PHANTOM
 62
3
100
AcDbCircle
 10
650.0000000000000
 20
499.9999999999999
 30
0.0000000000000000
 40
155.0000000000000
100
AcDbArc
 50
277.4136738015257
 51
352.5863261984741
  0
ARC
  5
2F2
100
AcDbEntity
  8
MAIN0
  6
PHANTOM
 62
3
100
AcDbCircle
 10
650.0000000000000
 20
499.9999999999999
 30
0.0000000000000000
 40
155.0000000000000
100
AcDbArc
 50
187.4136738015256
 51
262.5863261984741
  0
ARC
  5
2F3
100
AcDbEntity
  8
MAIN0
  6
PHANTOM
 62
3
100
AcDbCircle
 10
650.0000000000000
 20
499.9999999999999
 30
0.0000000000000000
 40
135.0000000000000
100
AcDbArc
 50
228.3972957920255
 51
261.4803757458568
  0
ARC
  5
2F4
100
AcDbEntity
  8
MAIN0
  6
PHANTOM
 62
3
100
AcDbCircle
 10
650.0000000000000
 20
499.9999999999999
 30
0.0000000000000000
 40
135.0000000000000
100
AcDbArc
 50
188.5196242541429
 51
221.6027042072030
  0
ARC
  5
2F5
100
AcDbEntity
  8
MAIN0
  6
PHANTOM
 62
3
100
AcDbCircle
 10
650.0000000000000
 20
499.9999999999999
 30
0.0000000000000000
 40
115.0000000000000
100
AcDbArc
 50
228.3937851163329
 51
259.9845898317492
  0
ARC
  5
2F6
100
AcDbEntity
  8
MAIN0
  6
PHANTOM
 62
3
100
AcDbCircle
 10
650.0000000000000
 20
499.9999999999999
 30
0.0000000000000000
 40
115.0000000000000
100
AcDbArc
 50
190.0154101682505
 51
221.6062148828054
  0
ARC
  5
2F7
100
AcDbEntity
  8
MAIN0
  6
PHANTOM
 62
3
100
AcDbCircle
 10
650.0000000000000
 20
499.9999999999999
 30
0.0000000000000000
 40
75.00000000000000
100
AcDbArc
 50
228.7086855401991
 51
254.5339900465793
  0
ARC
  5
2F8
100
AcDbEntity
  8
MAIN0
  6
PHANTOM
 62
3
100
AcDbCircle
 10
650.0000000000000
 20
499.9999999999999
 30
0.0000000000000000
 40
75.00000000000000
100
AcDbArc
 50
195.4660099534204
 51
221.2913144608033
  0
ARC
  5
2F9
100
AcDbEntity
  8
MAIN0
  6
PHANTOM
 62
3
100
AcDbCircle
 10
650.0000000000000
 20
499.9999999999999
 30
0.0000000000000000
 40
135.0000000000000
100
AcDbArc
 50
318.3972957927969
 51
351.4803757458568
  0
ARC
  5
2FA
100
AcDbEntity
  8
MAIN0
  6
PHANTOM
 62
3
100
AcDbCircle
 10
650.0000000000000
 20
499.9999999999999
 30
0.0000000000000000
 40
135.0000000000000
100
AcDbArc
 50
278.5196242541429
 51
311.6027042079742
  0
ARC
  5
2FB
100
AcDbEntity
  8
MAIN0
  6
PHANTOM
 62
3
100
AcDbCircle
 10
650.0000000000000
 20
499.9999999999999
 30
0.0000000000000000
 40
115.0000000000000
100
AcDbArc
 50
318.3937851171943
 51
349.9845898317493
  0
ARC
  5
2FC
100
AcDbEntity
  8
MAIN0
  6
PHANTOM
 62
3
100
AcDbCircle
 10
650.0000000000000
 20
499.9999999999999
 30
0.0000000000000000
 40
115.0000000000000
100
AcDbArc
 50
280.0154101682506
 51
311.6062148836668
  0
ARC
  5
2FD
100
AcDbEntity
  8
MAIN0
  6
PHANTOM
 62
3
100
AcDbCircle
 10
650.0000000000000
 20
499.9999999999999
 30
0.0000000000000000
 40
75.00000000000000
100
AcDbArc
 50
318.7086855401992
 51
344.5339900465794
  0
ARC
  5
2FE
100
AcDbEntity
  8
MAIN0
  6
PHANTOM
 62
3
100
AcDbCircle
 10
650.0000000000000
 20
499.9999999999999
 30
0.0000000000000000
 40
75.00000000000000
100
AcDbArc
 50
285.4660099534204
 51
311.2913144608033
  0
POINT
  5
2FF
100
AcDbEntity
  8
MAIN0
  6
CONTINUOUS
 62
3
100
AcDbPoint
 10
791.2000000000080
 20
500.0000000027090
 30
0.0000000000000000
  0
POINT
  5
300
100
AcDbEntity
  8
MAIN0
  6
CONTINUOUS
 62
3
100
AcDbPoint
 10
715.0000000000001
 20
500.0000000024702
 30
0.0000000000000000
  0
POINT
  5
301
100
AcDbEntity
  8
MAIN0
  6
CONTINUOUS
 62
3
100
AcDbPoint
 10
649.9999999999997
 20
383.4000000013584
 30
0.0000000000000000
  0
CIRCLE
  5
302
100
AcDbEntity
  8
MAIN0
  6
CONTINUOUS
 62
3
100
AcDbCircle
 10
697.1463446360255
 20
452.8536553647992
 30
0.0000000000000000
 40
6.500000000000000
  0
CIRCLE
  5
303
100
AcDbEntity
  8
MAIN0
  6
CONTINUOUS
 62
3
100
AcDbCircle
 10
697.1463446360255
 20
452.8536553647992
 30
0.0000000000000000
 40
9.500000000000000
  0
CIRCLE
  5
304
100
AcDbEntity
  8
MAIN0
  6
CONTINUOUS
 62
3
100
AcDbCircle
 10
602.8536553647994
 20
452.8536553639744
 30
0.0000000000000000
 40
6.500000000000000
  0
CIRCLE
  5
305
100
AcDbEntity
  8
MAIN0
  6
CONTINUOUS
 62
3
100
AcDbCircle
 10
602.8536553647994
 20
452.8536553639744
 30
0.0000000000000000
 40
9.500000000000000
  0
ARC
  5
306
100
AcDbEntity
  8
MAIN0
  6
CENTER
 62
3
100
AcDbCircle
 10
650.0000000000000
 20
499.9999999999999
 30
0.0000000000000000
 40
66.67500000000000
100
AcDbArc
 50
302.5150396897354
 51
327.4849603112671
  0
ARC
  5
307
100
AcDbEntity
  8
MAIN0
  6
CENTER
 62
3
100
AcDbCircle
 10
650.0000000000000
 20
499.9999999999999
 30
0.0000000000000000
 40
66.67500000000003
100
AcDbArc
 50
212.5150396897353
 51
237.4849603112670
  0
LINE
  5
308
100
AcDbEntity
  8
MAIN0
  6
CONTINUOUS
 62
3
100
AcDbLine
 10
639.4999999999998
 20
435.3354913964868
 30
0.0000000000000000
 11
639.4999999999999
 21
464.0000000000000
 31
0.0000000000000000
  0
LINE
  5
309
100
AcDbEntity
  8
MAIN0
  6
CONTINUOUS
 62
3
100
AcDbLine
 10
639.4999999999996
 20
325.3152840114510
 30
0.0000000000000000
 11
639.4999999999996
 21
330.6645086035134
 31
0.0000000000000000
  0
LINE
  5
30A
100
AcDbEntity
  8
MAIN0
  6
CONTINUOUS
 62
3
100
AcDbLine
 10
660.4999999999998
 20
435.3354913964869
 30
0.0000000000000000
 11
660.4999999999999
 21
464.0000000000000
 31
0.0000000000000000
  0
LINE
  5
30B
100
AcDbEntity
  8
MAIN0
  6
CONTINUOUS
 62
3
100
AcDbLine
 10
660.4999999999996
 20
325.3152840114509
 30
0.0000000000000000
 11
660.4999999999996
 21
330.6645086035128
 31
0.0000000000000000
  0
LINE
  5
30C
100
AcDbEntity
  8
MAIN0
  6
CONTINUOUS
 62
3
100
AcDbLine
 10
632.5000000002165
 20
338.6645086032962
 30
0.0000000000000000
 11
632.5000000002164
 21
325.8771985063196
 31
0.0000000000000000
  0
LINE
  5
30D
100
AcDbEntity
  8
MAIN0
  6
CONTINUOUS
 62
3
100
AcDbLine
 10
632.5000000001913
 20
427.3354913966787
 30
0.0000000000000000
 11
632.5000000001916
 21
466.8337520963448
 31
0.0000000000000000
  0
LINE
  5
30E
100
AcDbEntity
  8
MAIN0
  6
CONTINUOUS
 62
3
100
AcDbLine
 10
667.4999999997826
 20
338.6645086032962
 30
0.0000000000000000
 11
667.4999999997826
 21
325.8771985063195
 31
0.0000000000000000
  0
LINE
  5
30F
100
AcDbEntity
  8
MAIN0
  6
CONTINUOUS
 62
3
100
AcDbLine
 10
667.4999999998082
 20
427.3354913966786
 30
0.0000000000000000
 11
667.4999999998082
 21
466.8337520963448
 31
0.0000000000000000
  0
LINE
  5
310
100
AcDbEntity
  8
MAIN0
  6
CONTINUOUS
 62
3
100
AcDbLine
 10
585.3354913964870
 20
489.5000000000000
 30
0.0000000000000000
 11
614.0000000000000
 21
489.4999999999999
 31
0.0000000000000000
  0
LINE
  5
311
100
AcDbEntity
  8
MAIN0
  6
CONTINUOUS
 62
3
100
AcDbLine
 10
577.3354913966787
 20
482.5000000001916
 30
0.0000000000000000
 11
616.8337520963448
 21
482.5000000001917
 31
0.0000000000000000
  0
LINE
  5
312
100
AcDbEntity
  8
MAIN0
  6
CONTINUOUS
 62
3
100
AcDbLine
 10
475.3152840114510
 20
489.5000000000002
 30
0.0000000000000000
 11
480.6645086035129
 21
489.5000000000002
 31
0.0000000000000000
  0
LINE
  5
313
100
AcDbEntity
  8
MAIN0
  6
CONTINUOUS
 62
3
100
AcDbLine
 10
488.6645086032963
 20
482.5000000002170
 30
0.0000000000000000
 11
475.8771985063197
 21
482.5000000002170
 31
0.0000000000000000
  0
LINE
  5
314
100
AcDbEntity
  8
MAIN0
  6
CONTINUOUS
 62
3
100
AcDbLine
 10
811.3354913967037
 20
482.5000000002161
 30
0.0000000000000000
 11
824.1228014936803
 21
482.5000000002160
 31
0.0000000000000000
  0
LINE
  5
315
100
AcDbEntity
  8
MAIN0
  6
CONTINUOUS
 62
3
100
AcDbLine
 10
824.6847159885489
 20
489.4999999999992
 30
0.0000000000000000
 11
819.3354913964870
 21
489.4999999999992
 31
0.0000000000000000
  0
LINE
  5
316
100
AcDbEntity
  8
MAIN0
  6
CONTINUOUS
 62
3
100
AcDbLine
 10
722.6645086033212
 20
482.5000000001912
 30
0.0000000000000000
 11
683.1662479036551
 21
482.5000000001915
 31
0.0000000000000000
  0
LINE
  5
317
100
AcDbEntity
  8
MAIN0
  6
CONTINUOUS
 62
3
100
AcDbLine
 10
714.6645086035130
 20
489.4999999999996
 30
0.0000000000000000
 11
685.9999999999999
 21
489.4999999999997
 31
0.0000000000000000
  0
ARC
  5
318
100
AcDbEntity
  8
MAIN0
  6
PHANTOM
 62
3
100
AcDbCircle
 10
650.0000000000000
 20
499.9999999999999
 30
0.0000000000000000
 40
55.00000000000000
100
AcDbArc
 50
290.0295889669502
 51
341.4469954651897
  0
ARC
  5
319
100
AcDbEntity
  8
MAIN0
  6
PHANTOM
 62
3
100
AcDbCircle
 10
650.0000000000000
 20
499.9999999999999
 30
0.0000000000000000
 40
55.00000000000000
100
AcDbArc
 50
199.9885757800275
 51
250.9480323792582
  0
ARC
  5
31A
100
AcDbEntity
  8
MAIN0
  6
PHANTOM
 62
3
100
AcDbCircle
 10
650.0000000000000
 20
500.0000000000000
 30
0.0000000000000000
 40
95.00000000000000
100
AcDbArc
 50
12.15319746900775
 51
77.84680253099195
  0
ARC
  5
31B
100
AcDbEntity
  8
MAIN0
  6
PHANTOM
 62
3
100
AcDbCircle
 10
650.0000000000000
 20
499.9999999999999
 30
0.0000000000000000
 40
95.00000000000000
100
AcDbArc
 50
282.1531974690079
 51
347.8468025309920
  0
MTEXT
  5
31C
100
AcDbEntity
  8
MAIN0
  6
CONTINUOUS
 62
3
100
AcDbMText
 10
552.4685042934766
 20
566.5029654702832
 30
0.0000000000000000
 40
8.000000000000000
 41
0.0000000000000000
 71
     1
 72
     1
  1
{\H0.63x;{KITAGAWA}}
 11
-0.4226182617406999
 21
-0.9063077870366497
 31
0.0000000000000000
  7
STANDARD
  0
MTEXT
  5
31D
100
AcDbEntity
  8
MAIN0
  6
CONTINUOUS
 62
3
100
AcDbMText
 10
540.6423389006138
 20
564.8112320654159
 30
0.0000000000000000
 40
6.000000000000000
 41
0.0000000000000000
 71
     1
 72
     1
  1
{\H0.63x;{IA6-350}}
 11
-0.4226182617406999
 21
-0.9063077870366497
 31
0.0000000000000000
  7
STANDARD
  0
MTEXT
  5
31E
100
AcDbEntity
  8
MAIN0
  6
CONTINUOUS
 62
3
100
AcDbMText
 10
527.3829516546737
 20
563.4681243008872
 30
0.0000000000000000
 40
4.000000000000000
 41
0.0000000000000000
 71
     1
 72
     1
  1
{\H0.63x;{JAPAN}}
 11
-0.4226182617406999
 21
-0.9063077870366497
 31
0.0000000000000000
  7
STANDARD
  0
MTEXT
  5
31F
100
AcDbEntity
  8
MAIN0
  6
CONTINUOUS
 62
3
100
AcDbMText
 10
485.2145158626288
 20
476.7054079265727
 30
0.0000000000000000
 40
6.199999809265137
 41
0.0000000000000000
 71
     1
 72
     1
  1
{\H0.81x;{1}}
 11
-1.071875439572228e-015
 21
-1.000000000000000
 31
0.0000000000000000
  7
STANDARD
  0
MTEXT
  5
320
100
AcDbEntity
  8
MAIN0
  6
CONTINUOUS
 62
3
100
AcDbMText
 10
673.2945920734272
 20
335.2145158626288
 30
0.0000000000000000
 40
6.199999809265137
 41
0.0000000000000000
 71
     1
 72
     1
  1
{\H0.81x;{4}}
 11
1.000000000000000
 21
-1.133107779529596e-015
 31
0.0000000000000000
  7
STANDARD
  0
ARC
  5
321
100
AcDbEntity
  8
MAIN0
  6
PHANTOM
 62
3
100
AcDbCircle
 10
650.0000000000000
 20
500.0000000000000
 30
0.0000000000000000
 40
95.00000000000000
100
AcDbArc
 50
102.1531974690078
 51
167.8468025309920
  0
ARC
  5
322
100
AcDbEntity
  8
MAIN0
  6
PHANTOM
 62
3
100
AcDbCircle
 10
650.0000000000000
 20
499.9999999999999
 30
0.0000000000000000
 40
95.00000000000000
100
AcDbArc
 50
192.1531974690078
 51
257.8468025309920
  0
LINE
  5
323
100
AcDbEntity
  8
MAIN0
  6
CONTINUOUS
 62
3
100
AcDbLine
 10
687.9662683512846
 20
554.8098357275247
 30
0.0000000000000000
 11
612.0337316487154
 21
445.1901642724753
 31
0.0000000000000000
  0
LINE
  5
324
100
AcDbEntity
  8
MAIN0
  6
CONTINUOUS
 62
3
100
AcDbLine
 10
686.6750307372078
 20
550.8383491622152
 30
0.0000000000000000
 11
687.9662683512846
 21
554.8098357275247
 31
0.0000000000000000
  0
LINE
  5
325
100
AcDbEntity
  8
MAIN0
  6
CONTINUOUS
 62
3
100
AcDbLine
 10
687.9662683512846
 20
554.8098357275247
 30
0.0000000000000000
 11
684.7021231860547
 21
552.2049640503116
 31
0.0000000000000000
  0
LINE
  5
326
100
AcDbEntity
  8
MAIN0
  6
CONTINUOUS
 62
3
100
AcDbLine
 10
615.2978768139453
 20
447.7950359496884
 30
0.0000000000000000
 11
612.0337316487154
 21
445.1901642724753
 31
0.0000000000000000
  0
LINE
  5
327
100
AcDbEntity
  8
MAIN0
  6
CONTINUOUS
 62
3
100
AcDbLine
 10
612.0337316487154
 20
445.1901642724753
 30
0.0000000000000000
 11
613.3249692627923
 21
449.1616508377848
 31
0.0000000000000000
  0
MTEXT
  5
328
100
AcDbEntity
  8
MAIN0
  6
CONTINUOUS
 62
3
100
AcDbMText
 10
661.7932952151139
 20
518.7815027494655
 30
0.0000000000000000
 40
6.199999809265137
 41
0.0000000000000000
 71
     8
 72
     1
  1
{\U+2205133.4}
 11
0.5694228474133427
 21
0.8220447803153311
 31
0.0000000000000000
  7
STANDARD
  0
LINE
  5
329
100
AcDbEntity
  8
MAIN0
  6
CONTINUOUS
 62
3
100
AcDbLine
 10
671.4625693211813
 20
580.0993991680816
 30
0.0000000000000000
 11
697.6227042986062
 21
677.7303520372575
 31
0.0000000000000000
  0
ARC
  5
32A
100
AcDbEntity
  8
MAIN0
  6
CONTINUOUS
 62
3
100
AcDbCircle
 10
649.9999999999998
 20
499.9999999999990
 30
0.0000000000000000
 40
180.0000000000010
100
AcDbArc
 50
75.00000000008306
 51
89.99999999999979
  0
LINE
  5
32B
100
AcDbEntity
  8
MAIN0
  6
CONTINUOUS
 62
3
100
AcDbLine
 10
692.4131419465812
 20
673.7428138748979
 30
0.0000000000000000
 11
696.5874281182017
 21
673.8666487320998
 31
0.0000000000000000
  0
LINE
  5
32C
100
AcDbEntity
  8
MAIN0
  6
CONTINUOUS
 62
3
100
AcDbLine
 10
696.5874281182017
 20
673.8666487320998
 30
0.0000000000000000
 11
693.0343076795068
 21
676.0610359501105
 31
0.0000000000000000
  0
LINE
  5
32D
100
AcDbEntity
  8
MAIN0
  6
CONTINUOUS
 62
3
100
AcDbLine
 10
654.0000000000005
 20
678.7999999523163
 30
0.0000000000000000
 11
650.0000000000005
 21
680.0000000000000
 31
0.0000000000000000
  0
LINE
  5
32E
100
AcDbEntity
  8
MAIN0
  6
CONTINUOUS
 62
3
100
AcDbLine
 10
650.0000000000005
 20
680.0000000000000
 30
0.0000000000000000
 11
654.0000000000005
 21
681.2000000476837
 31
0.0000000000000000
  0
MTEXT
  5
32F
100
AcDbEntity
  8
MAIN0
  6
CONTINUOUS
 62
3
100
AcDbMText
 10
673.6252407916995
 20
679.4515199086768
 30
0.0000000000000000
 40
6.199999809265137
 41
0.0000000000000000
 71
     8
 72
     1
  1
{\H0.57x;{15\U+00B0}}
 11
0.9914448613739048
 21
-0.1305261922193349
 31
0.0000000000000000
  7
STANDARD
  0
LINE
  5
330
100
AcDbEntity
  8
MAIN0
  6
CONTINUOUS
 62
3
100
AcDbLine
 10
781.1313708660881
 20
631.1313708674263
 30
0.0000000000000000
 11
790.7142494552118
 21
640.7142494565649
 31
0.0000000000000000
  0
ARC
  5
331
100
AcDbEntity
  8
MAIN0
  6
CONTINUOUS
 62
3
100
AcDbCircle
 10
650.0000000000000
 20
500.0000000011333
 30
0.0000000000000000
 40
194.9999999988667
100
AcDbArc
 50
45.00000000004476
 51
89.99999999999984
  0
LINE
  5
332
100
AcDbEntity
  8
MAIN0
  6
CONTINUOUS
 62
3
100
AcDbLine
 10
784.2088670345786
 20
639.8657212854183
 30
0.0000000000000000
 11
787.8858223304677
 21
637.8858223318164
 31
0.0000000000000000
  0
LINE
  5
333
100
AcDbEntity
  8
MAIN0
  6
CONTINUOUS
 62
3
100
AcDbLine
 10
787.8858223304677
 20
637.8858223318164
 30
0.0000000000000000
 11
785.9059233768600
 21
641.5627776277023
 31
0.0000000000000000
  0
LINE
  5
334
100
AcDbEntity
  8
MAIN0
  6
CONTINUOUS
 62
3
100
AcDbLine
 10
654.0000000000006
 20
693.7999999523163
 30
0.0000000000000000
 11
650.0000000000006
 21
695.0000000000000
 31
0.0000000000000000
  0
LINE
  5
335
100
AcDbEntity
  8
MAIN0
  6
CONTINUOUS
 62
3
100
AcDbLine
 10
650.0000000000006
 20
695.0000000000000
 30
0.0000000000000000
 11
654.0000000000006
 21
696.2000000476837
 31
0.0000000000000000
  0
MTEXT
  5
336
100
AcDbEntity
  8
MAIN0
  6
CONTINUOUS
 62
3
100
AcDbMText
 10
725.0059527430534
 20
681.0803883723277
 30
0.0000000000000000
 40
6.199999809265137
 41
0.0000000000000000
 71
     8
 72
     1
  1
{\H0.57x;{45\U+00B0}}
 11
0.9238795325114357
 21
-0.3826834323647302
 31
0.0000000000000000
  7
STANDARD
  0
LINE
  5
337
100
AcDbEntity
  8
MAIN0
  6
CONTINUOUS
 62
3
100
AcDbLine
 10
650.0000000000006
 20
691.6000000238419
 30
0.0000000000000000
 11
650.0000000000005
 21
699.0000000000000
 31
0.0000000000000000
  0
LINE
  5
338
100
AcDbEntity
  8
MAIN0
  6
CONTINUOUS
 62
3
100
AcDbLine
 10
727.3574818460276
 20
420.3797764217139
 30
0.0000000000000000
 11
693.1604255874066
 21
386.1827201631465
 31
0.0000000000000000
  0
LINE
  5
339
100
AcDbEntity
  8
MAIN0
  6
CONTINUOUS
 62
3
100
AcDbLine
 10
695.9888527121550
 20
389.0111472878905
 30
0.0000000000000000
 11
725.6873375219667
 21
359.3126624780322
 31
0.0000000000000000
  0
LINE
  5
33A
100
AcDbEntity
  8
MAIN0
  6
CONTINUOUS
 62
3
100
AcDbLine
 10
699.6658080080409
 20
387.0312483342828
 30
0.0000000000000000
 11
695.9888527121550
 21
389.0111472878905
 31
0.0000000000000000
  0
LINE
  5
33B
100
AcDbEntity
  8
MAIN0
  6
CONTINUOUS
 62
3
100
AcDbLine
 10
695.9888527121550
 20
389.0111472878905
 30
0.0000000000000000
 11
697.9687516657569
 21
385.3341919920015
 31
0.0000000000000000
  0
LINE
  5
33C
100
AcDbEntity
  8
MAIN0
  6
CONTINUOUS
 62
3
100
AcDbLine
 10
723.7074385683648
 20
362.9896177739212
 30
0.0000000000000000
 11
725.6873375219667
 21
359.3126624780322
 31
0.0000000000000000
  0
LINE
  5
33D
100
AcDbEntity
  8
MAIN0
  6
CONTINUOUS
 62
3
100
AcDbLine
 10
725.6873375219667
 20
359.3126624780322
 30
0.0000000000000000
 11
722.0103822260808
 21
361.2925614316399
 31
0.0000000000000000
  0
MTEXT
  5
33E
100
AcDbEntity
  8
MAIN0
  6
CONTINUOUS
 62
3
100
AcDbMText
 10
715.7071067811950
 20
370.7071067811938
 30
0.0000000000000000
 40
6.199999809265137
 41
0.0000000000000000
 71
     8
 72
     1
  1
{\H0.69x;{42}}
 11
0.7071067811859928
 21
-0.7071067811871022
 31
0.0000000000000000
  7
STANDARD
  0
LINE
  5
33F
100
AcDbEntity
  8
MAIN0
  6
CONTINUOUS
 62
3
100
AcDbLine
 10
757.0559666558859
 20
390.6812916119021
 30
0.0000000000000000
 11
722.8589103972183
 21
356.4842353532882
 31
0.0000000000000000
  0
LINE
  5
340
100
AcDbEntity
  8
MAIN0
  6
CONTINUOUS
 62
3
100
AcDbLine
 10
725.6873375219667
 20
359.3126624780323
 30
0.0000000000000000
 11
741.2436867076076
 21
343.7563132923669
 31
0.0000000000000000
  0
LINE
  5
341
100
AcDbEntity
  8
MAIN0
  6
CONTINUOUS
 62
3
100
AcDbLine
 10
729.3642928178526
 20
357.3327635244245
 30
0.0000000000000000
 11
725.6873375219667
 21
359.3126624780323
 31
0.0000000000000000
  0
LINE
  5
342
100
AcDbEntity
  8
MAIN0
  6
CONTINUOUS
 62
3
100
AcDbLine
 10
725.6873375219667
 20
359.3126624780323
 30
0.0000000000000000
 11
727.6672364755686
 21
355.6357071821432
 31
0.0000000000000000
  0
LINE
  5
343
100
AcDbEntity
  8
MAIN0
  6
CONTINUOUS
 62
3
100
AcDbLine
 10
739.2637877540057
 20
347.4332685882560
 30
0.0000000000000000
 11
741.2436867076076
 21
343.7563132923669
 31
0.0000000000000000
  0
LINE
  5
344
100
AcDbEntity
  8
MAIN0
  6
CONTINUOUS
 62
3
100
AcDbLine
 10
741.2436867076076
 20
343.7563132923669
 30
0.0000000000000000
 11
737.5667314117217
 21
345.7362122459747
 31
0.0000000000000000
  0
MTEXT
  5
345
100
AcDbEntity
  8
MAIN0
  6
CONTINUOUS
 62
3
100
AcDbMText
 10
733.2071067811753
 20
353.2071067811860
 30
0.0000000000000000
 40
6.199999809265137
 41
0.0000000000000000
 71
     8
 72
     1
  1
{\H0.69x;{22}}
 11
0.7071067811859928
 21
-0.7071067811871022
 31
0.0000000000000000
  7
STANDARD
  0
LINE
  5
346
100
AcDbEntity
  8
MAIN0
  6
CONTINUOUS
 62
3
100
AcDbLine
 10
772.6123158415511
 20
375.1249424262612
 30
0.0000000000000000
 11
738.4152595828592
 21
340.9278861676229
 31
0.0000000000000000
  0
LINE
  5
347
100
AcDbEntity
  8
MAIN0
  6
CONTINUOUS
 62
3
100
AcDbLine
 10
698.0786501866846
 20
473.2896387851752
 30
0.0000000000000000
 11
622.1399199394382
 21
515.4778222558675
 31
0.0000000000000000
  0
LINE
  5
348
100
AcDbEntity
  8
MAIN0
  6
CONTINUOUS
 62
3
100
AcDbLine
 10
693.9992495416269
 20
474.1832217368608
 30
0.0000000000000000
 11
698.0786501866846
 21
473.2896387851752
 31
0.0000000000000000
  0
LINE
  5
349
100
AcDbEntity
  8
MAIN0
  6
CONTINUOUS
 62
3
100
AcDbLine
 10
698.0786501866846
 20
473.2896387851752
 30
0.0000000000000000
 11
695.1647926227701
 21
476.2811992829186
 31
0.0000000000000000
  0
MTEXT
  5
34A
100
AcDbEntity
  8
MAIN0
  6
CONTINUOUS
 62
3
100
AcDbMText
 10
670.0139448179710
 20
490.0251006723479
 30
0.0000000000000000
 40
6.199999809265137
 41
0.0000000000000000
 71
     8
 72
     1
  1
{\U+2205110}
 11
0.8741572761215386
 21
-0.4856429311786307
 31
0.0000000000000000
  7
STANDARD
  0
POINT
  5
34B
100
AcDbEntity
  8
MAIN0
  6
CONTINUOUS
 62
3
100
AcDbPoint
 10
698.0786501866846
 20
473.2896387851752
 30
0.0000000000000000
  0
POINT
  5
34C
100
AcDbEntity
  8
MAIN0
  6
CONTINUOUS
 62
3
100
AcDbPoint
 10
715.5617957091154
 20
463.5767801616026
 30
0.0000000000000000
  0
POINT
  5
34D
100
AcDbEntity
  8
MAIN0
  6
CONTINUOUS
 62
3
100
AcDbPoint
 10
733.0449412315462
 20
453.8639215380300
 30
0.0000000000000000
  0
POINT
  5
34E
100
AcDbEntity
  8
MAIN0
  6
CONTINUOUS
 62
3
100
AcDbPoint
 10
750.5280867539769
 20
444.1510629144574
 30
0.0000000000000000
  0
POINT
  5
34F
100
AcDbEntity
  8
MAIN0
  6
CONTINUOUS
 62
3
100
AcDbPoint
 10
768.0112322764077
 20
434.4382042908848
 30
0.0000000000000000
  0
POINT
  5
350
100
AcDbEntity
  8
MAIN0
  6
CONTINUOUS
 62
3
100
AcDbPoint
 10
785.4943777988385
 20
424.7253456673121
 30
0.0000000000000000
  0
POINT
  5
351
100
AcDbEntity
  8
MAIN0
  6
CONTINUOUS
 62
3
100
AcDbPoint
 10
802.9775233212693
 20
415.0124870437396
 30
0.0000000000000000
  0
LINE
  5
352
100
AcDbEntity
  8
MAIN0
  6
CONTINUOUS
 62
3
100
AcDbLine
 10
698.0786501866846
 20
473.2896387851752
 30
0.0000000000000000
 11
715.5617957091154
 21
463.5767801616026
 31
0.0000000000000000
  0
LINE
  5
353
100
AcDbEntity
  8
MAIN0
  6
CONTINUOUS
 62
3
100
AcDbLine
 10
702.1580508317423
 20
472.3960558334895
 30
0.0000000000000000
 11
698.0786501866846
 21
473.2896387851752
 31
0.0000000000000000
  0
LINE
  5
354
100
AcDbEntity
  8
MAIN0
  6
CONTINUOUS
 62
3
100
AcDbLine
 10
698.0786501866846
 20
473.2896387851752
 30
0.0000000000000000
 11
700.9925077505992
 21
470.2980782874317
 31
0.0000000000000000
  0
LINE
  5
355
100
AcDbEntity
  8
MAIN0
  6
CONTINUOUS
 62
3
100
AcDbLine
 10
712.6479381452008
 20
466.5683406593460
 30
0.0000000000000000
 11
715.5617957091154
 21
463.5767801616026
 31
0.0000000000000000
  0
LINE
  5
356
100
AcDbEntity
  8
MAIN0
  6
CONTINUOUS
 62
3
100
AcDbLine
 10
715.5617957091154
 20
463.5767801616026
 30
0.0000000000000000
 11
711.4823950640576
 21
464.4703631132882
 31
0.0000000000000000
  0
MTEXT
  5
357
100
AcDbEntity
  8
MAIN0
  6
CONTINUOUS
 62
3
100
AcDbMText
 10
707.3058658790786
 20
469.3073667495104
 30
0.0000000000000000
 40
6.199999809265137
 41
0.0000000000000000
 71
     8
 72
     1
  1
{\H0.69x;{20}}
 11
0.8741572761215395
 21
-0.4856429311786291
 31
0.0000000000000000
  7
STANDARD
  0
LINE
  5
358
100
AcDbEntity
  8
MAIN0
  6
CONTINUOUS
 62
3
100
AcDbLine
 10
715.5617957091154
 20
463.5767801616026
 30
0.0000000000000000
 11
733.0449412315462
 21
453.8639215380300
 31
0.0000000000000000
  0
LINE
  5
359
100
AcDbEntity
  8
MAIN0
  6
CONTINUOUS
 62
3
100
AcDbLine
 10
719.6411963541732
 20
462.6831972099170
 30
0.0000000000000000
 11
715.5617957091154
 21
463.5767801616026
 31
0.0000000000000000
  0
LINE
  5
35A
100
AcDbEntity
  8
MAIN0
  6
CONTINUOUS
 62
3
100
AcDbLine
 10
715.5617957091154
 20
463.5767801616026
 30
0.0000000000000000
 11
718.4756532730299
 21
460.5852196638592
 31
0.0000000000000000
  0
LINE
  5
35B
100
AcDbEntity
  8
MAIN0
  6
CONTINUOUS
 62
3
100
AcDbLine
 10
730.1310836676316
 20
456.8554820357734
 30
0.0000000000000000
 11
733.0449412315462
 21
453.8639215380300
 31
0.0000000000000000
  0
LINE
  5
35C
100
AcDbEntity
  8
MAIN0
  6
CONTINUOUS
 62
3
100
AcDbLine
 10
733.0449412315462
 20
453.8639215380300
 30
0.0000000000000000
 11
728.9655405864885
 21
454.7575044897156
 31
0.0000000000000000
  0
MTEXT
  5
35D
100
AcDbEntity
  8
MAIN0
  6
CONTINUOUS
 62
3
100
AcDbMText
 10
724.7890114015095
 20
459.5945081259379
 30
0.0000000000000000
 40
6.199999809265137
 41
0.0000000000000000
 71
     8
 72
     1
  1
{\H0.69x;{20}}
 11
0.8741572761215395
 21
-0.4856429311786291
 31
0.0000000000000000
  7
STANDARD
  0
LINE
  5
35E
100
AcDbEntity
  8
MAIN0
  6
CONTINUOUS
 62
3
100
AcDbLine
 10
733.0449412315462
 20
453.8639215380300
 30
0.0000000000000000
 11
750.5280867539769
 21
444.1510629144574
 31
0.0000000000000000
  0
LINE
  5
35F
100
AcDbEntity
  8
MAIN0
  6
CONTINUOUS
 62
3
100
AcDbLine
 10
737.1243418766039
 20
452.9703385863444
 30
0.0000000000000000
 11
733.0449412315462
 21
453.8639215380300
 31
0.0000000000000000
  0
LINE
  5
360
100
AcDbEntity
  8
MAIN0
  6
CONTINUOUS
 62
3
100
AcDbLine
 10
733.0449412315462
 20
453.8639215380300
 30
0.0000000000000000
 11
735.9587987954608
 21
450.8723610402866
 31
0.0000000000000000
  0
LINE
  5
361
100
AcDbEntity
  8
MAIN0
  6
CONTINUOUS
 62
3
100
AcDbLine
 10
747.6142291900624
 20
447.1426234122009
 30
0.0000000000000000
 11
750.5280867539769
 21
444.1510629144574
 31
0.0000000000000000
  0
LINE
  5
362
100
AcDbEntity
  8
MAIN0
  6
CONTINUOUS
 62
3
100
AcDbLine
 10
750.5280867539769
 20
444.1510629144574
 30
0.0000000000000000
 11
746.4486861089192
 21
445.0446458661431
 31
0.0000000000000000
  0
MTEXT
  5
363
100
AcDbEntity
  8
MAIN0
  6
CONTINUOUS
 62
3
100
AcDbMText
 10
742.2721569239402
 20
449.8816495023652
 30
0.0000000000000000
 40
6.199999809265137
 41
0.0000000000000000
 71
     8
 72
     1
  1
{\H0.69x;{20}}
 11
0.8741572761215395
 21
-0.4856429311786291
 31
0.0000000000000000
  7
STANDARD
  0
LINE
  5
364
100
AcDbEntity
  8
MAIN0
  6
CONTINUOUS
 62
3
100
AcDbLine
 10
750.5280867539769
 20
444.1510629144574
 30
0.0000000000000000
 11
768.0112322764078
 21
434.4382042908849
 31
0.0000000000000000
  0
LINE
  5
365
100
AcDbEntity
  8
MAIN0
  6
CONTINUOUS
 62
3
100
AcDbLine
 10
754.6074873990347
 20
443.2574799627719
 30
0.0000000000000000
 11
750.5280867539769
 21
444.1510629144574
 31
0.0000000000000000
  0
LINE
  5
366
100
AcDbEntity
  8
MAIN0
  6
CONTINUOUS
 62
3
100
AcDbLine
 10
750.5280867539769
 20
444.1510629144574
 30
0.0000000000000000
 11
753.4419443178915
 21
441.1595024167140
 31
0.0000000000000000
  0
LINE
  5
367
100
AcDbEntity
  8
MAIN0
  6
CONTINUOUS
 62
3
100
AcDbLine
 10
765.0973747124932
 20
437.4297647886283
 30
0.0000000000000000
 11
768.0112322764078
 21
434.4382042908849
 31
0.0000000000000000
  0
LINE
  5
368
100
AcDbEntity
  8
MAIN0
  6
CONTINUOUS
 62
3
100
AcDbLine
 10
768.0112322764078
 20
434.4382042908849
 30
0.0000000000000000
 11
763.9318316313500
 21
435.3317872425704
 31
0.0000000000000000
  0
MTEXT
  5
369
100
AcDbEntity
  8
MAIN0
  6
CONTINUOUS
 62
3
100
AcDbMText
 10
759.7553024463711
 20
440.1687908787927
 30
0.0000000000000000
 40
6.199999809265137
 41
0.0000000000000000
 71
     8
 72
     1
  1
{\H0.69x;{20}}
 11
0.8741572761215395
 21
-0.4856429311786291
 31
0.0000000000000000
  7
STANDARD
  0
LINE
  5
36A
100
AcDbEntity
  8
MAIN0
  6
CONTINUOUS
 62
3
100
AcDbLine
 10
768.0112322764078
 20
434.4382042908849
 30
0.0000000000000000
 11
785.4943777988385
 21
424.7253456673122
 31
0.0000000000000000
  0
LINE
  5
36B
100
AcDbEntity
  8
MAIN0
  6
CONTINUOUS
 62
3
100
AcDbLine
 10
772.0906329214655
 20
433.5446213391992
 30
0.0000000000000000
 11
768.0112322764078
 21
434.4382042908849
 31
0.0000000000000000
  0
LINE
  5
36C
100
AcDbEntity
  8
MAIN0
  6
CONTINUOUS
 62
3
100
AcDbLine
 10
768.0112322764078
 20
434.4382042908849
 30
0.0000000000000000
 11
770.9250898403224
 21
431.4466437931415
 31
0.0000000000000000
  0
LINE
  5
36D
100
AcDbEntity
  8
MAIN0
  6
CONTINUOUS
 62
3
100
AcDbLine
 10
782.5805202349239
 20
427.7169061650557
 30
0.0000000000000000
 11
785.4943777988385
 21
424.7253456673122
 31
0.0000000000000000
  0
LINE
  5
36E
100
AcDbEntity
  8
MAIN0
  6
CONTINUOUS
 62
3
100
AcDbLine
 10
785.4943777988385
 20
424.7253456673122
 30
0.0000000000000000
 11
781.4149771537808
 21
425.6189286189979
 31
0.0000000000000000
  0
MTEXT
  5
36F
100
AcDbEntity
  8
MAIN0
  6
CONTINUOUS
 62
3
100
AcDbMText
 10
777.2384479688018
 20
430.4559322552201
 30
0.0000000000000000
 40
6.199999809265137
 41
0.0000000000000000
 71
     8
 72
     1
  1
{\H0.69x;{20}}
 11
0.8741572761215395
 21
-0.4856429311786291
 31
0.0000000000000000
  7
STANDARD
  0
LINE
  5
370
100
AcDbEntity
  8
MAIN0
  6
CONTINUOUS
 62
3
100
AcDbLine
 10
785.4943777988385
 20
424.7253456673122
 30
0.0000000000000000
 11
802.9775233212693
 21
415.0124870437397
 31
0.0000000000000000
  0
LINE
  5
371
100
AcDbEntity
  8
MAIN0
  6
CONTINUOUS
 62
3
100
AcDbLine
 10
789.5737784438962
 20
423.8317627156267
 30
0.0000000000000000
 11
785.4943777988385
 21
424.7253456673122
 31
0.0000000000000000
  0
LINE
  5
372
100
AcDbEntity
  8
MAIN0
  6
CONTINUOUS
 62
3
100
AcDbLine
 10
785.4943777988385
 20
424.7253456673122
 30
0.0000000000000000
 11
788.4082353627531
 21
421.7337851695688
 31
0.0000000000000000
  0
LINE
  5
373
100
AcDbEntity
  8
MAIN0
  6
CONTINUOUS
 62
3
100
AcDbLine
 10
800.0636657573547
 20
418.0040475414832
 30
0.0000000000000000
 11
802.9775233212693
 21
415.0124870437397
 31
0.0000000000000000
  0
LINE
  5
374
100
AcDbEntity
  8
MAIN0
  6
CONTINUOUS
 62
3
100
AcDbLine
 10
802.9775233212693
 20
415.0124870437397
 30
0.0000000000000000
 11
798.8981226762115
 21
415.9060699954253
 31
0.0000000000000000
  0
MTEXT
  5
375
100
AcDbEntity
  8
MAIN0
  6
CONTINUOUS
 62
3
100
AcDbMText
 10
794.7215934912326
 20
420.7430736316475
 30
0.0000000000000000
 40
6.199999809265137
 41
0.0000000000000000
 71
     8
 72
     1
  1
{\H0.69x;{20}}
 11
0.8741572761215395
 21
-0.4856429311786291
 31
0.0000000000000000
  7
STANDARD
  0
LINE
  5
376
100
AcDbEntity
  8
MAIN0
  6
CONTINUOUS
 62
3
100
AcDbLine
 10
325.0000000000000
 20
470.0000000000000
 30
0.0000000000000000
 11
370.0000000000000
 21
470.0000000000000
 31
0.0000000000000000
  0
LINE
  5
377
100
AcDbEntity
  8
MAIN0
  6
CONTINUOUS
 62
3
100
AcDbLine
 10
329.0000000000000
 20
471.2000000476837
 30
0.0000000000000000
 11
325.0000000000000
 21
470.0000000000000
 31
0.0000000000000000
  0
LINE
  5
378
100
AcDbEntity
  8
MAIN0
  6
CONTINUOUS
 62
3
100
AcDbLine
 10
325.0000000000000
 20
470.0000000000000
 30
0.0000000000000000
 11
329.0000000000000
 21
468.7999999523163
 31
0.0000000000000000
  0
LINE
  5
379
100
AcDbEntity
  8
MAIN0
  6
CONTINUOUS
 62
3
100
AcDbLine
 10
366.0000000000000
 20
471.2000000476837
 30
0.0000000000000000
 11
370.0000000000000
 21
470.0000000000000
 31
0.0000000000000000
  0
LINE
  5
37A
100
AcDbEntity
  8
MAIN0
  6
CONTINUOUS
 62
3
100
AcDbLine
 10
370.0000000000000
 20
470.0000000000000
 30
0.0000000000000000
 11
366.0000000000000
 21
468.7999999523163
 31
0.0000000000000000
  0
MTEXT
  5
37B
100
AcDbEntity
  8
MAIN0
  6
CONTINUOUS
 62
3
100
AcDbMText
 10
347.5000000000000
 20
471.0000000000000
 30
0.0000000000000000
 40
6.199999809265137
 41
0.0000000000000000
 71
     8
 72
     1
  1
{\H0.69x;{45}}
 11
1.000000000000000
 21
0.0000000000000000
 31
0.0000000000000000
  7
STANDARD
  0
LINE
  5
37C
100
AcDbEntity
  8
MAIN0
  6
CONTINUOUS
 62
3
100
AcDbLine
 10
370.0000000000000
 20
481.8999999761581
 30
0.0000000000000000
 11
370.0000000000000
 21
466.0000000000000
 31
0.0000000000000000
  0
LINE
  5
37D
100
AcDbEntity
  8
MAIN0
  6
CONTINUOUS
 62
3
100
AcDbLine
 10
235.6000000000000
 20
440.0750000000332
 30
0.0000000000000000
 11
268.0135601085182
 21
440.0749999997019
 31
0.0000000000000000
  0
LINE
  5
37E
100
AcDbEntity
  8
MAIN0
  6
HIDDEN
 62
3
100
AcDbLine
 10
268.0135601085182
 20
440.0749999997019
 30
0.0000000000000000
 11
311.0000000000000
 21
440.0750000000332
 31
0.0000000000000000
  0
LINE
  5
37F
100
AcDbEntity
  8
MAIN0
  6
CONTINUOUS
 62
3
100
AcDbLine
 10
235.5999999999974
 20
426.5749999997568
 30
0.0000000000000000
 11
263.5621222633643
 21
426.5749866600096
 31
0.0000000000000000
  0
LINE
  5
380
100
AcDbEntity
  8
MAIN0
  6
HIDDEN
 62
3
100
AcDbLine
 10
263.5621222633643
 20
426.5749866600096
 30
0.0000000000000000
 11
310.9999999999974
 21
426.5749999997272
 31
0.0000000000000000
  0
POINT
  5
381
100
AcDbEntity
  8
MAIN0
  6
CONTINUOUS
 62
3
100
AcDbPoint
 10
290.0000000000000
 20
440.0749999998714
 30
0.0000000000000000
  0
LINE
  5
382
100
AcDbEntity
  8
MAIN0
  6
CONTINUOUS
 62
3
100
AcDbLine
 10
290.0000000000000
 20
446.0749999997019
 30
0.0000000000000000
 11
290.0000000000000
 21
414.9114753837645
 31
0.0000000000000000
  0
LINE
  5
383
100
AcDbEntity
  8
MAIN0
  6
CONTINUOUS
 62
3
100
AcDbLine
 10
291.2000000476837
 20
444.0749999997019
 30
0.0000000000000000
 11
290.0000000000000
 21
440.0749999997019
 31
0.0000000000000000
  0
LINE
  5
384
100
AcDbEntity
  8
MAIN0
  6
CONTINUOUS
 62
3
100
AcDbLine
 10
290.0000000000000
 20
440.0749999997019
 30
0.0000000000000000
 11
288.7999999523163
 21
444.0749999997019
 31
0.0000000000000000
  0
LINE
  5
385
100
AcDbEntity
  8
MAIN0
  6
CONTINUOUS
 62
3
100
AcDbLine
 10
291.2000000476837
 20
422.5749866600096
 30
0.0000000000000000
 11
290.0000000000000
 21
426.5749866600096
 31
0.0000000000000000
  0
LINE
  5
386
100
AcDbEntity
  8
MAIN0
  6
CONTINUOUS
 62
3
100
AcDbLine
 10
290.0000000000000
 20
426.5749866600096
 30
0.0000000000000000
 11
288.7999999523163
 21
422.5749866600096
 31
0.0000000000000000
  0
MTEXT
  5
387
100
AcDbEntity
  8
MAIN0
  6
CONTINUOUS
 62
3
100
AcDbMText
 10
289.0000000000000
 20
413.2479631928460
 30
0.0000000000000000
 40
6.199999809265137
 41
0.0000000000000000
 71
     8
 72
     1
  1
{\U+220513.5}
 11
6.123233995736766e-017
 21
1.000000000000000
 31
0.0000000000000000
  7
STANDARD
  0
LINE
  5
388
100
AcDbEntity
  8
MAIN0
  6
HIDDEN
 62
3
100
AcDbLine
 10
299.9103341013775
 20
672.0000000000116
 30
0.0000000000000000
 11
276.8185977615096
 21
671.9999999999891
 31
0.0000000000000000
  0
POINT
  5
389
100
AcDbEntity
  8
MAIN0
  6
CONTINUOUS
 62
3
100
AcDbPoint
 10
297.2499999999983
 20
672.0000000000091
 30
0.0000000000000000
  0
POINT
  5
38A
100
AcDbEntity
  8
MAIN0
  6
CONTINUOUS
 62
3
100
AcDbPoint
 10
278.7499999999983
 20
671.9999999999911
 30
0.0000000000000000
  0
LINE
  5
38B
100
AcDbEntity
  8
MAIN0
  6
HIDDEN
 62
3
100
AcDbLine
 10
295.7500000000455
 20
653.0000000000076
 30
0.0000000000000000
 11
295.7500000000360
 21
669.9999999998853
 31
0.0000000000000000
  0
LINE
  5
38C
100
AcDbEntity
  8
MAIN0
  6
HIDDEN
 62
3
100
AcDbLine
 10
280.2500000000318
 20
652.9999999999925
 30
0.0000000000000000
 11
280.2500000000221
 21
669.9999999998853
 31
0.0000000000000000
  0
LINE
  5
38D
100
AcDbEntity
  8
MAIN0
  6
HIDDEN
 62
3
100
AcDbLine
 10
297.2499999999982
 20
672.0000000000091
 30
0.0000000000000000
 11
295.7500000000360
 21
669.9999999998853
 31
0.0000000000000000
  0
LINE
  5
38E
100
AcDbEntity
  8
MAIN0
  6
HIDDEN
 62
3
100
AcDbLine
 10
280.2500000000221
 20
669.9999999998853
 30
0.0000000000000000
 11
278.7499999999982
 21
671.9999999999913
 31
0.0000000000000000
  0
LINE
  5
38F
100
AcDbEntity
  8
MAIN0
  6
HIDDEN
 62
3
100
AcDbLine
 10
295.7500000000454
 20
653.0000000000075
 30
0.0000000000000000
 11
280.2500000000318
 21
652.9999999999925
 31
0.0000000000000000
  0
LINE
  5
390
100
AcDbEntity
  8
MAIN0
  6
HIDDEN
 62
3
100
AcDbLine
 10
287.2259685441264
 20
652.9999999999992
 30
0.0000000000000000
 11
287.2259685441240
 21
669.9999999999993
 31
0.0000000000000000
  0
LINE
  5
391
100
AcDbEntity
  8
MAIN0
  6
HIDDEN
 62
3
100
AcDbLine
 10
288.7740314557044
 20
653.0000000000008
 30
0.0000000000000000
 11
288.7740314557492
 21
670.0000000000009
 31
0.0000000000000000
  0
ARC
  5
392
100
AcDbEntity
  8
MAIN0
  6
HIDDEN
 62
3
100
AcDbCircle
 10
283.7379842719720
 20
676.1775641652479
 30
0.0000000000000000
 40
7.094246492654591
100
AcDbArc
 50
240.5500021277905
 51
299.4499978740843
  0
ARC
  5
393
100
AcDbEntity
  8
MAIN0
  6
HIDDEN
 62
3
100
AcDbCircle
 10
292.2620157280293
 20
676.1775641652432
 30
0.0000000000000000
 40
7.094246492654591
100
AcDbArc
 50
240.5500021249910
 51
299.4499978726281
  0
LINE
  5
394
100
AcDbEntity
  8
MAIN0
  6
HIDDEN
 62
3
100
AcDbLine
 10
295.7500000000361
 20
669.9999999998853
 30
0.0000000000000000
 11
288.7740314557045
 21
653.0000000000007
 31
0.0000000000000000
  0
LINE
  5
395
100
AcDbEntity
  8
MAIN0
  6
HIDDEN
 62
3
100
AcDbLine
 10
295.7500000000456
 20
653.0000000000076
 30
0.0000000000000000
 11
288.7740314557493
 21
670.0000000000009
 31
0.0000000000000000
  0
LINE
  5
396
100
AcDbEntity
  8
MAIN0
  6
HIDDEN
 62
3
100
AcDbLine
 10
287.2259685441239
 20
669.9999999999994
 30
0.0000000000000000
 11
280.2500000000317
 21
652.9999999999926
 31
0.0000000000000000
  0
LINE
  5
397
100
AcDbEntity
  8
MAIN0
  6
HIDDEN
 62
3
100
AcDbLine
 10
287.2259685441266
 20
652.9999999999993
 30
0.0000000000000000
 11
280.2500000000222
 21
669.9999999998854
 31
0.0000000000000000
  0
LINE
  5
398
100
AcDbEntity
  8
MAIN0
  6
CONTINUOUS
 62
3
100
AcDbLine
 10
351.9999999999710
 20
596.0000000001973
 30
0.0000000000000000
 11
351.9999999999710
 21
619.0000000002862
 31
0.0000000000000000
  0
LINE
  5
399
100
AcDbEntity
  8
MAIN0
  6
CONTINUOUS
 62
3
100
AcDbLine
 10
333.9999999999710
 20
632.0000000010738
 30
0.0000000000000000
 11
333.9999999999710
 21
654.0000000000663
 31
0.0000000000000000
  0
LINE
  5
39A
100
AcDbEntity
  8
MAIN0
  6
CONTINUOUS
 62
3
100
AcDbLine
 10
333.9999999999710
 20
654.0000000000663
 30
0.0000000000000000
 11
333.4999999999710
 21
654.5000000000640
 31
0.0000000000000000
  0
LINE
  5
39B
100
AcDbEntity
  8
MAIN0
  6
CONTINUOUS
 62
3
100
AcDbLine
 10
351.4999999999710
 20
619.5000000002862
 30
0.0000000000000000
 11
351.4999999999710
 21
628.0000000002862
 31
0.0000000000000000
  0
LINE
  5
39C
100
AcDbEntity
  8
MAIN0
  6
CONTINUOUS
 62
3
100
AcDbLine
 10
351.9999999999709
 20
619.0000000002862
 30
0.0000000000000000
 11
351.4999999999709
 21
619.5000000002862
 31
0.0000000000000000
  0
LINE
  5
39D
100
AcDbEntity
  8
MAIN0
  6
CONTINUOUS
 62
3
100
AcDbLine
 10
351.4999999999710
 20
628.0000000002863
 30
0.0000000000000000
 11
350.4999999999710
 21
629.0000000002863
 31
0.0000000000000000
  0
LINE
  5
39E
100
AcDbEntity
  8
MAIN0
  6
CONTINUOUS
 62
3
100
AcDbLine
 10
369.9999999999710
 20
592.0000000002863
 30
0.0000000000000000
 11
368.9999999999710
 21
593.0000000002863
 31
0.0000000000000000
  0
LINE
  5
39F
100
AcDbEntity
  8
MAIN0
  6
CONTINUOUS
 62
3
100
AcDbLine
 10
350.5399180019100
 20
592.8688440508457
 30
0.0000000000000000
 11
351.9999999999714
 21
596.0000000001982
 31
0.0000000000000000
  0
LINE
  5
3A0
100
AcDbEntity
  8
MAIN0
  6
CONTINUOUS
 62
3
100
AcDbLine
 10
351.8688440506876
 20
591.5399180020679
 30
0.0000000000000000
 11
355.0000000003795
 21
593.0000000002858
 31
0.0000000000000000
  0
ARC
  5
3A1
100
AcDbEntity
  8
MAIN0
  6
CONTINUOUS
 62
3
100
AcDbCircle
 10
351.4462257889467
 20
592.4462257891046
 30
0.0000000000000000
 40
1.000000000000000
100
AcDbArc
 50
154.9999999999887
 51
294.9999999999980
  0
LINE
  5
3A2
100
AcDbEntity
  8
MAIN0
  6
CONTINUOUS
 62
3
100
AcDbLine
 10
332.5399180015014
 20
628.8688440508461
 30
0.0000000000000000
 11
333.9999999995628
 21
632.0000000001985
 31
0.0000000000000000
  0
LINE
  5
3A3
100
AcDbEntity
  8
MAIN0
  6
CONTINUOUS
 62
3
100
AcDbLine
 10
333.8688440502791
 20
627.5399180020683
 30
0.0000000000000000
 11
336.9999999999709
 21
629.0000000002862
 31
0.0000000000000000
  0
ARC
  5
3A4
100
AcDbEntity
  8
MAIN0
  6
CONTINUOUS
 62
3
100
AcDbCircle
 10
333.4462257885381
 20
628.4462257891049
 30
0.0000000000000000
 40
1.000000000000000
100
AcDbArc
 50
154.9999999999887
 51
294.9999999999980
  0
LINE
  5
3A5
100
AcDbEntity
  8
MAIN0
  6
CENTER
 62
3
100
AcDbLine
 10
358.9999999999710
 20
588.9982383622796
 30
0.0000000000000000
 11
358.9999999999710
 21
595.8262330558105
 31
0.0000000000000000
  0
LINE
  5
3A6
100
AcDbEntity
  8
MAIN0
  6
CONTINUOUS
 62
3
100
AcDbLine
 10
359.7499999999975
 20
593.0000000004189
 30
0.0000000000000000
 11
358.9999999999831
 21
591.7009618947154
 31
0.0000000000000000
  0
LINE
  5
3A7
100
AcDbEntity
  8
MAIN0
  6
CONTINUOUS
 62
3
100
AcDbLine
 10
358.9999999999709
 20
591.7009618947350
 30
0.0000000000000000
 11
358.2499999999680
 21
593.0000000004184
 31
0.0000000000000000
  0
LINE
  5
3A8
100
AcDbEntity
  8
MAIN0
  6
CONTINUOUS
 62
3
100
AcDbLine
 10
363.9999999999707
 20
591.7009618947891
 30
0.0000000000000000
 11
363.2499999999677
 21
593.0000000004725
 31
0.0000000000000000
  0
LINE
  5
3A9
100
AcDbEntity
  8
MAIN0
  6
CONTINUOUS
 62
3
100
AcDbLine
 10
364.7499999999972
 20
593.0000000004731
 30
0.0000000000000000
 11
363.9999999999827
 21
591.7009618947695
 31
0.0000000000000000
  0
LINE
  5
3AA
100
AcDbEntity
  8
MAIN0
  6
CENTER
 62
3
100
AcDbLine
 10
363.9999999999710
 20
588.9982383622796
 30
0.0000000000000000
 11
363.9999999999710
 21
595.8262330558105
 31
0.0000000000000000
  0
LINE
  5
3AB
100
AcDbEntity
  8
MAIN0
  6
CONTINUOUS
 62
3
100
AcDbLine
 10
368.9999999999710
 20
593.0000000002862
 30
0.0000000000000000
 11
364.7499999998892
 21
593.0000000002862
 31
0.0000000000000000
  0
LINE
  5
3AC
100
AcDbEntity
  8
MAIN0
  6
CONTINUOUS
 62
3
100
AcDbLine
 10
358.2500000000444
 20
593.0000000002862
 30
0.0000000000000000
 11
355.0000000003802
 21
593.0000000002862
 31
0.0000000000000000
  0
LINE
  5
3AD
100
AcDbEntity
  8
MAIN0
  6
CONTINUOUS
 62
3
100
AcDbLine
 10
363.2500000000753
 20
593.0000000002862
 30
0.0000000000000000
 11
359.7499999999207
 21
593.0000000002862
 31
0.0000000000000000
  0
LINE
  5
3AE
100
AcDbEntity
  8
MAIN0
  6
CONTINUOUS
 62
3
100
AcDbLine
 10
336.9999999999709
 20
629.0000000002862
 30
0.0000000000000000
 11
339.7500000000443
 21
629.0000000002862
 31
0.0000000000000000
  0
LINE
  5
3AF
100
AcDbEntity
  8
MAIN0
  6
CONTINUOUS
 62
3
100
AcDbLine
 10
332.4999999999710
 20
672.0000000000347
 30
0.0000000000000000
 11
333.4999999999710
 21
671.0000000000396
 31
0.0000000000000000
  0
LINE
  5
3B0
100
AcDbEntity
  8
MAIN0
  6
CONTINUOUS
 62
3
100
AcDbLine
 10
333.4999999999710
 20
671.0000000000396
 30
0.0000000000000000
 11
333.4999999999710
 21
654.5000000000639
 31
0.0000000000000000
  0
LINE
  5
3B1
100
AcDbEntity
  8
MAIN0
  6
CONTINUOUS
 62
3
100
AcDbLine
 10
369.9999999999710
 20
563.0000000002862
 30
0.0000000000000000
 11
369.9999999999710
 21
592.0000000002862
 31
0.0000000000000000
  0
LINE
  5
3B2
100
AcDbEntity
  8
MAIN0
  6
CONTINUOUS
 62
3
100
AcDbLine
 10
369.9999999999710
 20
563.0000000002862
 30
0.0000000000000000
 11
368.9999999999709
 21
562.0000000002862
 31
0.0000000000000000
  0
LINE
  5
3B3
100
AcDbEntity
  8
MAIN0
  6
CONTINUOUS
 62
3
100
AcDbLine
 10
364.7499999999710
 20
562.0000000002863
 30
0.0000000000000000
 11
363.9999999999710
 21
563.2990381059628
 31
0.0000000000000000
  0
LINE
  5
3B4
100
AcDbEntity
  8
MAIN0
  6
CONTINUOUS
 62
3
100
AcDbLine
 10
363.9999999999709
 20
563.2990381059628
 30
0.0000000000000000
 11
363.2499999999709
 21
562.0000000002862
 31
0.0000000000000000
  0
LINE
  5
3B5
100
AcDbEntity
  8
MAIN0
  6
CONTINUOUS
 62
3
100
AcDbLine
 10
359.2499999999709
 20
562.0000000002862
 30
0.0000000000000000
 11
358.4999999999709
 21
563.2990381059628
 31
0.0000000000000000
  0
LINE
  5
3B6
100
AcDbEntity
  8
MAIN0
  6
CONTINUOUS
 62
3
100
AcDbLine
 10
358.4999999999709
 20
563.2990381059628
 30
0.0000000000000000
 11
357.7499999999709
 21
562.0000000002862
 31
0.0000000000000000
  0
LINE
  5
3B7
100
AcDbEntity
  8
MAIN0
  6
CENTER
 62
3
100
AcDbLine
 10
363.9999999999710
 20
564.6702672813733
 30
0.0000000000000000
 11
363.9999999999710
 21
560.2386701241509
 31
0.0000000000000000
  0
LINE
  5
3B8
100
AcDbEntity
  8
MAIN0
  6
CENTER
 62
3
100
AcDbLine
 10
358.4999999999710
 20
564.6702672813733
 30
0.0000000000000000
 11
358.4999999999710
 21
560.2386701241509
 31
0.0000000000000000
  0
LINE
  5
3B9
100
AcDbEntity
  8
MAIN0
  6
CONTINUOUS
 62
3
100
AcDbLine
 10
353.7499999999710
 20
562.0000000002863
 30
0.0000000000000000
 11
352.9999999999710
 21
563.2990381059628
 31
0.0000000000000000
  0
LINE
  5
3BA
100
AcDbEntity
  8
MAIN0
  6
CONTINUOUS
 62
3
100
AcDbLine
 10
352.9999999999709
 20
563.2990381059628
 30
0.0000000000000000
 11
352.2499999999709
 21
562.0000000002862
 31
0.0000000000000000
  0
LINE
  5
3BB
100
AcDbEntity
  8
MAIN0
  6
CONTINUOUS
 62
3
100
AcDbLine
 10
348.2499999999709
 20
562.0000000002862
 30
0.0000000000000000
 11
347.4999999999709
 21
563.2990381059628
 31
0.0000000000000000
  0
LINE
  5
3BC
100
AcDbEntity
  8
MAIN0
  6
CONTINUOUS
 62
3
100
AcDbLine
 10
347.4999999999709
 20
563.2990381059628
 30
0.0000000000000000
 11
346.7499999999709
 21
562.0000000002862
 31
0.0000000000000000
  0
LINE
  5
3BD
100
AcDbEntity
  8
MAIN0
  6
CENTER
 62
3
100
AcDbLine
 10
352.9999999999710
 20
564.6702672813733
 30
0.0000000000000000
 11
352.9999999999710
 21
560.2386701241509
 31
0.0000000000000000
  0
LINE
  5
3BE
100
AcDbEntity
  8
MAIN0
  6
CENTER
 62
3
100
AcDbLine
 10
347.4999999999710
 20
564.6702672813733
 30
0.0000000000000000
 11
347.4999999999710
 21
560.2386701241509
 31
0.0000000000000000
  0
LINE
  5
3BF
100
AcDbEntity
  8
MAIN0
  6
CONTINUOUS
 62
3
100
AcDbLine
 10
342.7499999999709
 20
562.0000000002721
 30
0.0000000000000000
 11
341.9999999999709
 21
563.2990381059487
 31
0.0000000000000000
  0
LINE
  5
3C0
100
AcDbEntity
  8
MAIN0
  6
CONTINUOUS
 62
3
100
AcDbLine
 10
341.9999999999709
 20
563.2990381059487
 30
0.0000000000000000
 11
341.2499999999709
 21
562.0000000002721
 31
0.0000000000000000
  0
LINE
  5
3C1
100
AcDbEntity
  8
MAIN0
  6
CONTINUOUS
 62
3
100
AcDbLine
 10
337.2499999999709
 20
562.0000000002721
 30
0.0000000000000000
 11
336.4999999999709
 21
563.2990381059487
 31
0.0000000000000000
  0
LINE
  5
3C2
100
AcDbEntity
  8
MAIN0
  6
CONTINUOUS
 62
3
100
AcDbLine
 10
336.4999999999709
 20
563.2990381059486
 30
0.0000000000000000
 11
335.7499999999709
 21
562.0000000002721
 31
0.0000000000000000
  0
LINE
  5
3C3
100
AcDbEntity
  8
MAIN0
  6
CENTER
 62
3
100
AcDbLine
 10
341.9999999999710
 20
564.6702672813592
 30
0.0000000000000000
 11
341.9999999999710
 21
560.2386701241368
 31
0.0000000000000000
  0
LINE
  5
3C4
100
AcDbEntity
  8
MAIN0
  6
CENTER
 62
3
100
AcDbLine
 10
336.4999999999710
 20
564.6702672813592
 30
0.0000000000000000
 11
336.4999999999710
 21
560.2386701241368
 31
0.0000000000000000
  0
LINE
  5
3C5
100
AcDbEntity
  8
MAIN0
  6
CONTINUOUS
 62
3
100
AcDbLine
 10
331.7499999999709
 20
562.0000000002721
 30
0.0000000000000000
 11
330.9999999999709
 21
563.2990381059487
 31
0.0000000000000000
  0
LINE
  5
3C6
100
AcDbEntity
  8
MAIN0
  6
CONTINUOUS
 62
3
100
AcDbLine
 10
330.9999999999709
 20
563.2990381059486
 30
0.0000000000000000
 11
330.2499999999709
 21
562.0000000002721
 31
0.0000000000000000
  0
LINE
  5
3C7
100
AcDbEntity
  8
MAIN0
  6
CONTINUOUS
 62
3
100
AcDbLine
 10
326.2499999999709
 20
562.0000000002721
 30
0.0000000000000000
 11
325.4999999999709
 21
563.2990381059487
 31
0.0000000000000000
  0
LINE
  5
3C8
100
AcDbEntity
  8
MAIN0
  6
CONTINUOUS
 62
3
100
AcDbLine
 10
325.4999999999710
 20
563.2990381059487
 30
0.0000000000000000
 11
325.0000000000000
 21
562.4330127022147
 31
0.0000000000000000
  0
LINE
  5
3C9
100
AcDbEntity
  8
MAIN0
  6
CENTER
 62
3
100
AcDbLine
 10
330.9999999999710
 20
564.6702672813592
 30
0.0000000000000000
 11
330.9999999999710
 21
560.2386701241368
 31
0.0000000000000000
  0
LINE
  5
3CA
100
AcDbEntity
  8
MAIN0
  6
CENTER
 62
3
100
AcDbLine
 10
325.4999999999710
 20
564.6702672813592
 30
0.0000000000000000
 11
325.4999999999710
 21
560.2386701241368
 31
0.0000000000000000
  0
LINE
  5
3CB
100
AcDbEntity
  8
MAIN0
  6
CENTER
 62
3
100
AcDbLine
 10
340.4999999999710
 20
624.9982383622796
 30
0.0000000000000000
 11
340.4999999999710
 21
631.8262330558105
 31
0.0000000000000000
  0
LINE
  5
3CC
100
AcDbEntity
  8
MAIN0
  6
CONTINUOUS
 62
3
100
AcDbLine
 10
341.2499999999974
 20
629.0000000004189
 30
0.0000000000000000
 11
340.4999999999830
 21
627.7009618947154
 31
0.0000000000000000
  0
LINE
  5
3CD
100
AcDbEntity
  8
MAIN0
  6
CONTINUOUS
 62
3
100
AcDbLine
 10
340.4999999999708
 20
627.7009618947350
 30
0.0000000000000000
 11
339.7499999999679
 21
629.0000000004184
 31
0.0000000000000000
  0
LINE
  5
3CE
100
AcDbEntity
  8
MAIN0
  6
CONTINUOUS
 62
3
100
AcDbLine
 10
345.4999999999707
 20
627.7009618947890
 30
0.0000000000000000
 11
344.7499999999677
 21
629.0000000004725
 31
0.0000000000000000
  0
LINE
  5
3CF
100
AcDbEntity
  8
MAIN0
  6
CONTINUOUS
 62
3
100
AcDbLine
 10
346.2499999999972
 20
629.0000000004731
 30
0.0000000000000000
 11
345.4999999999828
 21
627.7009618947695
 31
0.0000000000000000
  0
LINE
  5
3D0
100
AcDbEntity
  8
MAIN0
  6
CENTER
 62
3
100
AcDbLine
 10
345.4999999999710
 20
624.9982383622796
 30
0.0000000000000000
 11
345.4999999999710
 21
631.8262330558105
 31
0.0000000000000000
  0
LINE
  5
3D1
100
AcDbEntity
  8
MAIN0
  6
CONTINUOUS
 62
3
100
AcDbLine
 10
346.2499999999971
 20
629.0000000002862
 30
0.0000000000000000
 11
350.4999999999710
 21
629.0000000002862
 31
0.0000000000000000
  0
LINE
  5
3D2
100
AcDbEntity
  8
MAIN0
  6
CONTINUOUS
 62
3
100
AcDbLine
 10
341.2499999999974
 20
629.0000000002862
 30
0.0000000000000000
 11
344.7499999999677
 21
629.0000000002862
 31
0.0000000000000000
  0
LINE
  5
3D3
100
AcDbEntity
  8
MAIN0
  6
CONTINUOUS
 62
3
100
AcDbLine
 10
328.2499999999710
 20
672.0000000000243
 30
0.0000000000000000
 11
327.4999999999773
 21
670.7009618943440
 31
0.0000000000000000
  0
LINE
  5
3D4
100
AcDbEntity
  8
MAIN0
  6
CONTINUOUS
 62
3
100
AcDbLine
 10
327.4999999999773
 20
670.7009618943440
 30
0.0000000000000000
 11
326.7499999999710
 21
672.0000000000171
 31
0.0000000000000000
  0
LINE
  5
3D5
100
AcDbEntity
  8
MAIN0
  6
CENTER
 62
3
100
AcDbLine
 10
327.4999999999710
 20
673.5732267296337
 30
0.0000000000000000
 11
327.4999999999710
 21
669.1416295724113
 31
0.0000000000000000
  0
LINE
  5
3D6
100
AcDbEntity
  8
MAIN0
  6
CONTINUOUS
 62
3
100
AcDbLine
 10
328.2499999999711
 20
672.0000000000244
 30
0.0000000000000000
 11
332.4999999999710
 21
672.0000000000348
 31
0.0000000000000000
  0
LINE
  5
3D7
100
AcDbEntity
  8
MAIN0
  6
CONTINUOUS
 62
3
100
AcDbLine
 10
325.0000000000001
 20
672.0000000000166
 30
0.0000000000000000
 11
326.7499999999688
 21
672.0000000000208
 31
0.0000000000000000
  0
POINT
  5
3D8
100
AcDbEntity
  8
MAIN0
  6
CONTINUOUS
 62
3
100
AcDbPoint
 10
333.9999999999710
 20
654.0000000000663
 30
0.0000000000000000
  0
POINT
  5
3D9
100
AcDbEntity
  8
MAIN0
  6
CONTINUOUS
 62
3
100
AcDbPoint
 10
351.9999999999709
 20
619.0000000002862
 30
0.0000000000000000
  0
LINE
  5
3DA
100
AcDbEntity
  8
MAIN0
  6
CONTINUOUS
 62
3
100
AcDbLine
 10
364.7499999999710
 20
562.0000000002862
 30
0.0000000000000000
 11
368.9999999999710
 21
562.0000000002862
 31
0.0000000000000000
  0
LINE
  5
3DB
100
AcDbEntity
  8
MAIN0
  6
CONTINUOUS
 62
3
100
AcDbLine
 10
359.2499999999710
 20
562.0000000002862
 30
0.0000000000000000
 11
363.2499999999710
 21
562.0000000002862
 31
0.0000000000000000
  0
LINE
  5
3DC
100
AcDbEntity
  8
MAIN0
  6
CONTINUOUS
 62
3
100
AcDbLine
 10
353.7499999999710
 20
562.0000000002862
 30
0.0000000000000000
 11
357.7499999999710
 21
562.0000000002862
 31
0.0000000000000000
  0
LINE
  5
3DD
100
AcDbEntity
  8
MAIN0
  6
CONTINUOUS
 62
3
100
AcDbLine
 10
348.2499999999710
 20
562.0000000002862
 30
0.0000000000000000
 11
352.2499999999710
 21
562.0000000002862
 31
0.0000000000000000
  0
LINE
  5
3DE
100
AcDbEntity
  8
MAIN0
  6
CONTINUOUS
 62
3
100
AcDbLine
 10
342.7499999999710
 20
562.0000000002862
 30
0.0000000000000000
 11
346.7499999999710
 21
562.0000000002862
 31
0.0000000000000000
  0
LINE
  5
3DF
100
AcDbEntity
  8
MAIN0
  6
CONTINUOUS
 62
3
100
AcDbLine
 10
337.2499999999710
 20
562.0000000002862
 30
0.0000000000000000
 11
341.2499999999710
 21
562.0000000002862
 31
0.0000000000000000
  0
LINE
  5
3E0
100
AcDbEntity
  8
MAIN0
  6
CONTINUOUS
 62
3
100
AcDbLine
 10
331.7499999999710
 20
562.0000000002862
 30
0.0000000000000000
 11
335.7499999999710
 21
562.0000000002862
 31
0.0000000000000000
  0
LINE
  5
3E1
100
AcDbEntity
  8
MAIN0
  6
CONTINUOUS
 62
3
100
AcDbLine
 10
326.2499999999710
 20
562.0000000002862
 30
0.0000000000000000
 11
330.2499999999710
 21
562.0000000002862
 31
0.0000000000000000
  0
LINE
  5
3E2
100
AcDbEntity
  8
MAIN0
  6
CONTINUOUS
 62
3
100
AcDbLine
 10
325.0000000000000
 20
662.3354913970335
 30
0.0000000000000000
 11
333.4999999999709
 21
662.3354913970335
 31
0.0000000000000000
  0
LINE
  5
3E3
100
AcDbEntity
  8
MAIN0
  6
CONTINUOUS
 62
3
100
AcDbLine
 10
325.0000000000000
 20
571.6645086040600
 30
0.0000000000000000
 11
369.9999999999710
 21
571.6645086040600
 31
0.0000000000000000
  0
LINE
  5
3E4
100
AcDbEntity
  8
MAIN0
  6
CONTINUOUS
 62
3
100
AcDbLine
 10
632.5000000001922
 20
572.6645086033213
 30
0.0000000000000000
 11
632.5000000002171
 21
661.3354913967038
 31
0.0000000000000000
  0
LINE
  5
3E5
100
AcDbEntity
  8
MAIN0
  6
CONTINUOUS
 62
3
100
AcDbLine
 10
667.5000000001921
 20
572.6645086037047
 30
0.0000000000000000
 11
667.5000000002171
 21
661.3354913962698
 31
0.0000000000000000
  0
ARC
  5
3E6
100
AcDbEntity
  8
MAIN0
  6
CONTINUOUS
 62
3
100
AcDbCircle
 10
649.9999999999999
 20
477.9999999999999
 30
0.0000000000000000
 40
84.00000000000000
100
AcDbArc
 50
84.87748389972066
 51
95.12251610027995
  0
LINE
  5
3E7
100
AcDbEntity
  8
MAIN0
  6
CONTINUOUS
 62
3
100
AcDbLine
 10
657.5000000007275
 20
561.6645086042405
 30
0.0000000000000000
 11
666.7928932190054
 21
570.9574018225183
 31
0.0000000000000000
  0
LINE
  5
3E8
100
AcDbEntity
  8
MAIN0
  6
CONTINUOUS
 62
3
100
AcDbLine
 10
642.4999999992710
 20
561.6645086042423
 30
0.0000000000000000
 11
633.2071067813785
 21
570.9574018221349
 31
0.0000000000000000
  0
ARC
  5
3E9
100
AcDbEntity
  8
MAIN0
  6
CONTINUOUS
 62
3
100
AcDbCircle
 10
650.0000000000009
 20
756.0000000000000
 30
0.0000000000000000
 40
84.00000000000000
100
AcDbArc
 50
264.8774838997196
 51
275.1225161002789
  0
LINE
  5
3EA
100
AcDbEntity
  8
MAIN0
  6
CONTINUOUS
 62
3
100
AcDbLine
 10
657.5000000007282
 20
672.3354913957595
 30
0.0000000000000000
 11
666.7928932190309
 21
663.0425981774565
 31
0.0000000000000000
  0
LINE
  5
3EB
100
AcDbEntity
  8
MAIN0
  6
CONTINUOUS
 62
3
100
AcDbLine
 10
642.4999999992716
 20
672.3354913957578
 30
0.0000000000000000
 11
633.2071067814039
 21
663.0425981778901
 31
0.0000000000000000
  0
ARC
  5
3EC
100
AcDbEntity
  8
MAIN0
  6
CONTINUOUS
 62
3
100
AcDbCircle
 10
650.0000000000009
 20
738.0000000000000
 30
0.0000000000000000
 40
84.00000000000000
100
AcDbArc
 50
257.9753008195839
 51
282.0246991807155
  0
ARC
  5
3ED
100
AcDbEntity
  8
MAIN0
  6
CONTINUOUS
 62
3
100
AcDbCircle
 10
650.0000000000008
 20
716.0000000000000
 30
0.0000000000000000
 40
84.00000000000000
100
AcDbArc
 50
257.9753008195796
 51
282.0246991807112
  0
ARC
  5
3EE
100
AcDbEntity
  8
MAIN0
  6
CONTINUOUS
 62
3
100
AcDbCircle
 10
650.0000000000008
 20
713.0000000000000
 30
0.0000000000000000
 40
84.00000000000000
100
AcDbArc
 50
257.9753008195791
 51
282.0246991807106
  0
ARC
  5
3EF
100
AcDbEntity
  8
MAIN0
  6
CONTINUOUS
 62
3
100
AcDbCircle
 10
650.0000000000007
 20
702.9315157141537
 30
0.0000000000000000
 40
84.00000000000000
100
AcDbArc
 50
257.9753008195770
 51
282.0246991807088
  0
ARC
  5
3F0
100
AcDbEntity
  8
MAIN0
  6
CONTINUOUS
 62
3
100
AcDbCircle
 10
650.0000000000007
 20
680.0000000000000
 30
0.0000000000000000
 40
84.00000000000000
100
AcDbArc
 50
257.9753008195727
 51
282.0246991807043
  0
ARC
  5
3F1
100
AcDbEntity
  8
MAIN0
  6
CONTINUOUS
 62
3
100
AcDbCircle
 10
650.0000000000006
 20
676.9999999990687
 30
0.0000000000000000
 40
84.00000000000000
100
AcDbArc
 50
257.9753008195721
 51
282.0246991807039
  0
LINE
  5
3F2
100
AcDbEntity
  8
MAIN0
  6
CONTINUOUS
 62
3
100
AcDbLine
 10
633.2071067813781
 20
570.9574018221349
 30
0.0000000000000000
 11
632.5000000001919
 21
572.6645086033215
 31
0.0000000000000000
  0
LINE
  5
3F3
100
AcDbEntity
  8
MAIN0
  6
CONTINUOUS
 62
3
100
AcDbLine
 10
666.7928932190055
 20
570.9574018225183
 30
0.0000000000000000
 11
667.5000000001922
 21
572.6645086037048
 31
0.0000000000000000
  0
LINE
  5
3F4
100
AcDbEntity
  8
MAIN0
  6
CONTINUOUS
 62
3
100
AcDbLine
 10
666.7928932190307
 20
663.0425981774565
 30
0.0000000000000000
 11
667.5000000002170
 21
661.3354913962698
 31
0.0000000000000000
  0
LINE
  5
3F5
100
AcDbEntity
  8
MAIN0
  6
CONTINUOUS
 62
3
100
AcDbLine
 10
633.2071067814040
 20
663.0425981778903
 30
0.0000000000000000
 11
632.5000000002171
 21
661.3354913967038
 31
0.0000000000000000
  0
POINT
  5
3F6
100
AcDbEntity
  8
MAIN0
  6
CONTINUOUS
 62
3
100
AcDbPoint
 10
632.5000000001918
 20
571.6645086033215
 30
0.0000000000000000
  0
POINT
  5
3F7
100
AcDbEntity
  8
MAIN0
  6
CONTINUOUS
 62
3
100
AcDbPoint
 10
632.5000000002174
 20
662.3354913967037
 30
0.0000000000000000
  0
POINT
  5
3F8
100
AcDbEntity
  8
MAIN0
  6
CONTINUOUS
 62
3
100
AcDbPoint
 10
650.0000000000002
 20
562.0000000000000
 30
0.0000000000000000
  0
LINE
  5
3F9
100
AcDbEntity
  8
MAIN0
  6
CONTINUOUS
 62
3
100
AcDbLine
 10
577.3354913972265
 20
517.5000000001921
 30
0.0000000000000000
 11
488.6645086046614
 21
517.5000000002167
 31
0.0000000000000000
  0
LINE
  5
3FA
100
AcDbEntity
  8
MAIN0
  6
CONTINUOUS
 62
3
100
AcDbLine
 10
588.3354913966909
 20
507.5000000007274
 30
0.0000000000000000
 11
579.0425981784132
 21
516.7928932190052
 31
0.0000000000000000
  0
LINE
  5
3FB
100
AcDbEntity
  8
MAIN0
  6
CONTINUOUS
 62
3
100
AcDbLine
 10
477.6645086051718
 20
507.5000000007274
 30
0.0000000000000000
 11
486.9574018234748
 21
516.7928932190304
 31
0.0000000000000000
  0
LINE
  5
3FC
100
AcDbEntity
  8
MAIN0
  6
CONTINUOUS
 62
3
100
AcDbLine
 10
579.0425981784131
 20
516.7928932190052
 30
0.0000000000000000
 11
577.3354913972265
 21
517.5000000001921
 31
0.0000000000000000
  0
LINE
  5
3FD
100
AcDbEntity
  8
MAIN0
  6
CONTINUOUS
 62
3
100
AcDbLine
 10
486.9574018234748
 20
516.7928932190304
 30
0.0000000000000000
 11
488.6645086046613
 21
517.5000000002167
 31
0.0000000000000000
  0
ARC
  5
3FE
100
AcDbEntity
  8
MAIN0
  6
CONTINUOUS
 62
3
100
AcDbCircle
 10
672.0000000009314
 20
500.0000000000001
 30
0.0000000000000000
 40
84.00000000000000
100
AcDbArc
 50
174.8774838997209
 51
185.1225161002788
  0
ARC
  5
3FF
100
AcDbEntity
  8
MAIN0
  6
CONTINUOUS
 62
3
100
AcDbCircle
 10
473.0000000018628
 20
500.0000000000000
 30
0.0000000000000000
 40
84.00000000000000
100
AcDbArc
 50
347.9753008192956
 51
372.0246991807040
  0
ARC
  5
400
100
AcDbEntity
  8
MAIN0
  6
CONTINUOUS
 62
3
100
AcDbCircle
 10
470.0000000009314
 20
500.0000000000001
 30
0.0000000000000000
 40
84.00000000000000
100
AcDbArc
 50
347.9753008192951
 51
372.0246991807045
  0
ARC
  5
401
100
AcDbEntity
  8
MAIN0
  6
CONTINUOUS
 62
3
100
AcDbCircle
 10
447.0684842867778
 20
500.0000000000001
 30
0.0000000000000000
 40
84.00000000000000
100
AcDbArc
 50
347.9753008192907
 51
372.0246991807090
  0
ARC
  5
402
100
AcDbEntity
  8
MAIN0
  6
CONTINUOUS
 62
3
100
AcDbCircle
 10
437.0000000009314
 20
500.0000000000001
 30
0.0000000000000000
 40
84.00000000000000
100
AcDbArc
 50
347.9753008192888
 51
372.0246991807109
  0
ARC
  5
403
100
AcDbEntity
  8
MAIN0
  6
CONTINUOUS
 62
3
100
AcDbCircle
 10
434.0000000009314
 20
500.0000000000001
 30
0.0000000000000000
 40
84.00000000000000
100
AcDbArc
 50
347.9753008192882
 51
372.0246991807115
  0
ARC
  5
404
100
AcDbEntity
  8
MAIN0
  6
CONTINUOUS
 62
3
100
AcDbCircle
 10
412.0000000009314
 20
500.0000000000001
 30
0.0000000000000000
 40
84.00000000000000
100
AcDbArc
 50
347.9753008192840
 51
372.0246991807157
  0
ARC
  5
405
100
AcDbEntity
  8
MAIN0
  6
CONTINUOUS
 62
3
100
AcDbCircle
 10
394.0000000009314
 20
500.0000000000001
 30
0.0000000000000000
 40
84.00000000000000
100
AcDbArc
 50
354.8774838997206
 51
365.1225161002791
  0
LINE
  5
406
100
AcDbEntity
  8
MAIN0
  6
CONTINUOUS
 62
3
100
AcDbLine
 10
722.6645086027736
 20
517.5000000001917
 30
0.0000000000000000
 11
811.3354913953388
 21
517.5000000002158
 31
0.0000000000000000
  0
LINE
  5
407
100
AcDbEntity
  8
MAIN0
  6
CONTINUOUS
 62
3
100
AcDbLine
 10
711.6645086033093
 20
507.5000000007271
 30
0.0000000000000000
 11
720.9574018215870
 21
516.7928932190048
 31
0.0000000000000000
  0
LINE
  5
408
100
AcDbEntity
  8
MAIN0
  6
CONTINUOUS
 62
3
100
AcDbLine
 10
822.3354913948283
 20
507.5000000007265
 30
0.0000000000000000
 11
813.0425981765254
 21
516.7928932190295
 31
0.0000000000000000
  0
LINE
  5
409
100
AcDbEntity
  8
MAIN0
  6
CONTINUOUS
 62
3
100
AcDbLine
 10
720.9574018215870
 20
516.7928932190049
 30
0.0000000000000000
 11
722.6645086027736
 21
517.5000000001917
 31
0.0000000000000000
  0
LINE
  5
40A
100
AcDbEntity
  8
MAIN0
  6
CONTINUOUS
 62
3
100
AcDbLine
 10
813.0425981765254
 20
516.7928932190293
 30
0.0000000000000000
 11
811.3354913953388
 21
517.5000000002157
 31
0.0000000000000000
  0
ARC
  5
40B
100
AcDbEntity
  8
MAIN0
  6
CONTINUOUS
 62
3
100
AcDbCircle
 10
627.9999999990686
 20
500.0000000000002
 30
0.0000000000000000
 40
84.00000000000000
100
AcDbArc
 50
354.8774838997209
 51
365.1225161002788
  0
ARC
  5
40C
100
AcDbEntity
  8
MAIN0
  6
CONTINUOUS
 62
3
100
AcDbCircle
 10
826.9999999981374
 20
499.9999999999990
 30
0.0000000000000000
 40
84.00000000000000
100
AcDbArc
 50
167.9753008192957
 51
192.0246991807040
  0
ARC
  5
40D
100
AcDbEntity
  8
MAIN0
  6
CONTINUOUS
 62
3
100
AcDbCircle
 10
829.9999999990687
 20
499.9999999999991
 30
0.0000000000000000
 40
84.00000000000000
100
AcDbArc
 50
167.9753008192951
 51
192.0246991807046
  0
ARC
  5
40E
100
AcDbEntity
  8
MAIN0
  6
CONTINUOUS
 62
3
100
AcDbCircle
 10
852.9315157132223
 20
499.9999999999990
 30
0.0000000000000000
 40
84.00000000000000
100
AcDbArc
 50
167.9753008192907
 51
192.0246991807090
  0
ARC
  5
40F
100
AcDbEntity
  8
MAIN0
  6
CONTINUOUS
 62
3
100
AcDbCircle
 10
862.9999999990687
 20
499.9999999999989
 30
0.0000000000000000
 40
84.00000000000000
100
AcDbArc
 50
167.9753008192888
 51
192.0246991807109
  0
ARC
  5
410
100
AcDbEntity
  8
MAIN0
  6
CONTINUOUS
 62
3
100
AcDbCircle
 10
865.9999999990687
 20
499.9999999999989
 30
0.0000000000000000
 40
84.00000000000000
100
AcDbArc
 50
167.9753008192882
 51
192.0246991807115
  0
ARC
  5
411
100
AcDbEntity
  8
MAIN0
  6
CONTINUOUS
 62
3
100
AcDbCircle
 10
887.9999999990687
 20
499.9999999999988
 30
0.0000000000000000
 40
84.00000000000000
100
AcDbArc
 50
167.9753008192839
 51
192.0246991807158
  0
ARC
  5
412
100
AcDbEntity
  8
MAIN0
  6
CONTINUOUS
 62
3
100
AcDbCircle
 10
905.9999999990687
 20
499.9999999999987
 30
0.0000000000000000
 40
84.00000000000000
100
AcDbArc
 50
174.8774838997206
 51
185.1225161002791
  0
POINT
  5
413
100
AcDbEntity
  8
MAIN0
  6
CONTINUOUS
 62
3
100
AcDbPoint
 10
325.0000000000000
 20
433.3250000000332
 30
0.0000000000000000
  0
POINT
  5
414
100
AcDbEntity
  8
MAIN0
  6
CONTINUOUS
 62
3
100
AcDbPoint
 10
311.0000000000000
 20
433.3250000000332
 30
0.0000000000000000
  0
LINE
  5
415
100
AcDbEntity
  8
MAIN0
  6
HIDDEN
 62
3
100
AcDbLine
 10
311.0000000000000
 20
423.3249999997272
 30
0.0000000000000000
 11
311.0000000000000
 21
443.3250000000332
 31
0.0000000000000000
  0
LINE
  5
416
100
AcDbEntity
  8
MAIN0
  6
HIDDEN
 62
3
100
AcDbLine
 10
311.0000000000000
 20
443.3250000000332
 30
0.0000000000000000
 11
324.4000000000000
 21
443.3250000000332
 31
0.0000000000000000
  0
LINE
  5
417
100
AcDbEntity
  8
MAIN0
  6
HIDDEN
 62
3
100
AcDbLine
 10
324.4000000000000
 20
443.3250000000332
 30
0.0000000000000000
 11
325.0000000000000
 21
443.9250000000332
 31
0.0000000000000000
  0
LINE
  5
418
100
AcDbEntity
  8
MAIN0
  6
CONTINUOUS
 62
3
100
AcDbLine
 10
235.6000000000000
 20
426.5749999997568
 30
0.0000000000000000
 11
235.0000000000000
 21
425.9749999997567
 31
0.0000000000000000
  0
POINT
  5
419
100
AcDbEntity
  8
MAIN0
  6
CONTINUOUS
 62
3
100
AcDbPoint
 10
810.0000000000000
 20
655.0000000000000
 30
0.0000000000000000
  0
LINE
  5
41A
100
AcDbEntity
  8
MAIN0
  6
CONTINUOUS
 62
3
100
AcDbLine
 10
816.0000000000000
 20
648.7000000000001
 30
0.0000000000000000
 11
804.0000000000000
 21
648.7000000000001
 31
0.0000000000000000
  0
LINE
  5
41B
100
AcDbEntity
  8
MAIN0
  6
CONTINUOUS
 62
3
100
AcDbLine
 10
815.9999999999999
 20
648.7000000000001
 30
0.0000000000000000
 11
809.9999999999999
 21
645.2358983848623
 31
0.0000000000000000
  0
LINE
  5
41C
100
AcDbEntity
  8
MAIN0
  6
CONTINUOUS
 62
3
100
AcDbLine
 10
810.0000000000000
 20
645.2358983848623
 30
0.0000000000000000
 11
803.9999999999999
 21
648.7000000000001
 31
0.0000000000000000
  0
MTEXT
  5
41D
100
AcDbEntity
  8
MAIN0
  6
CONTINUOUS
 62
3
100
AcDbMText
 10
304.0000000000021
 20
102.2000664759058
 30
0.0000000000000000
 40
6.199999809265137
 41
0.0000000000000000
 71
     1
 72
     1
  1
{\H0.94x;{許容最高回転速度　}}
 11
1.000000000000000
 21
0.0000000000000000
 31
0.0000000000000000
  7
KNJYOKO
  0
LINE
  5
41E
100
AcDbEntity
  8
MAIN0
  6
HIDDEN
 62
3
100
AcDbLine
 10
311.0000000000000
 20
424.3250000000332
 30
0.0000000000000000
 11
321.8000000000000
 21
424.3250000000332
 31
0.0000000000000000
  0
LINE
  5
41F
100
AcDbEntity
  8
MAIN0
  6
HIDDEN
 62
3
100
AcDbLine
 10
321.8000000000000
 20
424.3250000000332
 30
0.0000000000000000
 11
322.9999999999999
 21
426.4034609691158
 31
0.0000000000000000
  0
LINE
  5
420
100
AcDbEntity
  8
MAIN0
  6
HIDDEN
 62
3
100
AcDbLine
 10
323.0000000000000
 20
426.4034609691158
 30
0.0000000000000000
 11
323.0000000000000
 21
440.2465390309505
 31
0.0000000000000000
  0
LINE
  5
421
100
AcDbEntity
  8
MAIN0
  6
HIDDEN
 62
3
100
AcDbLine
 10
323.0000000000000
 20
440.2465390309505
 30
0.0000000000000000
 11
321.8000000000000
 21
442.3250000000332
 31
0.0000000000000000
  0
LINE
  5
422
100
AcDbEntity
  8
MAIN0
  6
HIDDEN
 62
3
100
AcDbLine
 10
321.8000000000000
 20
442.3250000000332
 30
0.0000000000000000
 11
311.0000000000000
 21
442.3250000000332
 31
0.0000000000000000
  0
LINE
  5
423
100
AcDbEntity
  8
MAIN0
  6
HIDDEN
 62
3
100
AcDbLine
 10
321.8000000000000
 20
424.3250000000332
 30
0.0000000000000000
 11
321.8000000000000
 21
442.3250000000332
 31
0.0000000000000000
  0
LINE
  5
424
100
AcDbEntity
  8
MAIN0
  6
HIDDEN
 62
3
100
AcDbLine
 10
311.0000000000000
 20
427.3250000000332
 30
0.0000000000000000
 11
216.0000000000000
 21
427.3250000000332
 31
0.0000000000000000
  0
LINE
  5
425
100
AcDbEntity
  8
MAIN0
  6
HIDDEN
 62
3
100
AcDbLine
 10
216.0000000000000
 20
427.3250000000332
 30
0.0000000000000000
 11
216.0000000000000
 21
439.3250000000332
 31
0.0000000000000000
  0
LINE
  5
426
100
AcDbEntity
  8
MAIN0
  6
HIDDEN
 62
3
100
AcDbLine
 10
216.0000000000000
 20
439.3250000000332
 30
0.0000000000000000
 11
311.0000000000000
 21
439.3250000000332
 31
0.0000000000000000
  0
LINE
  5
427
100
AcDbEntity
  8
MAIN0
  6
HIDDEN
 62
3
100
AcDbLine
 10
252.0000000000000
 20
428.2722155000332
 30
0.0000000000000000
 11
216.0000000000000
 21
428.2722155000332
 31
0.0000000000000000
  0
LINE
  5
428
100
AcDbEntity
  8
MAIN0
  6
HIDDEN
 62
3
100
AcDbLine
 10
252.0000000000000
 20
438.3777845000332
 30
0.0000000000000000
 11
216.0000000000000
 21
438.3777845000332
 31
0.0000000000000000
  0
LINE
  5
429
100
AcDbEntity
  8
MAIN0
  6
HIDDEN
 62
3
100
AcDbLine
 10
252.0000000000000
 20
427.3250000000332
 30
0.0000000000000000
 11
252.0000000000000
 21
439.3250000000332
 31
0.0000000000000000
  0
LINE
  5
42A
100
AcDbEntity
  8
MAIN0
  6
CONTINUOUS
 62
3
100
AcDbLine
 10
577.3354913972264
 20
482.4999999998082
 30
0.0000000000000000
 11
488.6645086046613
 21
482.4999999997842
 31
0.0000000000000000
  0
LINE
  5
42B
100
AcDbEntity
  8
MAIN0
  6
CONTINUOUS
 62
3
100
AcDbLine
 10
588.3354913966908
 20
492.4999999992728
 30
0.0000000000000000
 11
579.0425981784131
 21
483.2071067809951
 31
0.0000000000000000
  0
LINE
  5
42C
100
AcDbEntity
  8
MAIN0
  6
CONTINUOUS
 62
3
100
AcDbLine
 10
477.6645086051718
 20
492.4999999992734
 30
0.0000000000000000
 11
486.9574018234747
 21
483.2071067809704
 31
0.0000000000000000
  0
LINE
  5
42D
100
AcDbEntity
  8
MAIN0
  6
CONTINUOUS
 62
3
100
AcDbLine
 10
579.0425981784130
 20
483.2071067809951
 30
0.0000000000000000
 11
577.3354913972264
 21
482.4999999998082
 31
0.0000000000000000
  0
LINE
  5
42E
100
AcDbEntity
  8
MAIN0
  6
CONTINUOUS
 62
3
100
AcDbLine
 10
486.9574018234747
 20
483.2071067809704
 30
0.0000000000000000
 11
488.6645086046613
 21
482.4999999997842
 31
0.0000000000000000
  0
LINE
  5
42F
100
AcDbEntity
  8
MAIN0
  6
CONTINUOUS
 62
3
100
AcDbLine
 10
632.5000000001918
 20
427.3354913966787
 30
0.0000000000000000
 11
632.5000000002162
 21
338.6645086032962
 31
0.0000000000000000
  0
LINE
  5
430
100
AcDbEntity
  8
MAIN0
  6
CONTINUOUS
 62
3
100
AcDbLine
 10
667.5000000001918
 20
427.3354913962951
 30
0.0000000000000000
 11
667.5000000002162
 21
338.6645086037299
 31
0.0000000000000000
  0
ARC
  5
431
100
AcDbEntity
  8
MAIN0
  6
CONTINUOUS
 62
3
100
AcDbCircle
 10
650.0000000000000
 20
522.0000000000000
 30
0.0000000000000000
 40
84.00000000000000
100
AcDbArc
 50
264.8774838997197
 51
275.1225161002790
  0
LINE
  5
432
100
AcDbEntity
  8
MAIN0
  6
CONTINUOUS
 62
3
100
AcDbLine
 10
657.5000000007271
 20
438.3354913957593
 30
0.0000000000000000
 11
666.7928932190049
 21
429.0425981774816
 31
0.0000000000000000
  0
LINE
  5
433
100
AcDbEntity
  8
MAIN0
  6
CONTINUOUS
 62
3
100
AcDbLine
 10
642.4999999992707
 20
438.3354913957576
 30
0.0000000000000000
 11
633.2071067813781
 21
429.0425981778651
 31
0.0000000000000000
  0
ARC
  5
434
100
AcDbEntity
  8
MAIN0
  6
CONTINUOUS
 62
3
100
AcDbCircle
 10
649.9999999999994
 20
243.9999999999999
 30
0.0000000000000000
 40
84.00000000000000
100
AcDbArc
 50
84.87748389972076
 51
95.12251610028005
  0
LINE
  5
435
100
AcDbEntity
  8
MAIN0
  6
CONTINUOUS
 62
3
100
AcDbLine
 10
657.5000000007271
 20
327.6645086042403
 30
0.0000000000000000
 11
666.7928932190300
 21
336.9574018225433
 31
0.0000000000000000
  0
LINE
  5
436
100
AcDbEntity
  8
MAIN0
  6
CONTINUOUS
 62
3
100
AcDbLine
 10
642.4999999992706
 20
327.6645086042422
 30
0.0000000000000000
 11
633.2071067814030
 21
336.9574018221098
 31
0.0000000000000000
  0
ARC
  5
437
100
AcDbEntity
  8
MAIN0
  6
CONTINUOUS
 62
3
100
AcDbCircle
 10
649.9999999999996
 20
261.9999999999999
 30
0.0000000000000000
 40
84.00000000000000
100
AcDbArc
 50
77.97530081928420
 51
102.0246991804158
  0
ARC
  5
438
100
AcDbEntity
  8
MAIN0
  6
CONTINUOUS
 62
3
100
AcDbCircle
 10
649.9999999999996
 20
283.9999999999999
 30
0.0000000000000000
 40
84.00000000000000
100
AcDbArc
 50
77.97530081928846
 51
102.0246991804200
  0
ARC
  5
439
100
AcDbEntity
  8
MAIN0
  6
CONTINUOUS
 62
3
100
AcDbCircle
 10
649.9999999999996
 20
286.9999999999999
 30
0.0000000000000000
 40
84.00000000000000
100
AcDbArc
 50
77.97530081928909
 51
102.0246991804207
  0
ARC
  5
43A
100
AcDbEntity
  8
MAIN0
  6
CONTINUOUS
 62
3
100
AcDbCircle
 10
649.9999999999996
 20
297.0684842858463
 30
0.0000000000000000
 40
84.00000000000000
100
AcDbArc
 50
77.97530081929091
 51
102.0246991804227
  0
ARC
  5
43B
100
AcDbEntity
  8
MAIN0
  6
CONTINUOUS
 62
3
100
AcDbCircle
 10
649.9999999999997
 20
319.9999999999999
 30
0.0000000000000000
 40
84.00000000000000
100
AcDbArc
 50
77.97530081929538
 51
102.0246991804270
  0
ARC
  5
43C
100
AcDbEntity
  8
MAIN0
  6
CONTINUOUS
 62
3
100
AcDbCircle
 10
649.9999999999996
 20
323.0000000009313
 30
0.0000000000000000
 40
84.00000000000000
100
AcDbArc
 50
77.97530081929580
 51
102.0246991804276
  0
LINE
  5
43D
100
AcDbEntity
  8
MAIN0
  6
CONTINUOUS
 62
3
100
AcDbLine
 10
633.2071067813778
 20
429.0425981778652
 30
0.0000000000000000
 11
632.5000000001915
 21
427.3354913966786
 31
0.0000000000000000
  0
LINE
  5
43E
100
AcDbEntity
  8
MAIN0
  6
CONTINUOUS
 62
3
100
AcDbLine
 10
666.7928932190050
 20
429.0425981774815
 30
0.0000000000000000
 11
667.5000000001919
 21
427.3354913962950
 31
0.0000000000000000
  0
LINE
  5
43F
100
AcDbEntity
  8
MAIN0
  6
CONTINUOUS
 62
3
100
AcDbLine
 10
666.7928932190298
 20
336.9574018225433
 30
0.0000000000000000
 11
667.5000000002161
 21
338.6645086037299
 31
0.0000000000000000
  0
LINE
  5
440
100
AcDbEntity
  8
MAIN0
  6
CONTINUOUS
 62
3
100
AcDbLine
 10
633.2071067814030
 20
336.9574018221097
 30
0.0000000000000000
 11
632.5000000002162
 21
338.6645086032962
 31
0.0000000000000000
  0
POINT
  5
441
100
AcDbEntity
  8
MAIN0
  6
CONTINUOUS
 62
3
100
AcDbPoint
 10
632.5000000001913
 20
428.3354913966786
 30
0.0000000000000000
  0
POINT
  5
442
100
AcDbEntity
  8
MAIN0
  6
CONTINUOUS
 62
3
100
AcDbPoint
 10
632.5000000002165
 20
337.6645086032963
 30
0.0000000000000000
  0
POINT
  5
443
100
AcDbEntity
  8
MAIN0
  6
CONTINUOUS
 62
3
100
AcDbPoint
 10
649.9999999999999
 20
437.9999999999999
 30
0.0000000000000000
  0
LINE
  5
444
100
AcDbEntity
  8
MAIN0
  6
CONTINUOUS
 62
3
100
AcDbLine
 10
722.6645086027735
 20
482.4999999998078
 30
0.0000000000000000
 11
811.3354913953386
 21
482.4999999997833
 31
0.0000000000000000
  0
LINE
  5
445
100
AcDbEntity
  8
MAIN0
  6
CONTINUOUS
 62
3
100
AcDbLine
 10
711.6645086033092
 20
492.4999999992724
 30
0.0000000000000000
 11
720.9574018215869
 21
483.2071067809947
 31
0.0000000000000000
  0
LINE
  5
446
100
AcDbEntity
  8
MAIN0
  6
CONTINUOUS
 62
3
100
AcDbLine
 10
822.3354913948283
 20
492.4999999992725
 30
0.0000000000000000
 11
813.0425981765253
 21
483.2071067809695
 31
0.0000000000000000
  0
LINE
  5
447
100
AcDbEntity
  8
MAIN0
  6
CONTINUOUS
 62
3
100
AcDbLine
 10
720.9574018215869
 20
483.2071067809946
 30
0.0000000000000000
 11
722.6645086027735
 21
482.4999999998078
 31
0.0000000000000000
  0
LINE
  5
448
100
AcDbEntity
  8
MAIN0
  6
CONTINUOUS
 62
3
100
AcDbLine
 10
813.0425981765252
 20
483.2071067809696
 30
0.0000000000000000
 11
811.3354913953388
 21
482.4999999997833
 31
0.0000000000000000
  0
POINT
  5
449
100
AcDbEntity
  8
MAIN0
  6
CONTINUOUS
 62
3
100
AcDbPoint
 10
287.9999999999877
 20
653.0000000000000
 30
0.0000000000000000
  0
LINE
  5
44A
100
AcDbEntity
  8
MAIN0
  6
HIDDEN
 62
3
100
AcDbLine
 10
293.9999999999877
 20
653.0000000000059
 30
0.0000000000000000
 11
293.9999999999877
 21
643.9999999999999
 31
0.0000000000000000
  0
LINE
  5
44B
100
AcDbEntity
  8
MAIN0
  6
HIDDEN
 62
3
100
AcDbLine
 10
293.9999999999877
 20
643.9999999999999
 30
0.0000000000000000
 11
281.9999999999877
 21
643.9999999999999
 31
0.0000000000000000
  0
LINE
  5
44C
100
AcDbEntity
  8
MAIN0
  6
HIDDEN
 62
3
100
AcDbLine
 10
281.9999999999877
 20
643.9999999999999
 30
0.0000000000000000
 11
281.9999999999877
 21
652.9999999999942
 31
0.0000000000000000
  0
LINE
  5
44D
100
AcDbEntity
  8
MAIN0
  6
HIDDEN
 62
3
100
AcDbLine
 10
293.9999999999878
 20
644.0000000000000
 30
0.0000000000000000
 11
287.9999999999878
 21
640.5358983848623
 31
0.0000000000000000
  0
LINE
  5
44E
100
AcDbEntity
  8
MAIN0
  6
HIDDEN
 62
3
100
AcDbLine
 10
287.9999999999877
 20
640.5358983848621
 30
0.0000000000000000
 11
281.9999999999877
 21
643.9999999999999
 31
0.0000000000000000
  0
INSERT
  5
45E
100
AcDbEntity
  8
MAIN0
  6
CONTINUOUS
 62
3
100
AcDbBlockReference
  2
M4
 10
0.0000000000000000
 20
0.0000000000000000
 30
0.0000000000000000
 50
0.0000000000000000
  0
MTEXT
  5
45F
100
AcDbEntity
  8
MAIN0
  6
CONTINUOUS
 62
3
100
AcDbMText
 10
570.0000000000000
 20
116.1999998092645
 30
0.0000000000000000
 40
6.199999809265137
 41
0.0000000000000000
 71
     1
 72
     1
  1
{\H0.94x;{チャック取付ボルトは、ミリネジを付属しています。}}
 11
1.000000000000000
 21
0.0000000000000000
 31
0.0000000000000000
  7
KNJYOKO
  0
INSERT
  5
46E
100
AcDbEntity
  8
MAIN0
  6
CONTINUOUS
 62
3
100
AcDbBlockReference
  2
M5
 10
0.0000000000000000
 20
0.0000000000000000
 30
0.0000000000000000
 50
0.0000000000000000
  0
LINE
  5
46F
100
AcDbEntity
  8
MAIN0
  6
CONTINUOUS
 62
3
100
AcDbLine
 10
600.6666666665478
 20
100.0000000000000
 30
0.0000000000000000
 11
600.6666666665478
 21
82.00000000000000
 31
0.0000000000000000
  0
MTEXT
  5
470
100
AcDbEntity
  8
MAIN0
  6
CONTINUOUS
 62
3
100
AcDbMText
 10
296.8894337575673
 20
46.06790670536100
 30
0.0000000000000000
 40
6.199999809265137
 41
0.0000000000000000
 71
     1
 72
     1
  1
{\H0.91x;{ABOVE SPECS: AT MAX. HANDLE TORQUE． }}
 11
1.000000000000000
 21
0.0000000000000000
 31
0.0000000000000000
  7
KNJYOKO
  0
MTEXT
  5
471
100
AcDbEntity
  8
MAIN0
  6
CONTINUOUS
 62
3
100
AcDbMText
 10
570.0000000001485
 20
65.99999999999943
 30
0.0000000000000000
 40
6.000000000000000
 41
0.0000000000000000
 71
     1
 72
     1
  1
{\H0.62x;{THE CHUCK MOUNTING BOLTS ATTACHED ARE METRIC SCREWS.}}
 11
1.000000000000000
 21
0.0000000000000000
 31
0.0000000000000000
  7
STANDARD
  0
POINT
  5
472
100
AcDbEntity
  8
MAIN0
  6
CONTINUOUS
 62
3
100
AcDbPoint
 10
398.0000000000021
 20
67.00006666659658
 30
0.0000000000000000
  0
MTEXT
  5
473
100
AcDbEntity
  8
MAIN0
  6
CONTINUOUS
 62
3
100
AcDbMText
 10
303.8426152284205
 20
76.08268491442084
 30
0.0000000000000000
 40
4.000000000000000
 41
0.0000000000000000
 71
     1
 72
     1
  1
{\H0.94x;{MOMENT OF INERTIA}}
 11
1.000000000000000
 21
0.0000000000000000
 31
0.0000000000000000
  7
STANDARD
  0
MTEXT
  5
474
100
AcDbEntity
  8
MAIN0
  6
CONTINUOUS
 62
3
100
AcDbMText
 10
570.0000000000000
 20
126.1999998092645
 30
0.0000000000000000
 40
6.199999809265137
 41
0.0000000000000000
 71
     1
 72
     1
  1
{\H0.94x;{バランスは本体外周にて５ｇ以内を目標とする}}
 11
1.000000000000000
 21
0.0000000000000000
 31
0.0000000000000000
  7
KNJYOKO
  0
MTEXT
  5
475
100
AcDbEntity
  8
MAIN0
  6
CONTINUOUS
 62
3
100
AcDbMText
 10
570.0000000001485
 20
75.99999999999943
 30
0.0000000000000000
 40
6.000000000000000
 41
0.0000000000000000
 71
     1
 72
     1
  1
{\H0.62x;{BALANCE SHOULD BE WITHIN 5g AT THE PERIPHERY OF THE BODY.}}
 11
1.000000000000000
 21
0.0000000000000000
 31
0.0000000000000000
  7
STANDARD
  0
MTEXT
  5
476
100
AcDbEntity
  8
MAIN0
  6
CONTINUOUS
 62
3
100
AcDbMText
 10
424.0000000000021
 20
103.6000318073844
 30
0.0000000000000000
 40
5.599998474121094
 41
0.0000000000000000
 71
     1
 72
     1
  1
{\H0.57x;{　ｍｉｎ}}
 11
1.000000000000000
 21
0.0000000000000000
 31
0.0000000000000000
  7
KNJYOKO
  0
MTEXT
  5
477
100
AcDbEntity
  8
MAIN0
  6
CONTINUOUS
 62
3
100
AcDbMText
 10
444.3093364966419
 20
104.9391209131740
 30
0.0000000000000000
 40
4.000000000000000
 41
0.0000000000000000
 71
     1
 72
     1
  1
{\H0.88x;{-1}}
 11
1.000000000000000
 21
0.0000000000000000
 31
0.0000000000000000
  7
STANDARD
  0
POINT
  5
478
100
AcDbEntity
  8
MAIN0
  6
CONTINUOUS
 62
3
100
AcDbPoint
 10
300.9307644257317
 20
50.00006666659067
 30
0.0000000000000000
  0
MTEXT
  5
479
100
AcDbEntity
  8
MAIN0
  6
CONTINUOUS
 62
3
100
AcDbMText
 10
300.9307644257317
 20
56.20006742953012
 30
0.0000000000000000
 40
6.200000762939453
 41
0.0000000000000000
 71
     1
 72
     1
  1
{\H0.95x;{○上記仕様は許容最大ハンドルトルク時の場合}}
 11
1.000000000000000
 21
0.0000000000000000
 31
0.0000000000000000
  7
KNJYOKO
  0
LINE
  5
47A
100
AcDbEntity
  8
MAIN0
  6
CONTINUOUS
 62
3
100
AcDbLine
 10
300.0000000000019
 20
155.0000333333295
 30
0.0000000000000000
 11
454.0000000000019
 21
155.0000333333753
 31
0.0000000000000000
  0
LINE
  5
47B
100
AcDbEntity
  8
MAIN0
  6
CONTINUOUS
 62
3
100
AcDbLine
 10
300.0000000000023
 20
135.0000333333163
 30
0.0000000000000000
 11
454.0000000000021
 21
135.0000333333526
 31
0.0000000000000000
  0
LINE
  5
47C
100
AcDbEntity
  8
MAIN0
  6
CONTINUOUS
 62
3
100
AcDbLine
 10
300.0000000000018
 20
110.0000333333104
 30
0.0000000000000000
 11
454.0000000000018
 21
110.0000333333429
 31
0.0000000000000000
  0
LINE
  5
47D
100
AcDbEntity
  8
MAIN0
  6
CONTINUOUS
 62
3
100
AcDbLine
 10
300.0000000000021
 20
94.00006666663990
 30
0.0000000000000000
 11
454.0000000000022
 21
94.00006666666945
 31
0.0000000000000000
  0
LINE
  5
47E
100
AcDbEntity
  8
MAIN0
  6
CONTINUOUS
 62
3
100
AcDbLine
 10
300.0000000000019
 20
80.00006666663586
 30
0.0000000000000000
 11
454.0000000000021
 21
80.00006666666269
 31
0.0000000000000000
  0
LINE
  5
47F
100
AcDbEntity
  8
MAIN0
  6
CONTINUOUS
 62
3
100
AcDbLine
 10
300.0000000000022
 20
60.00006666659010
 30
0.0000000000000000
 11
454.0000000000022
 21
60.00006666659010
 31
0.0000000000000000
  0
LINE
  5
480
100
AcDbEntity
  8
MAIN0
  6
CONTINUOUS
 62
3
100
AcDbLine
 10
300.0000000000021
 20
60.00006666659010
 30
0.0000000000000000
 11
300.0000000000021
 21
175.0000000000000
 31
0.0000000000000000
  0
LINE
  5
481
100
AcDbEntity
  8
MAIN0
  6
CONTINUOUS
 62
3
100
AcDbLine
 10
394.0000000000021
 20
60.00006666659010
 30
0.0000000000000000
 11
394.0000000000021
 21
155.0000333333577
 31
0.0000000000000000
  0
LINE
  5
482
100
AcDbEntity
  8
MAIN0
  6
CONTINUOUS
 62
3
100
AcDbLine
 10
454.0000000000021
 20
60.00006666659021
 30
0.0000000000000000
 11
454.0000000000021
 21
175.0000000000485
 31
0.0000000000000000
  0
POINT
  5
483
100
AcDbEntity
  8
MAIN0
  6
CONTINUOUS
 62
3
100
AcDbPoint
 10
404.0000000000021
 20
137.0000333332636
 30
0.0000000000000000
  0
POINT
  5
484
100
AcDbEntity
  8
MAIN0
  6
CONTINUOUS
 62
3
100
AcDbPoint
 10
404.0000000000021
 20
114.5000333332633
 30
0.0000000000000000
  0
POINT
  5
485
100
AcDbEntity
  8
MAIN0
  6
CONTINUOUS
 62
3
100
AcDbPoint
 10
398.0000000000021
 20
146.0000333332636
 30
0.0000000000000000
  0
POINT
  5
486
100
AcDbEntity
  8
MAIN0
  6
CONTINUOUS
 62
3
100
AcDbPoint
 10
398.0000000000021
 20
123.5000333332633
 30
0.0000000000000000
  0
POINT
  5
487
100
AcDbEntity
  8
MAIN0
  6
CONTINUOUS
 62
3
100
AcDbPoint
 10
398.0000000000021
 20
100.0000333332633
 30
0.0000000000000000
  0
POINT
  5
488
100
AcDbEntity
  8
MAIN0
  6
CONTINUOUS
 62
3
100
AcDbPoint
 10
398.0000000000021
 20
84.00006666659658
 30
0.0000000000000000
  0
POINT
  5
489
100
AcDbEntity
  8
MAIN0
  6
CONTINUOUS
 62
3
100
AcDbPoint
 10
398.0000000000021
 20
71.00006666659658
 30
0.0000000000000000
  0
POINT
  5
48A
100
AcDbEntity
  8
MAIN0
  6
CONTINUOUS
 62
3
100
AcDbPoint
 10
404.0000000000021
 20
62.00006666659658
 30
0.0000000000000000
  0
MTEXT
  5
48B
100
AcDbEntity
  8
MAIN0
  6
CONTINUOUS
 62
3
100
AcDbMText
 10
304.0000000000021
 20
143.2000340962567
 30
0.0000000000000000
 40
6.200000762939453
 41
0.0000000000000000
 71
     1
 72
     1
  1
{\H0.94x;{許容最大ハンドルトルク}}
 11
1.000000000000000
 21
0.0000000000000000
 31
0.0000000000000000
  7
KNJYOKO
  0
MTEXT
  5
48C
100
AcDbEntity
  8
MAIN0
  6
CONTINUOUS
 62
3
100
AcDbMText
 10
304.0000000000021
 20
124.2000007629405
 30
0.0000000000000000
 40
6.200000762939453
 41
0.0000000000000000
 71
     1
 72
     1
  1
{\H0.94x;{最大静的把握力\P(ジョー1ヶの締付力)}}
 11
1.000000000000000
 21
0.0000000000000000
 31
0.0000000000000000
  7
KNJYOKO
  0
MTEXT
  5
48D
100
AcDbEntity
  8
MAIN0
  6
CONTINUOUS
 62
3
100
AcDbMText
 10
304.0000000000021
 20
87.60006742957614
 30
0.0000000000000000
 40
6.200000762939453
 41
0.0000000000000000
 71
     1
 72
     1
  1
{\H0.90x;{質量}}
 11
1.000000000000000
 21
0.0000000000000000
 31
0.0000000000000000
  7
KNJYOKO
  0
MTEXT
  5
48E
100
AcDbEntity
  8
MAIN0
  6
CONTINUOUS
 62
3
100
AcDbMText
 10
303.5737861678801
 20
69.34902987330588
 30
0.0000000000000000
 40
5.599999904632568
 41
0.0000000000000000
 71
     1
 72
     1
  1
{\H0.93x;{慣性モーメント}}
 11
1.000000000000000
 21
0.0000000000000000
 31
0.0000000000000000
  7
KNJYOKO
  0
POINT
  5
48F
100
AcDbEntity
  8
MAIN0
  6
CONTINUOUS
 62
3
100
AcDbPoint
 10
348.8767545940305
 20
156.4345699760620
 30
0.0000000000000000
  0
MTEXT
  5
490
100
AcDbEntity
  8
MAIN0
  6
CONTINUOUS
 62
3
100
AcDbMText
 10
348.8767545940305
 20
167.0345703575317
 30
0.0000000000000000
 40
10.60000038146973
 41
0.0000000000000000
 71
     1
 72
     1
  1
{\H0.93x;{仕　　　様}}
 11
1.000000000000000
 21
0.0000000000000000
 31
0.0000000000000000
  7
KNJYOKO
  0
MTEXT
  5
491
100
AcDbEntity
  8
MAIN0
  6
CONTINUOUS
 62
3
100
AcDbMText
 10
424.0000000000021
 20
149.6000318073847
 30
0.0000000000000000
 40
5.599998474121094
 41
0.0000000000000000
 71
     1
 72
     1
  1
{\H0.58x;{　　　Ｎ・ｍ}}
 11
1.000000000000000
 21
0.0000000000000000
 31
0.0000000000000000
  7
KNJYOKO
  0
MTEXT
  5
492
100
AcDbEntity
  8
MAIN0
  6
CONTINUOUS
 62
3
100
AcDbMText
 10
398.0000000000021
 20
141.6000318073847
 30
0.0000000000000000
 40
5.599998474121094
 41
0.0000000000000000
 71
     1
 72
     1
  1
{\H0.48x;{（}}
 11
1.000000000000000
 21
0.0000000000000000
 31
0.0000000000000000
  7
KNJYOKO
  0
MTEXT
  5
493
100
AcDbEntity
  8
MAIN0
  6
CONTINUOUS
 62
3
100
AcDbMText
 10
422.0000000000021
 20
141.6000318073847
 30
0.0000000000000000
 40
5.599998474121094
 41
0.0000000000000000
 71
     1
 72
     1
  1
{\H0.58x;{　ｋｇｆ・ｍ）}}
 11
1.000000000000000
 21
0.0000000000000000
 31
0.0000000000000000
  7
KNJYOKO
  0
MTEXT
  5
494
100
AcDbEntity
  8
MAIN0
  6
CONTINUOUS
 62
3
100
AcDbMText
 10
424.0000000000021
 20
87.60006514071768
 30
0.0000000000000000
 40
5.599998474121094
 41
0.0000000000000000
 71
     1
 72
     1
  1
{\H0.58x;{　　　　ｋｇ}}
 11
1.000000000000000
 21
0.0000000000000000
 31
0.0000000000000000
  7
KNJYOKO
  0
MTEXT
  5
495
100
AcDbEntity
  8
MAIN0
  6
CONTINUOUS
 62
3
100
AcDbMText
 10
426.3321455819997
 20
67.14208968918013
 30
0.0000000000000000
 40
5.599998474121094
 41
0.0000000000000000
 71
     7
 72
     1
  1
{　kg・m}
 11
1.000000000000000
 21
0.0000000000000000
 31
0.0000000000000000
  7
KNJYOKO
  0
MTEXT
  5
496
100
AcDbEntity
  8
MAIN0
  6
CONTINUOUS
 62
3
100
AcDbMText
 10
445.9321450097951
 20
69.94208892624067
 30
0.0000000000000000
 40
2.799999237060547
 41
0.0000000000000000
 71
     7
 72
     1
  1
{2}
 11
1.000000000000000
 21
0.0000000000000000
 31
0.0000000000000000
  7
STANDARD
  0
MTEXT
  5
497
100
AcDbEntity
  8
MAIN0
  6
CONTINUOUS
 62
3
100
AcDbMText
 10
424.0000000000021
 20
127.1000318073844
 30
0.0000000000000000
 40
5.599998474121094
 41
0.0000000000000000
 71
     1
 72
     1
  1
{\H0.58x;{　　　　ｋＮ}}
 11
1.000000000000000
 21
0.0000000000000000
 31
0.0000000000000000
  7
KNJYOKO
  0
MTEXT
  5
498
100
AcDbEntity
  8
MAIN0
  6
CONTINUOUS
 62
3
100
AcDbMText
 10
398.0000000000021
 20
119.1000318073844
 30
0.0000000000000000
 40
5.599998474121094
 41
0.0000000000000000
 71
     1
 72
     1
  1
{\H0.48x;{（}}
 11
1.000000000000000
 21
0.0000000000000000
 31
0.0000000000000000
  7
KNJYOKO
  0
MTEXT
  5
499
100
AcDbEntity
  8
MAIN0
  6
CONTINUOUS
 62
3
100
AcDbMText
 10
422.0000000000021
 20
119.1000318073844
 30
0.0000000000000000
 40
5.599998474121094
 41
0.0000000000000000
 71
     1
 72
     1
  1
{\H0.58x;{　　　ｋｇｆ）}}
 11
1.000000000000000
 21
0.0000000000000000
 31
0.0000000000000000
  7
KNJYOKO
  0
MTEXT
  5
49A
100
AcDbEntity
  8
MAIN0
  6
CONTINUOUS
 62
3
100
AcDbMText
 10
398.0000000000021
 20
106.2000331425285
 30
0.0000000000000000
 40
6.199999809265137
 41
0.0000000000000000
 71
     1
 72
     1
  1
{\H0.91x;{2000}}
 11
1.000000000000000
 21
0.0000000000000000
 31
0.0000000000000000
  7
STANDARD
  0
LINE
  5
49B
100
AcDbEntity
  8
MAIN0
  6
CONTINUOUS
 62
3
100
AcDbLine
 10
299.9999999999999
 20
175.0000000000000
 30
0.0000000000000000
 11
454.0000000000000
 21
175.0000000000485
 31
0.0000000000000000
  0
MTEXT
  5
49C
100
AcDbEntity
  8
MAIN0
  6
CONTINUOUS
 62
3
100
AcDbMText
 10
340.7539876342123
 20
173.2157628410041
 30
0.0000000000000000
 40
6.199999809265137
 41
0.0000000000000000
 71
     1
 72
     1
  1
{\H0.93x;{SPECIFICATIONS}}
 11
1.000000000000000
 21
0.0000000000000000
 31
0.0000000000000000
  7
STANDARD
  0
MTEXT
  5
49D
100
AcDbEntity
  8
MAIN0
  6
CONTINUOUS
 62
3
100
AcDbMText
 10
304.0000000000021
 20
153.0000333333172
 30
0.0000000000000000
 40
4.000000000000000
 41
0.0000000000000000
 71
     1
 72
     1
  1
{\H0.94x;{MAX.PERMISSIBLE\P      HANDLE TORQUE}}
 11
1.000000000000000
 21
0.0000000000000000
 31
0.0000000000000000
  7
STANDARD
  0
MTEXT
  5
49E
100
AcDbEntity
  8
MAIN0
  6
CONTINUOUS
 62
3
100
AcDbMText
 10
304.0000000000021
 20
134.0000333333344
 30
0.0000000000000000
 40
4.000000000000000
 41
0.0000000000000000
 71
     1
 72
     1
  1
{\H0.94x;{MAX STATIC GRIPPING FORCE\P(GRIPPING FORCE PER JAW)}}
 11
1.000000000000000
 21
0.0000000000000000
 31
0.0000000000000000
  7
STANDARD
  0
MTEXT
  5
49F
100
AcDbEntity
  8
MAIN0
  6
CONTINUOUS
 62
3
100
AcDbMText
 10
304.0000000000021
 20
107.3333999999741
 30
0.0000000000000000
 40
4.000000000000000
 41
0.0000000000000000
 71
     1
 72
     1
  1
{\H0.94x;{MAX PERMISSIBLE SPEED}}
 11
1.000000000000000
 21
0.0000000000000000
 31
0.0000000000000000
  7
STANDARD
  0
MTEXT
  5
4A0
100
AcDbEntity
  8
MAIN0
  6
CONTINUOUS
 62
3
100
AcDbMText
 10
304.0000000000020
 20
92.73339999997006
 30
0.0000000000000000
 40
4.000000000000000
 41
0.0000000000000000
 71
     1
 72
     1
  1
{\H0.91x;{MASS}}
 11
1.000000000000000
 21
0.0000000000000000
 31
0.0000000000000000
  7
STANDARD
  0
LINE
  5
4A1
100
AcDbEntity
  8
WAKU0
  6
CONTINUOUS
 62
3
100
AcDbLine
 10
824.0000000000000
 20
102.0000000000000
 30
0.0000000000000000
 11
1164.000000000000
 21
102.0000000000000
 31
0.0000000000000000
  0
LINE
  5
4A2
100
AcDbEntity
  8
WAKU0
  6
CONTINUOUS
 62
3
100
AcDbLine
 10
824.0000000000000
 20
102.0000000000000
 30
0.0000000000000000
 11
824.0000000000000
 21
24.00000000000000
 31
0.0000000000000000
  0
LINE
  5
4A3
100
AcDbEntity
  8
WAKU0
  6
CONTINUOUS
 62
3
100
AcDbLine
 10
968.0000000000000
 20
102.0000000000000
 30
0.0000000000000000
 11
968.0000000000000
 21
24.00000000000000
 31
0.0000000000000000
  0
LINE
  5
4A4
100
AcDbEntity
  8
WAKU0
  6
CONTINUOUS
 62
3
100
AcDbLine
 10
1008.000000000000
 20
102.0000000000000
 30
0.0000000000000000
 11
1008.000000000000
 21
24.00000000000000
 31
0.0000000000000000
  0
LINE
  5
4A5
100
AcDbEntity
  8
WAKU0
  6
CONTINUOUS
 62
3
100
AcDbLine
 10
1032.000000000000
 20
102.0000000000000
 30
0.0000000000000000
 11
1032.000000000000
 21
24.00000000000000
 31
0.0000000000000000
  0
LINE
  5
4A6
100
AcDbEntity
  8
WAKU0
  6
CONTINUOUS
 62
3
100
AcDbLine
 10
1032.000000000000
 20
74.00000000000000
 30
0.0000000000000000
 11
1164.000000000000
 21
74.00000000000000
 31
0.0000000000000000
  0
LINE
  5
4A7
100
AcDbEntity
  8
WAKU0
  6
CONTINUOUS
 62
3
100
AcDbLine
 10
1008.000000000000
 20
46.00000000000000
 30
0.0000000000000000
 11
1164.000000000000
 21
46.00000000000000
 31
0.0000000000000000
  0
LINE
  5
4A8
100
AcDbEntity
  8
WAKU0
  6
CONTINUOUS
 62
3
100
AcDbLine
 10
1094.000000000000
 20
102.0000000000000
 30
0.0000000000000000
 11
1094.000000000000
 21
88.00000000000000
 31
0.0000000000000000
  0
LINE
  5
4A9
100
AcDbEntity
  8
WAKU0
  6
CONTINUOUS
 62
3
100
AcDbLine
 10
1118.000000000000
 20
102.0000000000000
 30
0.0000000000000000
 11
1118.000000000000
 21
88.00000000000000
 31
0.0000000000000000
  0
LINE
  5
4AA
100
AcDbEntity
  8
WAKU0
  6
CONTINUOUS
 62
3
100
AcDbLine
 10
968.0000000000000
 20
63.00000000000000
 30
0.0000000000000000
 11
1008.000000000000
 21
63.00000000000000
 31
0.0000000000000000
  0
LINE
  5
4AB
100
AcDbEntity
  8
WAKU0
  6
CONTINUOUS
 62
3
100
AcDbLine
 10
1008.000000000000
 20
88.00000000000000
 30
0.0000000000000000
 11
1164.000000000000
 21
88.00000000000000
 31
0.0000000000000000
  0
LINE
  5
4AC
100
AcDbEntity
  8
WAKU0
  6
CONTINUOUS
 62
3
100
AcDbLine
 10
824.0000000000000
 20
74.00000000000000
 30
0.0000000000000000
 11
968.0000000000000
 21
74.00000000000000
 31
0.0000000000000000
  0
LINE
  5
4AD
100
AcDbEntity
  8
WAKU0
  6
CONTINUOUS
 62
3
100
AcDbLine
 10
824.0000000000000
 20
46.00000000000000
 30
0.0000000000000000
 11
968.0000000000000
 21
46.00000000000000
 31
0.0000000000000000
  0
LINE
  5
4AE
100
AcDbEntity
  8
WAKU0
  6
CONTINUOUS
 62
3
100
AcDbLine
 10
920.0000000000000
 20
74.00000000000000
 30
0.0000000000000000
 11
920.0000000000000
 21
24.00000000000000
 31
0.0000000000000000
  0
LINE
  5
4AF
100
AcDbEntity
  8
WAKU0
  6
CONTINUOUS
 62
3
100
AcDbLine
 10
872.0000000000000
 20
74.00000000000000
 30
0.0000000000000000
 11
872.0000000000000
 21
46.00000000000000
 31
0.0000000000000000
  0
LINE
  5
4B0
100
AcDbEntity
  8
WAKU0
  6
CONTINUOUS
 62
3
100
AcDbLine
 10
944.0000000000000
 20
52.00000000000000
 30
0.0000000000000000
 11
944.0000000000000
 21
46.00000000000000
 31
0.0000000000000000
  0
LINE
  5
4B1
100
AcDbEntity
  8
WAKU0
  6
CONTINUOUS
 62
3
100
AcDbLine
 10
896.0000000000000
 20
52.00000000000000
 30
0.0000000000000000
 11
896.0000000000000
 21
46.00000000000000
 31
0.0000000000000000
  0
LINE
  5
4B2
100
AcDbEntity
  8
WAKU0
  6
CONTINUOUS
 62
3
100
AcDbLine
 10
848.0000000000000
 20
52.00000000000000
 30
0.0000000000000000
 11
848.0000000000000
 21
46.00000000000000
 31
0.0000000000000000
  0
LINE
  5
4B3
100
AcDbEntity
  8
WAKU0
  6
CONTINUOUS
 62
3
100
AcDbLine
 10
860.0000000000000
 20
102.0000000000000
 30
0.0000000000000000
 11
860.0000000000000
 21
74.00000000000000
 31
0.0000000000000000
  0
LINE
  5
4B4
100
AcDbEntity
  8
WAKU0
  6
CONTINUOUS
 62
3
100
AcDbLine
 10
824.0000000000000
 20
90.00000000000000
 30
0.0000000000000000
 11
968.0000000000000
 21
90.00000000000000
 31
0.0000000000000000
  0
LINE
  5
4B5
100
AcDbEntity
  8
WAKU0
  6
HIDDEN
 62
3
100
AcDbLine
 10
1065.000000000000
 20
46.00000000000000
 30
0.0000000000000000
 11
1065.000000000000
 21
24.00000000000000
 31
0.0000000000000000
  0
LINE
  5
4B6
100
AcDbEntity
  8
WAKU0
  6
HIDDEN
 62
3
100
AcDbLine
 10
1089.800000000000
 20
46.00000000000000
 30
0.0000000000000000
 11
1089.800000000000
 21
24.00000000000000
 31
0.0000000000000000
  0
MTEXT
  5
4B7
100
AcDbEntity
  8
WAKU0
  6
CONTINUOUS
 62
3
100
AcDbMText
 10
1032.964000046253
 20
98.09999990463257
 30
0.0000000000000000
 40
6.199999809265137
 41
0.0000000000000000
 71
     1
 72
     1
  1
{\H0.93x;{IA6-350-0}}
 11
1.000000000000000
 21
0.0000000000000000
 31
0.0000000000000000
  7
STANDARD
  0
MTEXT
  5
4B8
100
AcDbEntity
  8
WAKU0
  6
CONTINUOUS
 62
3
100
AcDbMText
 10
1032.719999969006
 20
87.00000000000000
 30
0.0000000000000000
 40
6.000000000000000
 41
0.0000000000000000
 71
     1
 72
     1
  1
{\H0.59x;{四爪単動チャック　３５０\P４－ＪＡＷ　ＩＮＤＥＰＥＮＤＥＮＴ　ＣＨＵＣＫ　３５０}}
 11
1.000000000000000
 21
0.0000000000000000
 31
0.0000000000000000
  7
KNJYOKO
  0
MTEXT
  5
4B9
100
AcDbEntity
  8
WAKU0
  6
CONTINUOUS
 62
3
100
AcDbMText
 10
1032.800000011921
 20
68.46666653951009
 30
0.0000000000000000
 40
6.199999809265137
 41
0.0000000000000000
 71
     1
 72
     1
  1
{\H0.71x;{ＩＡ６－３５０－０　ガイケイ\PＩＡ６－３５０－０　ＯＵＴＳＩＤＥ　ＶＩＥＷ}}
 11
1.000000000000000
 21
0.0000000000000000
 31
0.0000000000000000
  7
KNJYOKO
  0
MTEXT
  5
4BA
100
AcDbEntity
  8
WAKU0
  6
CONTINUOUS
 62
3
100
AcDbMText
 10
980.0099997520447
 20
78.59999990463257
 30
0.0000000000000000
 40
6.199999809265137
 41
0.0000000000000000
 71
     1
 72
     1
  1
{\H0.90x;{1:2}}
 11
1.000000000000000
 21
0.0000000000000000
 31
0.0000000000000000
  7
STANDARD
  0
MTEXT
  5
4BB
100
AcDbEntity
  8
WAKU0
  6
CONTINUOUS
 62
3
100
AcDbMText
 10
1092.800000309944
 20
40.30000019073486
 30
0.0000000000000000
 40
10.60000038146973
 41
0.0000000000000000
 71
     1
 72
     1
  1
{\H0.90x;{6068}}
 11
1.000000000000000
 21
0.0000000000000000
 31
0.0000000000000000
  7
STANDARD
  0
MTEXT
  5
4BC
100
AcDbEntity
  8
WAKU0
  6
CONTINUOUS
 62
3
100
AcDbMText
 10
1068.600000166893
 20
40.30000019073486
 30
0.0000000000000000
 40
10.60000038146973
 41
0.0000000000000000
 71
     1
 72
     1
  1
{\H0.87x;{29}}
 11
1.000000000000000
 21
0.0000000000000000
 31
0.0000000000000000
  7
STANDARD
  0
MTEXT
  5
4BD
100
AcDbEntity
  8
WAKU0
  6
CONTINUOUS
 62
3
100
AcDbMText
 10
1035.000000238419
 20
40.30000019073486
 30
0.0000000000000000
 40
10.60000038146973
 41
0.0000000000000000
 71
     1
 72
     1
  1
{\H0.89x;{61T}}
 11
1.000000000000000
 21
0.0000000000000000
 31
0.0000000000000000
  7
STANDARD
  0
MTEXT
  5
4BE
100
AcDbEntity
  8
WAKU0
  6
CONTINUOUS
 62
3
100
AcDbMText
 10
1144.000000095367
 20
40.30000019073486
 30
0.0000000000000000
 40
10.60000038146973
 41
0.0000000000000000
 71
     1
 72
     1
  1
{\H0.81x;{1}}
 11
1.000000000000000
 21
0.0000000000000000
 31
0.0000000000000000
  7
STANDARD
  0
MTEXT
  5
4BF
100
AcDbEntity
  8
WAKU0
  6
CONTINUOUS
 62
3
100
AcDbMText
 10
1144.000000163913
 20
89.69999980926514
 30
0.0000000000000000
 40
10.60000038146973
 41
0.0000000000000000
 71
     7
 72
     1
  1
{\H0.81x;{ }}
 11
1.000000000000000
 21
0.0000000000000000
 31
0.0000000000000000
  7
STANDARD
  0
MTEXT
  5
4C0
100
AcDbEntity
  8
WAKU0
  6
CONTINUOUS
 62
3
100
AcDbMText
 10
922.7700005769730
 20
66.00000000000000
 30
0.0000000000000000
 40
6.000000000000000
 41
0.0000000000000000
 71
     7
 72
     1
  1
{\H0.93x;{DRAWN BY}}
 11
1.000000000000000
 21
0.0000000000000000
 31
0.0000000000000000
  7
STANDARD
  0
MTEXT
  5
4C1
100
AcDbEntity
  8
WAKU0
  6
CONTINUOUS
 62
3
100
AcDbMText
 10
882.4299995899200
 20
65.90000009536743
 30
0.0000000000000000
 40
6.199999809265137
 41
0.0000000000000000
 71
     7
 72
     1
  1
{\H0.92x;{CHIEF}}
 11
1.000000000000000
 21
0.0000000000000000
 31
0.0000000000000000
  7
STANDARD
  0
MTEXT
  5
4C2
100
AcDbEntity
  8
WAKU0
  6
CONTINUOUS
 62
3
100
AcDbMText
 10
828.8499994277954
 20
65.90000009536743
 30
0.0000000000000000
 40
6.199999809265137
 41
0.0000000000000000
 71
     7
 72
     1
  1
{\H0.92x;{MANAGER}}
 11
1.000000000000000
 21
0.0000000000000000
 31
0.0000000000000000
  7
STANDARD
  0
MTEXT
  5
4C3
100
AcDbEntity
  8
WAKU0
  6
CONTINUOUS
 62
3
100
AcDbMText
 10
826.1700004339218
 20
93.00000000000000
 30
0.0000000000000000
 40
6.000000000000000
 41
0.0000000000000000
 71
     7
 72
     1
  1
{\H0.92x;{CAREER}}
 11
1.000000000000000
 21
0.0000000000000000
 31
0.0000000000000000
  7
STANDARD
  0
MTEXT
  5
4C4
100
AcDbEntity
  8
WAKU0
  6
CONTINUOUS
 62
3
100
AcDbMText
 10
933.2199996709824
 20
37.90000009536743
 30
0.0000000000000000
 40
6.199999809265137
 41
0.0000000000000000
 71
     7
 72
     1
  1
{\H0.91x;{DATE}}
 11
1.000000000000000
 21
0.0000000000000000
 31
0.0000000000000000
  7
STANDARD
  0
MTEXT
  5
4C5
100
AcDbEntity
  8
WAKU0
  6
CONTINUOUS
 62
3
100
AcDbMText
 10
971.8000004291534
 20
53.00000000000000
 30
0.0000000000000000
 40
6.000000000000000
 41
0.0000000000000000
 71
     7
 72
     1
  1
{\H0.63x;{3RD ANGLE}}
 11
1.000000000000000
 21
0.0000000000000000
 31
0.0000000000000000
  7
STANDARD
  0
MTEXT
  5
4C6
100
AcDbEntity
  8
WAKU0
  6
CONTINUOUS
 62
3
100
AcDbMText
 10
974.4299995899200
 20
91.90000009536743
 30
0.0000000000000000
 40
6.199999809265137
 41
0.0000000000000000
 71
     7
 72
     1
  1
{\H0.92x;{SCALE}}
 11
1.000000000000000
 21
0.0000000000000000
 31
0.0000000000000000
  7
STANDARD
  0
MTEXT
  5
4C7
100
AcDbEntity
  8
WAKU0
  6
CONTINUOUS
 62
3
100
AcDbMText
 10
1155.400000095367
 20
92.00000000000000
 30
0.0000000000000000
 40
6.000000000000000
 41
0.0000000000000000
 71
     7
 72
     1
  1
{\H0.63x;{kg}}
 11
1.000000000000000
 21
0.0000000000000000
 31
0.0000000000000000
  7
STANDARD
  0
MTEXT
  5
4C8
100
AcDbEntity
  8
WAKU0
  6
CONTINUOUS
 62
3
100
AcDbMText
 10
1095.200000286102
 20
92.00000000000000
 30
0.0000000000000000
 40
6.000000000000000
 41
0.0000000000000000
 71
     7
 72
     1
  1
{\H0.63x;{WEIGHT}}
 11
1.000000000000000
 21
0.0000000000000000
 31
0.0000000000000000
  7
STANDARD
  0
MTEXT
  5
4C9
100
AcDbEntity
  8
WAKU0
  6
CONTINUOUS
 62
3
100
AcDbMText
 10
1012.009999752045
 20
36.26666673024496
 30
0.0000000000000000
 40
6.199999809265137
 41
0.0000000000000000
 71
     7
 72
     1
  1
{\H0.90x;{DRW\PNO.}}
 11
1.000000000000000
 21
0.0000000000000000
 31
0.0000000000000000
  7
STANDARD
  0
MTEXT
  5
4CA
100
AcDbEntity
  8
WAKU0
  6
CONTINUOUS
 62
3
100
AcDbMText
 10
1009.219999670982
 20
63.90000009536743
 30
0.0000000000000000
 40
6.199999809265137
 41
0.0000000000000000
 71
     7
 72
     1
  1
{\H0.91x;{NAME}}
 11
1.000000000000000
 21
0.0000000000000000
 31
0.0000000000000000
  7
STANDARD
  0
MTEXT
  5
4CB
100
AcDbEntity
  8
WAKU0
  6
CONTINUOUS
 62
3
100
AcDbMText
 10
1009.219999670982
 20
91.90000009536743
 30
0.0000000000000000
 40
6.199999809265137
 41
0.0000000000000000
 71
     7
 72
     1
  1
{\H0.91x;{TYPE}}
 11
1.000000000000000
 21
0.0000000000000000
 31
0.0000000000000000
  7
STANDARD
  0
LINE
  5
4CC
100
AcDbEntity
  8
WAKU0
  6
HIDDEN
 62
3
100
AcDbLine
 10
1158.319912948777
 20
27.69999980926514
 30
0.0000000000000000
 11
1137.880087241958
 21
27.69999980926514
 31
0.0000000000000000
  0
LINE
  5
4CD
100
AcDbEntity
  8
WAKU0
  6
HIDDEN
 62
3
100
AcDbLine
 10
1158.319912948777
 20
27.69999980926500
 30
0.0000000000000000
 11
1148.100000095370
 21
45.40140812029802
 31
0.0000000000000000
  0
LINE
  5
4CE
100
AcDbEntity
  8
WAKU0
  6
HIDDEN
 62
3
100
AcDbLine
 10
1148.100000095370
 20
45.40140812029803
 30
0.0000000000000000
 11
1137.880087241958
 21
27.69999980926497
 31
0.0000000000000000
  0
POINT
  5
4CF
100
AcDbEntity
  8
WAKU0
  6
CONTINUOUS
 62
3
100
AcDbPoint
 10
884.0000000000000
 20
102.0000000000000
 30
0.0000000000000000
  0
MTEXT
  5
4D0
100
AcDbEntity
  8
WAKU0
  6
CONTINUOUS
 62
3
100
AcDbMText
 10
838.0000019229746
 20
41.26943043396429
 30
0.0000000000000000
 40
6.280188083648682
 41
0.0000000000000000
 71
     1
 72
     1
  1
{\H0.83x;{Ｋｉｔａｇａｗａ\PＣｏｒｐｏｒａｔｉｏｎ}}
 11
1.000000000000000
 21
0.0000000000000000
 31
0.0000000000000000
  7
KNJYOKO
  0
INSERT
  5
520
100
AcDbEntity
  8
WAKU0
  6
CONTINUOUS
 62
3
100
AcDbBlockReference
  2
M6
 10
0.0000000000000000
 20
0.0000000000000000
 30
0.0000000000000000
 50
0.0000000000000000
  0
LINE
  5
521
100
AcDbEntity
  8
WAKU0
  6
CONTINUOUS
 62
3
100
AcDbLine
 10
1004.942775550760
 20
31.56082842525625
 30
0.0000000000000000
 11
1004.942775550760
 21
43.56082842525629
 31
0.0000000000000000
  0
LINE
  5
522
100
AcDbEntity
  8
WAKU0
  6
CONTINUOUS
 62
3
100
AcDbLine
 10
991.8673882456450
 20
34.56082842525622
 30
0.0000000000000000
 11
991.8673882456450
 21
40.56082842525649
 31
0.0000000000000000
  0
LINE
  5
523
100
AcDbEntity
  8
WAKU0
  6
CENTER
 62
12
100
AcDbLine
 10
970.8643611029991
 20
37.56082842525626
 30
0.0000000000000000
 11
1006.553157792939
 21
37.56082842525626
 31
0.0000000000000000
  0
LINE
  5
524
100
AcDbEntity
  8
WAKU0
  6
CENTER
 62
12
100
AcDbLine
 10
978.8949131715972
 20
29.11843325836897
 30
0.0000000000000000
 11
978.8949131715972
 21
45.79730204299887
 31
0.0000000000000000
  0
LINE
  5
525
100
AcDbEntity
  8
WAKU0
  6
CONTINUOUS
 62
3
100
AcDbLine
 10
991.8673882456451
 20
40.56082842525595
 30
0.0000000000000000
 11
1004.942775550760
 21
43.56082842525589
 31
0.0000000000000000
  0
LINE
  5
526
100
AcDbEntity
  8
WAKU0
  6
CONTINUOUS
 62
3
100
AcDbLine
 10
991.8673882456451
 20
34.56082842525623
 30
0.0000000000000000
 11
1004.942775550760
 21
31.56082842525624
 31
0.0000000000000000
  0
CIRCLE
  5
527
100
AcDbEntity
  8
WAKU0
  6
CONTINUOUS
 62
3
100
AcDbCircle
 10
978.8949131715972
 20
37.56082842525627
 30
0.0000000000000000
 40
2.999999999999943
  0
CIRCLE
  5
528
100
AcDbEntity
  8
WAKU0
  6
CONTINUOUS
 62
3
100
AcDbCircle
 10
978.8949131715972
 20
37.56082842525627
 30
0.0000000000000000
 40
5.999999999999957
  0
ENDSEC
  0
SECTION
  2
OBJECTS
  0
DICTIONARY
  5
557
100
AcDbDictionary
  3
ACAD_GROUP
350
558
  3
ACAD_MLINESTYLE
350
559
  0
DICTIONARY
  5
558
102
{ACAD_REACTORS
330
557
102
}
100
AcDbDictionary
  0
DICTIONARY
  5
559
102
{ACAD_REACTORS
330
557
102
}
100
AcDbDictionary
  3
STANDARD
350
55A
  0
MLINESTYLE
  5
55A
102
{ACAD_REACTORS
330
559
102
}
100
AcDbMlineStyle
  2
STANDARD
 70
     0
  3

 62
   256
 51
90.00
 52
90.00
 71
     2
 49
0.50
 62
   256
  6
BYLAYER
 49
-0.50
 62
   256
  6
BYLAYER
  0
ENDSEC
  0
EOF
